  0
SECTION
  2
HEADER
  9
$ACADVER
  1
AC1009
  9
$INSBASE
 10
0.0
 20
0.0
 30
0.0
  9
$EXTMIN
 10
889859.858
 20
7290790.985
 30
0.0
  9
$EXTMAX
 10
895301.745
 20
7296232.872
 30
0.0
  9
$LIMMIN
 10
0.0
 20
0.0
  9
$LIMMAX
 10
12.0
 20
9.0
  9
$ORTHOMODE
 70
     0
  9
$REGENMODE
 70
     1
  9
$FILLMODE
 70
     1
  9
$QTEXTMODE
 70
     0
  9
$MIRRTEXT
 70
     1
  9
$DRAGMODE
 70
     2
  9
$LTSCALE
 40
1.0
  9
$OSMODE
 70
     0
  9
$ATTMODE
 70
     1
  9
$TEXTSIZE
 40
0.2
  9
$TRACEWID
 40
0.05
  9
$TEXTSTYLE
  7
STANDARD
  9
$CLAYER
  8
0
  9
$CELTYPE
  6
CONTINUOUS
  9
$CECOLOR
 62
   256
  9
$DIMSCALE
 40
1.0
  9
$DIMASZ
 40
0.18
  9
$DIMEXO
 40
0.0625
  9
$DIMDLI
 40
0.38
  9
$DIMRND
 40
0.0
  9
$DIMDLE
 40
0.0
  9
$DIMEXE
 40
0.18
  9
$DIMTP
 40
0.0
  9
$DIMTM
 40
0.0
  9
$DIMTXT
 40
0.18
  9
$DIMCEN
 40
0.09
  9
$DIMTSZ
 40
0.0
  9
$DIMTOL
 70
     0
  9
$DIMLIM
 70
     0
  9
$DIMTIH
 70
     1
  9
$DIMTOH
 70
     1
  9
$DIMSE1
 70
     0
  9
$DIMSE2
 70
     0
  9
$DIMTAD
 70
     0
  9
$DIMZIN
 70
     0
  9
$DIMBLK
  1

  9
$DIMASO
 70
     1
  9
$DIMSHO
 70
     1
  9
$DIMPOST
  1

  9
$DIMAPOST
  1

  9
$DIMALT
 70
     0
  9
$DIMALTD
 70
     2
  9
$DIMALTF
 40
25.4
  9
$DIMLFAC
 40
1.0
  9
$DIMTOFL
 70
     0
  9
$DIMTVP
 40
0.0
  9
$DIMTIX
 70
     0
  9
$DIMSOXD
 70
     0
  9
$DIMSAH
 70
     0
  9
$DIMBLK1
  1

  9
$DIMBLK2
  1

  9
$DIMSTYLE
  2
STANDARD
  9
$DIMCLRD
 70
     0
  9
$DIMCLRE
 70
     0
  9
$DIMCLRT
 70
     0
  9
$DIMTFAC
 40
1.0
  9
$DIMGAP
 40
0.09
  9
$LUNITS
 70
     2
  9
$LUPREC
 70
     4
  9
$AXISMODE
 70
     0
  9
$AXISUNIT
 10
0.0
 20
0.0
  9
$SKETCHINC
 40
0.1
  9
$FILLETRAD
 40
0.0
  9
$AUNITS
 70
     0
  9
$AUPREC
 70
     0
  9
$MENU
  1
acad
  9
$ELEVATION
 40
0.0
  9
$PELEVATION
 40
0.0
  9
$THICKNESS
 40
0.0
  9
$LIMCHECK
 70
     0
  9
$BLIPMODE
 70
     1
  9
$CHAMFERA
 40
0.0
  9
$CHAMFERB
 40
0.0
  9
$SKPOLY
 70
     0
  9
$TDCREATE
 40
2453013.905358797
  9
$TDUPDATE
 40
2453013.905358797
  9
$TDINDWG
 40
0.0000000000
  9
$TDUSRTIMER
 40
0.0000000000
  9
$USRTIMER
 70
     1
  9
$ANGBASE
 50
0.0
  9
$ANGDIR
 70
     0
  9
$PDMODE
 70
     0
  9
$PDSIZE
 40
0.0
  9
$PLINEWID
 40
0.0
  9
$COORDS
 70
     0
  9
$SPLFRAME
 70
     0
  9
$SPLINETYPE
 70
     6
  9
$SPLINESEGS
 70
    10
  9
$ATTDIA
 70
     0
  9
$ATTREQ
 70
     1
  9
$HANDLING
 70
     1
  9
$HANDSEED
  5
4D
  9
$SURFTAB1
 70
     6
  9
$SURFTAB2
 70
     6
  9
$SURFTYPE
 70
     6
  9
$SURFU
 70
     6
  9
$SURFV
 70
     6
  9
$UCSNAME
  2

  9
$UCSORG
 10
0.0
 20
0.0
 30
0.0
  9
$UCSXDIR
 10
1.0
 20
0.0
 30
0.0
  9
$UCSYDIR
 10
0.0
 20
1.0
 30
0.0
  9
$PUCSNAME
  2

  9
$PUCSORG
 10
0.0
 20
0.0
 30
0.0
  9
$PUCSXDIR
 10
1.0
 20
0.0
 30
0.0
  9
$PUCSYDIR
 10
0.0
 20
1.0
 30
0.0
  9
$USERI1
 70
     0
  9
$USERI2
 70
     0
  9
$USERI3
 70
     0
  9
$USERI4
 70
     0
  9
$USERI5
 70
     0
  9
$USERR1
 40
0.0
  9
$USERR2
 40
0.0
  9
$USERR3
 40
0.0
  9
$USERR4
 40
0.0
  9
$USERR5
 40
0.0
  9
$WORLDVIEW
 70
     1
  9
$SHADEDGE
 70
     3
  9
$SHADEDIF
 70
    70
  9
$TILEMODE
 70
     1
  9
$MAXACTVP
 70
    16
  9
$PINSBASE
 10
0.0
 20
0.0
 30
0.0
  9
$PLIMCHECK
 70
     0
  9
$PEXTMIN
 10
-1.000000E+20
 20
-1.000000E+20
 30
-1.000000E+20
  9
$PEXTMAX
 10
-1.000000E+20
 20
-1.000000E+20
 30
-1.000000E+20
  9
$PLIMMIN
 10
0.0
 20
0.0
  9
$PLIMMAX
 10
12.0
 20
9.0
  9
$UNITMODE
 70
     0
  9
$VISRETAIN
 70
     0
  9
$PLINEGEN
 70
     1
  9
$PSLTSCALE
 70
     0
  9
$TREEDEPTH
 70
  3020
  9
$DWGCODEPAGE
  3
ansi_1252
  0
ENDSEC
  0
SECTION
  2
TABLES
  0
TABLE
  2
VPORT
 70
     1
  0
VPORT
  2
*ACTIVE
 70
     0
 10
0.0
 20
0.0
 11
1.0
 21
1.0
 12
0.0
 22
0.0
 13
0.0
 23
0.0
 14
0.0
 24
0.0
 15
0.0
 25
0.0
 16
0.0
 26
0.0
 36
1.0
 17
891826.229321
 27
7294091.1155
 37
0.0
 40
6736.309
 41
1.110609
 42
50.0
 43
0.004
 44
0.0
 50
0.0
 51
0.0
 71
     0
 72
   100
 73
     1
 74
     0
 75
     0
 76
     0
 77
     0
 78
     0
  0
ENDTAB
  0
TABLE
  2
LTYPE
 70
     7
  0
LTYPE
  2
CONTINUOUS
 70
     0
  3
Solid line
 72
    65
 73
     0
 40
0.0
  0
LTYPE
  2
DOT
 70
    64
  3
. . . . . . . . . . . . . . . . . . . . . . . . . . . . . . . . .
 72
    65
 73
     2
 40
0.25
 49
0.0
 49
-0.25
  0
LTYPE
  2
HIDDEN
 70
    64
  3
__ __ __ __ __ __ __ __ __ __ __ __ __ __ __ __ __ __ __ __ __ 
 72
    65
 73
     2
 40
0.375
 49
0.25
 49
-0.125
  0
LTYPE
  2
DASHED
 70
    64
  3
__ __ __ __ __ __ __ __ __ __ __ __ __ __ __ __ __ __ __ __ __
 72
    65
 73
     2
 40
0.75
 49
0.5
 49
-0.25
  0
LTYPE
  2
DASHDOT
 70
    64
  3
__ . __ . __ . __ . __ . __ . __ . __ . __ . __ . __ . __ . _
 72
    65
 73
     4
 40
1.0
 49
0.5
 49
-0.25
 49
0.0
 49
-0.25
  0
LTYPE
  2
DIVIDE
 70
    64
  3
____ . . ____ . . ____ . . ____ . . ____ . . ____ . . ____ . .
 72
    65
 73
     6
 40
1.25
 49
0.5
 49
-0.25
 49
0.0
 49
-0.25
 49
0.0
 49
-0.25
  0
LTYPE
  2
CENTER
 70
    64
  3
____ _ ____ _ ____ _ ____ _ ____ _ ____ _ ____ _ ____ _ ____ _
 72
    65
 73
     4
 40
2.0
 49
1.25
 49
-0.25
 49
0.25
 49
-0.25
  0
ENDTAB
  0
TABLE
  2
LAYER
 70
     8
  0
LAYER
  2
0
 70
     0
 62
     7
  6
CONTINUOUS
  0
LAYER
  2
CONSTRUCTION_CLASS
 70
     1
 62
     7
  6
CONTINUOUS
  0
LAYER
  2
PATTERN_CLASS
 70
     0
 62
     7
  6
CONTINUOUS
  0
LAYER
  2
25
 70
    64
 62
     7
  6
CONTINUOUS
  0
LAYER
  2
7
 70
    64
 62
     7
  6
CONTINUOUS
  0
LAYER
  2
14
 70
    64
 62
     7
  6
CONTINUOUS
  0
LAYER
  2
15
 70
    64
 62
     7
  6
CONTINUOUS
  0
LAYER
  2
1
 70
    64
 62
     7
  6
CONTINUOUS
  0
ENDTAB
  0
TABLE
  2
STYLE
 70
     2
  0
STYLE
  2
STANDARD
 70
     0
 40
0.0
 41
1.0
 50
0.0
 71
     0
 42
0.0
  3
txt
  4

  0
STYLE
  2
ROMANC
 70
     0
 40
0.2
 41
1.0
 50
0.0
 71
     0
 42
0.2
  3
ROMANC
  4

  0
ENDTAB
  0
TABLE
  2
VIEW
 70
     0
  0
ENDTAB
  0
TABLE
  2
UCS
 70
     0
  0
ENDTAB
  0
TABLE
  2
APPID
 70
     1
  0
APPID
  2
ACAD
 70
     0
  0
ENDTAB
  0
TABLE
  2
DIMSTYLE
 70
     1
  0
DIMSTYLE
  2
STANDARD
 70
     0
  3

  4

  5

  6

  7

 40
1.0
 41
0.18
 42
0.0625
 43
0.38
 44
0.18
 45
0.0
 46
0.0
 47
0.0
 48
0.0
140
0.18
141
0.09
142
0.0
143
25.4
144
1.0
145
0.0
146
1.0
147
0.09
 71
     0
 72
     0
 73
     1
 74
     1
 75
     0
 76
     0
 77
     0
 78
     0
170
     0
171
     2
172
     0
173
     0
174
     0
175
     0
176
     0
177
     0
178
     0
  0
ENDTAB
  0
ENDSEC
  0
SECTION
  2
BLOCKS
  0
ENDSEC
  0
SECTION
  2
ENTITIES
  0
LINE
  8
25
  6
CENTER
 62
     3
  5
29
 10
890168.659
 20
7290945.811
 30
0.0
 11
890175.366
 21
7291125.734
 31
0.0
  0
LINE
  8
25
  6
CENTER
 62
     3
  5
2A
 10
890570.129
 20
7290933.301
 30
0.0
 11
890576.744
 21
7291110.77
 31
0.0
  0
LINE
  8
25
  6
CENTER
 62
     3
  5
2B
 10
890175.366
 20
7291125.734
 30
0.0
 11
890319.857
 21
7291120.347
 31
0.0
  0
LINE
  8
25
  6
CENTER
 62
     3
  5
2C
 10
890399.29
 20
7291117.385
 30
0.0
 11
890576.744
 21
7291110.77
 31
0.0
  0
LINE
  8
7
  6
CONTINUOUS
 62
   230
  5
2E
 10
890377.299
 20
7290939.31
 30
0.0
 11
890383.177
 21
7291086.748
 31
0.0
  0
LINE
  8
7
  6
CONTINUOUS
 62
   230
  5
2F
 10
890325.648
 20
7290940.919
 30
0.0
 11
890331.436
 21
7291086.098
 31
0.0
  0
LINE
  8
25
  6
CENTER
 62
     3
  5
30
 10
890319.857
 20
7291120.347
 30
0.0
 11
890327.032
 21
7291312.807
 31
0.0
  0
LINE
  8
25
  6
CENTER
 62
     3
  5
31
 10
890327.032
 20
7291312.807
 30
0.0
 11
890280.035
 21
7291314.559
 31
0.0
  0
LINE
  8
25
  6
CENTER
 62
     3
  5
32
 10
890399.29
 20
7291117.385
 30
0.0
 11
890410.405
 21
7291415.535
 31
0.0
  0
LINE
  8
25
  6
CENTER
 62
     3
  5
33
 10
890410.684
 20
7291415.235
 30
0.0
 11
890283.963
 21
7291419.959
 31
0.0
  0
LINE
  8
25
  6
CENTER
 62
     3
  5
34
 10
890280.035
 20
7291314.559
 30
0.0
 11
890283.963
 21
7291419.959
 31
0.0
  0
LINE
  8
7
  6
CONTINUOUS
 62
   230
  5
35
 10
890337.149
 20
7291295.586
 30
0.0
 11
890332.439
 21
7291117.792
 31
0.0
  0
LINE
  8
7
  6
CONTINUOUS
 62
   230
  5
36
 10
890388.997
 20
7291358.687
 30
0.0
 11
890389.853
 21
7291399.842
 31
0.0
  0
LINE
  8
7
  6
CONTINUOUS
 62
   230
  5
37
 10
890383.96
 20
7291116.639
 30
0.0
 11
890388.484
 21
7291334.042
 31
0.0
  0
LINE
  8
7
  6
CONTINUOUS
 62
   230
  5
38
 10
890338.438
 20
7291344.229
 30
0.0
 11
890337.871
 21
7291322.868
 31
0.0
  0
LINE
  8
7
  6
CONTINUOUS
 62
   230
  5
39
 10
890296.941
 20
7291345.859
 30
0.0
 11
890338.438
 21
7291344.229
 31
0.0
  0
LINE
  8
7
  6
CONTINUOUS
 62
   230
  5
3A
 10
890297.763
 20
7291404.32
 30
0.0
 11
890296.941
 21
7291345.859
 31
0.0
  0
LINE
  8
7
  6
CONTINUOUS
 62
   230
  5
3B
 10
890327.627
 20
7291402.639
 30
0.0
 11
890297.763
 21
7291404.32
 31
0.0
  0
LINE
  8
7
  6
CONTINUOUS
 62
   230
  5
3C
 10
890389.853
 20
7291399.842
 30
0.0
 11
890359.259
 21
7291401.218
 31
0.0
  0
TEXT
  8
15
  6
CONTINUOUS
 62
    30
  5
40
 10
890226.188
 20
7291037.998
 30
0.0
 40
50.0
  1
REESE
 50
28.2152
  7
ROMANC
210
0.0
220
0.0
230
1.0
  0
TEXT
  8
15
  6
CONTINUOUS
 62
    30
  5
41
 10
890261.647
 20
7290971.911
 30
0.0
 40
50.0
  1
A.F.B.
 50
28.2152
  7
ROMANC
210
0.0
220
0.0
230
1.0
  0
POLYLINE
  8
1
  6
HIDDEN
 62
   253
  5
43
 66
     1
 10
0.0
 20
0.0
 30
0.0
 70
     1
  0
VERTEX
  8
1
  6
HIDDEN
 62
   253
  5
44
 10
895301.745
 20
7296068.423
 30
0.0
  0
VERTEX
  8
1
  6
HIDDEN
 62
   253
  5
45
 10
890024.306
 20
7296232.872
 30
0.0
  0
VERTEX
  8
1
  6
HIDDEN
 62
   253
  5
46
 10
889859.858
 20
7290955.434
 30
0.0
  0
VERTEX
  8
1
  6
HIDDEN
 62
   253
  5
47
 10
895137.296
 20
7290790.985
 30
0.0
  0
VERTEX
  8
1
  6
HIDDEN
 62
   253
  5
48
 10
895301.745
 20
7296068.423
 30
0.0
  0
SEQEND
  8
1
  6
HIDDEN
 62
   253
  5
49
  0
ENDSEC
  0
EOF
