  0
SECTION
  2
HEADER
  9
$ACADVER
  1
AC1009
  9
$INSBASE
 10
0.0
 20
0.0
 30
0.0
  9
$EXTMIN
 10
889731.543
 20
7285476.92
 30
0.0
  9
$EXTMAX
 10
895167.769
 20
7290913.146
 30
0.0
  9
$LIMMIN
 10
0.0
 20
0.0
  9
$LIMMAX
 10
12.0
 20
9.0
  9
$ORTHOMODE
 70
     0
  9
$REGENMODE
 70
     1
  9
$FILLMODE
 70
     1
  9
$QTEXTMODE
 70
     0
  9
$MIRRTEXT
 70
     1
  9
$DRAGMODE
 70
     2
  9
$LTSCALE
 40
1.0
  9
$OSMODE
 70
     0
  9
$ATTMODE
 70
     1
  9
$TEXTSIZE
 40
0.2
  9
$TRACEWID
 40
0.05
  9
$TEXTSTYLE
  7
STANDARD
  9
$CLAYER
  8
0
  9
$CELTYPE
  6
CONTINUOUS
  9
$CECOLOR
 62
   256
  9
$DIMSCALE
 40
1.0
  9
$DIMASZ
 40
0.18
  9
$DIMEXO
 40
0.0625
  9
$DIMDLI
 40
0.38
  9
$DIMRND
 40
0.0
  9
$DIMDLE
 40
0.0
  9
$DIMEXE
 40
0.18
  9
$DIMTP
 40
0.0
  9
$DIMTM
 40
0.0
  9
$DIMTXT
 40
0.18
  9
$DIMCEN
 40
0.09
  9
$DIMTSZ
 40
0.0
  9
$DIMTOL
 70
     0
  9
$DIMLIM
 70
     0
  9
$DIMTIH
 70
     1
  9
$DIMTOH
 70
     1
  9
$DIMSE1
 70
     0
  9
$DIMSE2
 70
     0
  9
$DIMTAD
 70
     0
  9
$DIMZIN
 70
     0
  9
$DIMBLK
  1

  9
$DIMASO
 70
     1
  9
$DIMSHO
 70
     1
  9
$DIMPOST
  1

  9
$DIMAPOST
  1

  9
$DIMALT
 70
     0
  9
$DIMALTD
 70
     2
  9
$DIMALTF
 40
25.4
  9
$DIMLFAC
 40
1.0
  9
$DIMTOFL
 70
     0
  9
$DIMTVP
 40
0.0
  9
$DIMTIX
 70
     0
  9
$DIMSOXD
 70
     0
  9
$DIMSAH
 70
     0
  9
$DIMBLK1
  1

  9
$DIMBLK2
  1

  9
$DIMSTYLE
  2
STANDARD
  9
$DIMCLRD
 70
     0
  9
$DIMCLRE
 70
     0
  9
$DIMCLRT
 70
     0
  9
$DIMTFAC
 40
1.0
  9
$DIMGAP
 40
0.09
  9
$LUNITS
 70
     2
  9
$LUPREC
 70
     4
  9
$AXISMODE
 70
     0
  9
$AXISUNIT
 10
0.0
 20
0.0
  9
$SKETCHINC
 40
0.1
  9
$FILLETRAD
 40
0.0
  9
$AUNITS
 70
     0
  9
$AUPREC
 70
     0
  9
$MENU
  1
acad
  9
$ELEVATION
 40
0.0
  9
$PELEVATION
 40
0.0
  9
$THICKNESS
 40
0.0
  9
$LIMCHECK
 70
     0
  9
$BLIPMODE
 70
     1
  9
$CHAMFERA
 40
0.0
  9
$CHAMFERB
 40
0.0
  9
$SKPOLY
 70
     0
  9
$TDCREATE
 40
2453013.905335648
  9
$TDUPDATE
 40
2453013.905335648
  9
$TDINDWG
 40
0.0000000000
  9
$TDUSRTIMER
 40
0.0000000000
  9
$USRTIMER
 70
     1
  9
$ANGBASE
 50
0.0
  9
$ANGDIR
 70
     0
  9
$PDMODE
 70
     0
  9
$PDSIZE
 40
0.0
  9
$PLINEWID
 40
0.0
  9
$COORDS
 70
     0
  9
$SPLFRAME
 70
     0
  9
$SPLINETYPE
 70
     6
  9
$SPLINESEGS
 70
    10
  9
$ATTDIA
 70
     0
  9
$ATTREQ
 70
     1
  9
$HANDLING
 70
     1
  9
$HANDSEED
  5
F8
  9
$SURFTAB1
 70
     6
  9
$SURFTAB2
 70
     6
  9
$SURFTYPE
 70
     6
  9
$SURFU
 70
     6
  9
$SURFV
 70
     6
  9
$UCSNAME
  2

  9
$UCSORG
 10
0.0
 20
0.0
 30
0.0
  9
$UCSXDIR
 10
1.0
 20
0.0
 30
0.0
  9
$UCSYDIR
 10
0.0
 20
1.0
 30
0.0
  9
$PUCSNAME
  2

  9
$PUCSORG
 10
0.0
 20
0.0
 30
0.0
  9
$PUCSXDIR
 10
1.0
 20
0.0
 30
0.0
  9
$PUCSYDIR
 10
0.0
 20
1.0
 30
0.0
  9
$USERI1
 70
     0
  9
$USERI2
 70
     0
  9
$USERI3
 70
     0
  9
$USERI4
 70
     0
  9
$USERI5
 70
     0
  9
$USERR1
 40
0.0
  9
$USERR2
 40
0.0
  9
$USERR3
 40
0.0
  9
$USERR4
 40
0.0
  9
$USERR5
 40
0.0
  9
$WORLDVIEW
 70
     1
  9
$SHADEDGE
 70
     3
  9
$SHADEDIF
 70
    70
  9
$TILEMODE
 70
     1
  9
$MAXACTVP
 70
    16
  9
$PINSBASE
 10
0.0
 20
0.0
 30
0.0
  9
$PLIMCHECK
 70
     0
  9
$PEXTMIN
 10
-1.000000E+20
 20
-1.000000E+20
 30
-1.000000E+20
  9
$PEXTMAX
 10
-1.000000E+20
 20
-1.000000E+20
 30
-1.000000E+20
  9
$PLIMMIN
 10
0.0
 20
0.0
  9
$PLIMMAX
 10
12.0
 20
9.0
  9
$UNITMODE
 70
     0
  9
$VISRETAIN
 70
     0
  9
$PLINEGEN
 70
     1
  9
$PSLTSCALE
 70
     0
  9
$TREEDEPTH
 70
  3020
  9
$DWGCODEPAGE
  3
ansi_1252
  0
ENDSEC
  0
SECTION
  2
TABLES
  0
TABLE
  2
VPORT
 70
     1
  0
VPORT
  2
*ACTIVE
 70
     0
 10
0.0
 20
0.0
 11
1.0
 21
1.0
 12
0.0
 22
0.0
 13
0.0
 23
0.0
 14
0.0
 24
0.0
 15
0.0
 25
0.0
 16
0.0
 26
0.0
 36
1.0
 17
892207.562671
 27
7288050.306
 37
0.0
 40
5282.678
 41
1.11959
 42
50.0
 43
0.004
 44
0.0
 50
0.0
 51
0.0
 71
     0
 72
   100
 73
     1
 74
     0
 75
     0
 76
     0
 77
     0
 78
     0
  0
ENDTAB
  0
TABLE
  2
LTYPE
 70
     7
  0
LTYPE
  2
CONTINUOUS
 70
     0
  3
Solid line
 72
    65
 73
     0
 40
0.0
  0
LTYPE
  2
DOT
 70
    64
  3
. . . . . . . . . . . . . . . . . . . . . . . . . . . . . . . . .
 72
    65
 73
     2
 40
0.25
 49
0.0
 49
-0.25
  0
LTYPE
  2
HIDDEN
 70
    64
  3
__ __ __ __ __ __ __ __ __ __ __ __ __ __ __ __ __ __ __ __ __ 
 72
    65
 73
     2
 40
0.375
 49
0.25
 49
-0.125
  0
LTYPE
  2
DASHED
 70
    64
  3
__ __ __ __ __ __ __ __ __ __ __ __ __ __ __ __ __ __ __ __ __
 72
    65
 73
     2
 40
0.75
 49
0.5
 49
-0.25
  0
LTYPE
  2
DASHDOT
 70
    64
  3
__ . __ . __ . __ . __ . __ . __ . __ . __ . __ . __ . __ . _
 72
    65
 73
     4
 40
1.0
 49
0.5
 49
-0.25
 49
0.0
 49
-0.25
  0
LTYPE
  2
DIVIDE
 70
    64
  3
____ . . ____ . . ____ . . ____ . . ____ . . ____ . . ____ . .
 72
    65
 73
     6
 40
1.25
 49
0.5
 49
-0.25
 49
0.0
 49
-0.25
 49
0.0
 49
-0.25
  0
LTYPE
  2
CENTER
 70
    64
  3
____ _ ____ _ ____ _ ____ _ ____ _ ____ _ ____ _ ____ _ ____ _
 72
    65
 73
     4
 40
2.0
 49
1.25
 49
-0.25
 49
0.25
 49
-0.25
  0
ENDTAB
  0
TABLE
  2
LAYER
 70
    12
  0
LAYER
  2
0
 70
     0
 62
     7
  6
CONTINUOUS
  0
LAYER
  2
CONSTRUCTION_CLASS
 70
     1
 62
     7
  6
CONTINUOUS
  0
LAYER
  2
PATTERN_CLASS
 70
     0
 62
     7
  6
CONTINUOUS
  0
LAYER
  2
6
 70
    64
 62
     7
  6
CONTINUOUS
  0
LAYER
  2
25
 70
    64
 62
     7
  6
CONTINUOUS
  0
LAYER
  2
27
 70
    64
 62
     7
  6
CONTINUOUS
  0
LAYER
  2
7
 70
    64
 62
     7
  6
CONTINUOUS
  0
LAYER
  2
10
 70
    64
 62
     7
  6
CONTINUOUS
  0
LAYER
  2
18
 70
    64
 62
     7
  6
CONTINUOUS
  0
LAYER
  2
19
 70
    64
 62
     7
  6
CONTINUOUS
  0
LAYER
  2
15
 70
    64
 62
     7
  6
CONTINUOUS
  0
LAYER
  2
1
 70
    64
 62
     7
  6
CONTINUOUS
  0
ENDTAB
  0
TABLE
  2
STYLE
 70
     3
  0
STYLE
  2
STANDARD
 70
     0
 40
0.0
 41
1.0
 50
0.0
 71
     0
 42
0.0
  3
txt
  4

  0
STYLE
  2
txt
 70
     0
 40
0.2
 41
1.0
 50
0.0
 71
     0
 42
0.2
  3
TXT
  4

  0
STYLE
  2
ROMANC
 70
     0
 40
0.2
 41
1.0
 50
0.0
 71
     0
 42
0.2
  3
ROMANC
  4

  0
ENDTAB
  0
TABLE
  2
VIEW
 70
     0
  0
ENDTAB
  0
TABLE
  2
UCS
 70
     0
  0
ENDTAB
  0
TABLE
  2
APPID
 70
     1
  0
APPID
  2
ACAD
 70
     0
  0
ENDTAB
  0
TABLE
  2
DIMSTYLE
 70
     1
  0
DIMSTYLE
  2
STANDARD
 70
     0
  3

  4

  5

  6

  7

 40
1.0
 41
0.18
 42
0.0625
 43
0.38
 44
0.18
 45
0.0
 46
0.0
 47
0.0
 48
0.0
140
0.18
141
0.09
142
0.0
143
25.4
144
1.0
145
0.0
146
1.0
147
0.09
 71
     0
 72
     0
 73
     1
 74
     1
 75
     0
 76
     0
 77
     0
 78
     0
170
     0
171
     2
172
     0
173
     0
174
     0
175
     0
176
     0
177
     0
178
     0
  0
ENDTAB
  0
ENDSEC
  0
SECTION
  2
BLOCKS
  0
ENDSEC
  0
SECTION
  2
ENTITIES
  0
POINT
  8
6
  6
HIDDEN
 62
   253
  5
29
 10
895037.596
 20
7285692.288
 30
0.0
  0
LINE
  8
25
  6
CENTER
 62
     3
  5
2B
 10
892447.64
 20
7289447.632
 30
0.0
 11
892349.835
 21
7285556.841
 31
0.0
  0
LINE
  8
27
  6
CONTINUOUS
 62
     5
  5
2D
 10
890251.236
 20
7289014.829
 30
0.0
 11
890223.363
 21
7287993.672
 31
0.0
  0
LINE
  8
27
  6
CONTINUOUS
 62
     5
  5
2E
 10
890405.817
 20
7289010.425
 30
0.0
 11
890382.057
 21
7288012.413
 31
0.0
  0
LINE
  8
7
  6
CONTINUOUS
 62
     3
  5
30
 10
892418.047
 20
7289268.308
 30
0.0
 11
892324.02
 21
7285557.617
 31
0.0
  0
LINE
  8
7
  6
CONTINUOUS
 62
     3
  5
31
 10
892397.975
 20
7289268.817
 30
0.0
 11
892322.242
 21
7286280.114
 31
0.0
  0
LINE
  8
7
  6
CONTINUOUS
 62
     3
  5
32
 10
891550.105
 20
7286270.903
 30
0.0
 11
890987.6
 21
7286289.898
 31
0.0
  0
LINE
  8
7
  6
CONTINUOUS
 62
     3
  5
33
 10
891550.596
 20
7286290.977
 30
0.0
 11
890988.278
 21
7286309.967
 31
0.0
  0
ARC
  8
27
  6
CONTINUOUS
 62
     5
  5
34
 10
891279.059513
 20
7288164.562232
 30
0.0
 40
204.687404
 50
221.655406
 51
263.214286
210
0.0
220
0.0
230
1.0
  0
LINE
  8
27
  6
CONTINUOUS
 62
     5
  5
35
 10
890503.667
 20
7287907.22
 30
0.0
 11
891408.933
 21
7287880.179
 31
0.0
  0
LINE
  8
27
  6
CONTINUOUS
 62
     5
  5
36
 10
890196.754
 20
7286990.838
 30
0.0
 11
890152.144
 21
7285622.888
 31
0.0
  0
LINE
  8
27
  6
CONTINUOUS
 62
     5
  5
37
 10
890374.166
 20
7287810.564
 30
0.0
 11
890302.677
 21
7285618.364
 31
0.0
  0
ARC
  8
7
  6
CONTINUOUS
 62
     3
  5
38
 10
890815.528552
 20
7286769.509847
 30
0.0
 40
74.927009
 50
164.495603
 51
249.461744
210
0.0
220
0.0
230
1.0
  0
LINE
  8
7
  6
CONTINUOUS
 62
     3
  5
39
 10
890800.106
 20
7286441.728
 30
0.0
 11
890812.004
 21
7286664.565
 31
0.0
  0
LINE
  8
7
  6
CONTINUOUS
 62
     3
  5
3A
 10
890820.157
 20
7286440.658
 30
0.0
 11
890835.265
 21
7286723.612
 31
0.0
  0
ARC
  8
7
  6
CONTINUOUS
 62
     3
  5
3B
 10
890963.393844
 20
7286451.572391
 30
0.0
 40
163.652924
 50
183.874147
 51
279.194458
210
0.0
220
0.0
230
1.0
  0
ARC
  8
7
  6
CONTINUOUS
 62
     3
  5
3C
 10
890963.393844
 20
7286451.572391
 30
0.0
 40
143.572924
 50
183.874147
 51
279.194458
210
0.0
220
0.0
230
1.0
  0
LINE
  8
10
  6
CONTINUOUS
 62
     2
  5
3E
 10
890786.741
 20
7286869.86
 30
0.0
 11
890771.183
 21
7286870.191
 31
0.0
  0
LINE
  8
10
  6
CONTINUOUS
 62
     2
  5
3F
 10
890786.998
 20
7286881.905
 30
0.0
 11
890786.741
 21
7286869.86
 31
0.0
  0
LINE
  8
10
  6
CONTINUOUS
 62
     2
  5
40
 10
890771.44
 20
7286882.236
 30
0.0
 11
890786.998
 21
7286881.905
 31
0.0
  0
LINE
  8
10
  6
CONTINUOUS
 62
     2
  5
41
 10
890771.183
 20
7286870.191
 30
0.0
 11
890771.44
 21
7286882.236
 31
0.0
  0
LINE
  8
7
  6
CONTINUOUS
 62
     3
  5
42
 10
890814.691
 20
7286724.711
 30
0.0
 11
890835.265
 21
7286723.612
 31
0.0
  0
ARC
  8
7
  6
CONTINUOUS
 62
     3
  5
43
 10
890776.913445
 20
7286666.4389
 30
0.0
 40
35.14
 50
356.943881
 51
69.461744
210
0.0
220
0.0
230
1.0
  0
LINE
  8
7
  6
CONTINUOUS
 62
     3
  5
44
 10
890805.895
 20
7286890.895
 30
0.0
 11
890746.044
 21
7286892.866
 31
0.0
  0
LINE
  8
7
  6
CONTINUOUS
 62
     3
  5
45
 10
890802.887
 20
7286843.674
 30
0.0
 11
890805.895
 21
7286890.895
 31
0.0
  0
LINE
  8
7
  6
CONTINUOUS
 62
     3
  5
46
 10
890774.697
 20
7286844.27
 30
0.0
 11
890802.887
 21
7286843.674
 31
0.0
  0
ARC
  8
7
  6
CONTINUOUS
 62
     3
  5
47
 10
890815.528552
 20
7286769.509847
 30
0.0
 40
44.807009
 50
164.495603
 51
268.930103
210
0.0
220
0.0
230
1.0
  0
LINE
  8
7
  6
CONTINUOUS
 62
     3
  5
48
 10
890742.787
 20
7286785.972
 30
0.0
 11
890746.044
 21
7286892.866
 31
0.0
  0
LINE
  8
7
  6
CONTINUOUS
 62
     3
  5
49
 10
890772.893
 20
7286785.055
 30
0.0
 11
890774.697
 21
7286844.27
 31
0.0
  0
SOLID
  8
18
  6
CONTINUOUS
 62
    30
  5
4B
 10
890152.746
 20
7288108.121
 30
0.0
 11
890169.178
 21
7288107.585
 31
0.0
 12
890151.764
 22
7288078.017
 32
0.0
 13
890168.197
 23
7288077.481
 33
0.0
  0
SOLID
  8
18
  6
CONTINUOUS
 62
    30
  5
4C
 10
890168.851
 20
7288097.55
 30
0.0
 11
890440.615
 21
7288088.687
 31
0.0
 12
890168.523
 22
7288087.516
 32
0.0
 13
890440.288
 23
7288078.653
 33
0.0
  0
SOLID
  8
18
  6
CONTINUOUS
 62
    30
  5
4D
 10
890440.615
 20
7288088.687
 30
0.0
 11
890458.31
 21
7288088.111
 31
0.0
 12
890440.288
 22
7288078.653
 32
0.0
 13
890457.984
 23
7288078.076
 33
0.0
  0
LINE
  8
27
  6
CONTINUOUS
 62
     5
  5
4E
 10
890223.647
 20
7287815.473
 30
0.0
 11
890198.849
 21
7287055.061
 31
0.0
  0
LINE
  8
7
  6
CONTINUOUS
 62
     3
  5
4F
 10
889871.837
 20
7287028.413
 30
0.0
 11
890172.642
 21
7287016.737
 31
0.0
  0
LINE
  8
7
  6
CONTINUOUS
 62
     3
  5
50
 10
889872.382
 20
7287042.459
 30
0.0
 11
890172.789
 21
7287030.797
 31
0.0
  0
LINE
  8
10
  6
CONTINUOUS
 62
     2
  5
51
 10
889865.182
 20
7287029.144
 30
0.0
 11
889865.603
 21
7287042.075
 31
0.0
  0
LINE
  8
10
  6
CONTINUOUS
 62
     2
  5
52
 10
889865.603
 20
7287042.075
 30
0.0
 11
889886.773
 21
7287041.385
 31
0.0
  0
LINE
  8
10
  6
CONTINUOUS
 62
     2
  5
53
 10
889886.773
 20
7287041.385
 30
0.0
 11
889886.352
 21
7287028.454
 31
0.0
  0
LINE
  8
10
  6
CONTINUOUS
 62
     2
  5
54
 10
889886.352
 20
7287028.454
 30
0.0
 11
889865.182
 21
7287029.144
 31
0.0
  0
LINE
  8
10
  6
CONTINUOUS
 62
     2
  5
55
 10
889832.32
 20
7287018.963
 30
0.0
 11
889832.598
 21
7287027.515
 31
0.0
  0
LINE
  8
10
  6
CONTINUOUS
 62
     2
  5
56
 10
889832.598
 20
7287027.515
 30
0.0
 11
889843.753
 21
7287027.15
 31
0.0
  0
LINE
  8
10
  6
CONTINUOUS
 62
     2
  5
57
 10
889843.753
 20
7287027.15
 30
0.0
 11
889843.462
 21
7287018.228
 31
0.0
  0
LINE
  8
10
  6
CONTINUOUS
 62
     2
  5
58
 10
889843.462
 20
7287018.228
 30
0.0
 11
889832.32
 21
7287018.963
 31
0.0
  0
ARC
  8
7
  6
CONTINUOUS
 62
     3
  5
59
 10
889804.868736
 20
7287079.947504
 30
0.0
 40
33.151007
 50
232.718147
 51
277.663467
210
0.0
220
0.0
230
1.0
  0
ARC
  8
7
  6
CONTINUOUS
 62
     3
  5
5A
 10
889813.561822
 20
7287058.717784
 30
0.0
 40
12.385369
 50
249.821631
 51
354.263075
210
0.0
220
0.0
230
1.0
  0
ARC
  8
7
  6
CONTINUOUS
 62
     3
  5
5B
 10
889787.757633
 20
7287070.025031
 30
0.0
 40
40.138419
 50
341.786969
 51
56.717003
210
0.0
220
0.0
230
1.0
  0
ARC
  8
7
  6
CONTINUOUS
 62
     3
  5
5C
 10
889797.744748
 20
7287078.616897
 30
0.0
 40
27.714472
 50
64.251342
 51
143.715453
210
0.0
220
0.0
230
1.0
  0
ARC
  8
7
  6
CONTINUOUS
 62
     3
  5
5D
 10
889815.184994
 20
7287086.643421
 30
0.0
 40
44.919978
 50
205.306186
 51
227.414247
210
0.0
220
0.0
230
1.0
  0
ARC
  8
7
  6
CONTINUOUS
 62
     3
  5
5E
 10
889882.792895
 20
7287074.815831
 30
0.0
 40
33.99062
 50
185.542886
 51
252.164406
210
0.0
220
0.0
230
1.0
  0
ARC
  8
7
  6
CONTINUOUS
 62
     3
  5
5F
 10
889785.348115
 20
7287068.525942
 30
0.0
 40
63.684111
 50
2.706103
 51
66.321856
210
0.0
220
0.0
230
1.0
  0
ARC
  8
7
  6
CONTINUOUS
 62
     3
  5
60
 10
889797.271545
 20
7287079.463226
 30
0.0
 40
49.313039
 50
73.928075
 51
115.196275
210
0.0
220
0.0
230
1.0
  0
ARC
  8
7
  6
CONTINUOUS
 62
     3
  5
61
 10
889807.282221
 20
7287093.718975
 30
0.0
 40
67.308282
 50
239.985992
 51
273.525
210
0.0
220
0.0
230
1.0
  0
LINE
  8
7
  6
CONTINUOUS
 62
     3
  5
62
 10
889871.837
 20
7287028.413
 30
0.0
 11
889811.421
 21
7287026.538
 31
0.0
  0
ARC
  8
7
  6
CONTINUOUS
 62
     3
  5
63
 10
890173.762189
 20
7287055.878826
 30
0.0
 40
25.1
 50
267.777022
 51
358.132192
210
0.0
220
0.0
230
1.0
  0
ARC
  8
7
  6
CONTINUOUS
 62
     3
  5
64
 10
890171.667814
 20
7286991.655732
 30
0.0
 40
25.1
 50
358.132194
 51
87.777025
210
0.0
220
0.0
230
1.0
  0
LINE
  8
27
  6
CONTINUOUS
 62
     5
  5
65
 10
889799.825
 20
7287907.575
 30
0.0
 11
890159.876
 21
7287985.574
 31
0.0
  0
LINE
  8
27
  6
CONTINUOUS
 62
     5
  5
66
 10
889797.398
 20
7287826.848
 30
0.0
 11
890151.927
 21
7287907.091
 31
0.0
  0
LINE
  8
27
  6
CONTINUOUS
 62
     5
  5
67
 10
890223.647
 20
7287815.473
 30
0.0
 11
890224.392
 21
7287846.375
 31
0.0
  0
ARC
  8
27
  6
CONTINUOUS
 62
     5
  5
68
 10
890147.47322
 20
7287828.17405
 30
0.0
 40
79.042315
 50
13.312244
 51
86.769233
210
0.0
220
0.0
230
1.0
  0
ARC
  8
27
  6
CONTINUOUS
 62
     5
  5
69
 10
890208.561153
 20
7287856.787748
 30
0.0
 40
137.6818
 50
83.828553
 51
110.708258
210
0.0
220
0.0
230
1.0
  0
TEXT
  8
18
  6
CONTINUOUS
 62
    30
  5
6B
 10
890181.106
 20
7288166.08
 30
0.0
 40
30.12
  1
MAIA
 50
88.132211
  7
txt
210
0.0
220
0.0
230
1.0
  0
ARC
  8
27
  6
CONTINUOUS
 62
     5
  5
6C
 10
890746.231907
 20
7287952.592784
 30
0.0
 40
271.105796
 50
92.959325
 51
129.223275
210
0.0
220
0.0
230
1.0
  0
ARC
  8
27
  6
CONTINUOUS
 62
     5
  5
6D
 10
890756.483214
 20
7287919.773254
 30
0.0
 40
281.767732
 50
87.397672
 51
127.648728
210
0.0
220
0.0
230
1.0
  0
LINE
  8
27
  6
CONTINUOUS
 62
     5
  5
6E
 10
890494.467
 20
7288084.457
 30
0.0
 11
890574.8
 21
7288162.615
 31
0.0
  0
LINE
  8
27
  6
CONTINUOUS
 62
     5
  5
6F
 10
890584.375
 20
7288142.868
 30
0.0
 11
890429.276
 21
7288000.228
 31
0.0
  0
ARC
  8
27
  6
CONTINUOUS
 62
     5
  5
70
 10
890495.99401
 20
7287782.418595
 30
0.0
 40
125.036326
 50
86.481481
 51
166.991411
210
0.0
220
0.0
230
1.0
  0
ARC
  8
27
  6
CONTINUOUS
 62
     5
  5
71
 10
890397.112919
 20
7288012.054374
 30
0.0
 40
15.06
 50
178.636192
 51
268.065808
210
0.0
220
0.0
230
1.0
  0
ARC
  8
27
  6
CONTINUOUS
 62
     5
  5
72
 10
890419.081976
 20
7288011.312461
 30
0.0
 40
15.06
 50
268.065808
 51
312.604286
210
0.0
220
0.0
230
1.0
  0
LINE
  8
27
  6
CONTINUOUS
 62
     5
  5
73
 10
890418.574
 20
7287996.261
 30
0.0
 11
890396.605
 21
7287997.003
 31
0.0
  0
LINE
  8
27
  6
CONTINUOUS
 62
     5
  5
74
 10
890499.123
 20
7288064.465
 30
0.0
 11
890494.467
 21
7288084.457
 31
0.0
  0
LINE
  8
27
  6
CONTINUOUS
 62
     5
  5
75
 10
891063.074
 20
7288127.409
 30
0.0
 11
891082.219
 21
7288078.33
 31
0.0
  0
ARC
  8
27
  6
CONTINUOUS
 62
     5
  5
76
 10
890842.427638
 20
7287902.823502
 30
0.0
 40
296.982987
 50
36.5871
 51
83.749978
210
0.0
220
0.0
230
1.0
  0
LINE
  8
27
  6
CONTINUOUS
 62
     5
  5
77
 10
891126.126
 20
7288028.517
 30
0.0
 11
891080.89
 21
7288079.838
 31
0.0
  0
ARC
  8
27
  6
CONTINUOUS
 62
     5
  5
78
 10
890864.767094
 20
7287964.889074
 30
0.0
 40
256.394799
 50
39.335875
 51
84.672414
210
0.0
220
0.0
230
1.0
  0
LINE
  8
27
  6
CONTINUOUS
 62
     5
  5
79
 10
890732.236
 20
7288223.337
 30
0.0
 11
890888.573
 21
7288220.177
 31
0.0
  0
LINE
  8
27
  6
CONTINUOUS
 62
     5
  5
7A
 10
890874.759
 20
7288198.042
 30
0.0
 11
890769.277
 21
7288201.251
 31
0.0
  0
LINE
  8
7
  6
CONTINUOUS
 62
     3
  5
7B
 10
892320.971
 20
7286229.928
 30
0.0
 11
892303.95
 21
7285558.219
 31
0.0
  0
LINE
  8
27
  6
CONTINUOUS
 62
     5
  5
7C
 10
891630.21
 20
7286263.143
 30
0.0
 11
891611.337
 21
7285579.035
 31
0.0
  0
LINE
  8
27
  6
CONTINUOUS
 62
     5
  5
7D
 10
891554.953
 20
7286265.747
 30
0.0
 11
891536.072
 21
7285581.297
 31
0.0
  0
LINE
  8
27
  6
CONTINUOUS
 62
     5
  5
7E
 10
891667.758
 20
7287624.218
 30
0.0
 11
891631.041
 21
7286293.252
 31
0.0
  0
LINE
  8
27
  6
CONTINUOUS
 62
     5
  5
7F
 10
891594.136
 20
7287686.049
 30
0.0
 11
891555.784
 21
7286295.856
 31
0.0
  0
LINE
  8
7
  6
CONTINUOUS
 62
     3
  5
80
 10
892306.424
 20
7286245.361
 30
0.0
 11
891635.398
 21
7286268.022
 31
0.0
  0
LINE
  8
7
  6
CONTINUOUS
 62
     3
  5
81
 10
892306.679
 20
7286265.444
 30
0.0
 11
891820.992
 21
7286281.846
 31
0.0
  0
LINE
  8
7
  6
CONTINUOUS
 62
     3
  5
82
 10
891795.906
 20
7286282.694
 30
0.0
 11
891635.89
 21
7286288.098
 31
0.0
  0
ARC
  8
7
  6
CONTINUOUS
 62
     3
  5
83
 10
891636.058942
 20
7286293.114169
 30
0.0
 40
5.02
 50
178.419764
 51
268.065811
210
0.0
220
0.0
230
1.0
  0
ARC
  8
7
  6
CONTINUOUS
 62
     3
  5
84
 10
891635.228311
 20
7286263.005049
 30
0.0
 40
5.02
 50
88.065808
 51
178.419761
210
0.0
220
0.0
230
1.0
  0
ARC
  8
7
  6
CONTINUOUS
 62
     3
  5
85
 10
891549.935306
 20
7286265.885464
 30
0.0
 40
5.02
 50
358.419764
 51
88.065811
210
0.0
220
0.0
230
1.0
  0
ARC
  8
7
  6
CONTINUOUS
 62
     3
  5
86
 10
891550.765936
 20
7286295.994584
 30
0.0
 40
5.02
 50
268.065808
 51
358.419761
210
0.0
220
0.0
230
1.0
  0
LINE
  8
10
  6
CONTINUOUS
 62
     2
  5
87
 10
891893.484
 20
7286557.233
 30
0.0
 11
891896.832
 21
7286570.163
 31
0.0
  0
LINE
  8
10
  6
CONTINUOUS
 62
     2
  5
88
 10
891882.568
 20
7286560.058
 30
0.0
 11
891885.916
 21
7286572.987
 31
0.0
  0
LINE
  8
10
  6
CONTINUOUS
 62
     2
  5
89
 10
891882.568
 20
7286560.058
 30
0.0
 11
891893.484
 21
7286557.233
 31
0.0
  0
LINE
  8
10
  6
CONTINUOUS
 62
     2
  5
8A
 10
891885.916
 20
7286572.987
 30
0.0
 11
891896.832
 21
7286570.163
 31
0.0
  0
LINE
  8
7
  6
CONTINUOUS
 62
     3
  5
8B
 10
891817.891
 20
7286329.412
 30
0.0
 11
891802.843
 21
7286330.032
 31
0.0
  0
ARC
  8
7
  6
CONTINUOUS
 62
     3
  5
8C
 10
891796.07521
 20
7286287.710287
 30
0.0
 40
5.02
 50
268.065808
 51
357.639994
210
0.0
220
0.0
230
1.0
  0
ARC
  8
7
  6
CONTINUOUS
 62
     3
  5
8D
 10
891821.161602
 20
7286286.863099
 30
0.0
 40
5.02
 50
177.639997
 51
268.065811
210
0.0
220
0.0
230
1.0
  0
LINE
  8
7
  6
CONTINUOUS
 62
     3
  5
8E
 10
891816.146
 20
7286287.07
 30
0.0
 11
891817.891
 21
7286329.412
 31
0.0
  0
LINE
  8
7
  6
CONTINUOUS
 62
     3
  5
8F
 10
891801.091
 20
7286287.503
 30
0.0
 11
891802.843
 21
7286330.032
 31
0.0
  0
ARC
  8
7
  6
CONTINUOUS
 62
     3
  5
90
 10
892305.915545
 20
7286230.309665
 30
0.0
 40
15.06
 50
358.548467
 51
88.065811
210
0.0
220
0.0
230
1.0
  0
ARC
  8
7
  6
CONTINUOUS
 62
     3
  5
91
 10
892307.187224
 20
7286280.495337
 30
0.0
 40
15.06
 50
268.065808
 51
358.548464
210
0.0
220
0.0
230
1.0
  0
ARC
  8
27
  6
CONTINUOUS
 62
     5
  5
92
 10
891394.763751
 20
7287681.253401
 30
0.0
 40
274.729716
 50
1.378172
 51
85.925969
210
0.0
220
0.0
230
1.0
  0
ARC
  8
27
  6
CONTINUOUS
 62
     5
  5
93
 10
891402.327989
 20
7287690.98829
 30
0.0
 40
291.005389
 50
0.73235
 51
89.135389
210
0.0
220
0.0
230
1.0
  0
ARC
  8
27
  6
CONTINUOUS
 62
     5
  5
94
 10
891394.763751
 20
7287681.253401
 30
0.0
 40
199.429716
 50
1.378172
 51
85.925969
210
0.0
220
0.0
230
1.0
  0
LINE
  8
27
  6
CONTINUOUS
 62
     5
  5
95
 10
891669.414
 20
7287687.862
 30
0.0
 11
891667.758
 21
7287624.218
 31
0.0
  0
ARC
  8
27
  6
CONTINUOUS
 62
     5
  5
96
 10
891661.924286
 20
7287681.440143
 30
0.0
 40
34.074465
 50
321.563475
 51
22.915461
210
0.0
220
0.0
230
1.0
  0
LINE
  8
27
  6
CONTINUOUS
 62
     5
  5
97
 10
891667.758
 20
7287624.218
 30
0.0
 11
891688.614
 21
7287660.258
 31
0.0
  0
LINE
  8
10
  6
CONTINUOUS
 62
     2
  5
98
 10
892008.224
 20
7287045.454
 30
0.0
 11
892019.14
 21
7287042.629
 31
0.0
  0
LINE
  8
10
  6
CONTINUOUS
 62
     2
  5
99
 10
892011.572
 20
7287058.384
 30
0.0
 11
892022.487
 21
7287055.559
 31
0.0
  0
LINE
  8
10
  6
CONTINUOUS
 62
     2
  5
9A
 10
892008.224
 20
7287045.454
 30
0.0
 11
892011.572
 21
7287058.384
 31
0.0
  0
LINE
  8
10
  6
CONTINUOUS
 62
     2
  5
9B
 10
892019.14
 20
7287042.629
 30
0.0
 11
892022.487
 21
7287055.559
 31
0.0
  0
LINE
  8
27
  6
CONTINUOUS
 62
     5
  5
9C
 10
891414.282
 20
7287955.288
 30
0.0
 11
891356.513
 21
7287959.289
 31
0.0
  0
LINE
  8
27
  6
CONTINUOUS
 62
     5
  5
9D
 10
891356.513
 20
7287959.289
 30
0.0
 11
891254.874
 21
7287961.309
 31
0.0
  0
LINE
  8
27
  6
CONTINUOUS
 62
     5
  5
9E
 10
891406.719
 20
7287981.96
 30
0.0
 11
891356.513
 21
7287959.289
 31
0.0
  0
LINE
  8
25
  6
CENTER
 62
     3
  5
9F
 10
890550.689
 20
7289516.247
 30
0.0
 11
892447.64
 21
7289447.632
 31
0.0
  0
LINE
  8
7
  6
CONTINUOUS
 62
     3
  5
A0
 10
890594.367
 20
7289491.826
 30
0.0
 11
892226.743
 21
7289429.174
 31
0.0
  0
LINE
  8
7
  6
CONTINUOUS
 62
     3
  5
A1
 10
890464.173
 20
7289476.728
 30
0.0
 11
892225.974
 21
7289409.11
 31
0.0
  0
LINE
  8
25
  6
CENTER
 62
     3
  5
A2
 10
890157.937
 20
7289769.699
 30
0.0
 11
890198.962
 21
7290903.865
 31
0.0
  0
LINE
  8
25
  6
CENTER
 62
     3
  5
A3
 10
890559.403
 20
7289757.137
 30
0.0
 11
890600.447
 21
7290891.8
 31
0.0
  0
LINE
  8
7
  6
CONTINUOUS
 62
   230
  5
A4
 10
890381.956
 20
7289861.504
 30
0.0
 11
890387.594
 21
7290062.226
 31
0.0
  0
LINE
  8
7
  6
CONTINUOUS
 62
   230
  5
A5
 10
890330.361
 20
7289864.555
 30
0.0
 11
890335.998
 21
7290065.277
 31
0.0
  0
LINE
  8
7
  6
CONTINUOUS
 62
     3
  5
A6
 10
890181.033
 20
7289508.572
 30
0.0
 11
890255.585
 21
7289541.344
 31
0.0
  0
LINE
  8
7
  6
CONTINUOUS
 62
     3
  5
A7
 10
890172.952
 20
7289526.954
 30
0.0
 11
890247.505
 21
7289559.726
 31
0.0
  0
LINE
  8
7
  6
CONTINUOUS
 62
   230
  5
A8
 10
890195.778
 20
7289568.733
 30
0.0
 11
890255.074
 21
7289599.761
 31
0.0
  0
LINE
  8
25
  6
CENTER
 62
     3
  5
A9
 10
890149.295
 20
7289530.767
 30
0.0
 11
890157.939
 21
7289769.725
 31
0.0
  0
LINE
  8
7
  6
CONTINUOUS
 62
     3
  5
AA
 10
889847.693
 20
7289500.39
 30
0.0
 11
890064.841
 21
7289492.056
 31
0.0
  0
LINE
  8
7
  6
CONTINUOUS
 62
     3
  5
AB
 10
889848.297
 20
7289520.462
 30
0.0
 11
890064.749
 21
7289512.154
 31
0.0
  0
LINE
  8
25
  6
CENTER
 62
     3
  5
AC
 10
889848.932
 20
7289541.631
 30
0.0
 11
890149.295
 21
7289530.767
 31
0.0
  0
LINE
  8
10
  6
CONTINUOUS
 62
     2
  5
AD
 10
890092.795
 20
7289418.178
 30
0.0
 11
890103.584
 21
7289417.826
 31
0.0
  0
LINE
  8
10
  6
CONTINUOUS
 62
     2
  5
AE
 10
890103.584
 20
7289417.826
 30
0.0
 11
890103.982
 21
7289430.058
 31
0.0
  0
LINE
  8
10
  6
CONTINUOUS
 62
     2
  5
AF
 10
890103.982
 20
7289430.058
 30
0.0
 11
890093.194
 21
7289430.411
 31
0.0
  0
LINE
  8
10
  6
CONTINUOUS
 62
     2
  5
B0
 10
890093.194
 20
7289430.411
 30
0.0
 11
890092.795
 21
7289418.178
 31
0.0
  0
ARC
  8
7
  6
CONTINUOUS
 62
     3
  5
B1
 10
890098.766593
 20
7289671.072182
 30
0.0
 40
182.153276
 50
259.130736
 51
297.033094
210
0.0
220
0.0
230
1.0
  0
ARC
  8
7
  6
CONTINUOUS
 62
     3
  5
B2
 10
890098.766593
 20
7289671.072182
 30
0.0
 40
162.073276
 50
259.130736
 51
297.033094
210
0.0
220
0.0
230
1.0
  0
LINE
  8
7
  6
CONTINUOUS
 62
   230
  5
B3
 10
890158.287
 20
7289549.116
 30
0.0
 11
890173.441
 21
7289557.045
 31
0.0
  0
LINE
  8
7
  6
CONTINUOUS
 62
   230
  5
B4
 10
890097.643
 20
7289551.531
 30
0.0
 11
890158.287
 21
7289549.116
 31
0.0
  0
LINE
  8
7
  6
CONTINUOUS
 62
   230
  5
B5
 10
890099.12
 20
7289532.581
 30
0.0
 11
890097.643
 21
7289551.531
 31
0.0
  0
ARC
  8
27
  6
CONTINUOUS
 62
     5
  5
B6
 10
890266.29006
 20
7289014.418197
 30
0.0
 40
15.06
 50
88.327433
 51
178.436461
210
0.0
220
0.0
230
1.0
  0
ARC
  8
27
  6
CONTINUOUS
 62
     5
  5
B7
 10
890390.761578
 20
7289010.783615
 30
0.0
 40
15.06
 50
358.636192
 51
88.327433
210
0.0
220
0.0
230
1.0
  0
LINE
  8
27
  6
CONTINUOUS
 62
     5
  5
B8
 10
890391.202
 20
7289025.837
 30
0.0
 11
890266.729
 21
7289029.471
 31
0.0
  0
LINE
  8
25
  6
CENTER
 62
     3
  5
B9
 10
890550.689
 20
7289516.247
 30
0.0
 11
890559.403
 21
7289757.137
 31
0.0
  0
ARC
  8
7
  6
CONTINUOUS
 62
     3
  5
BA
 10
890335.831506
 20
7289391.942777
 30
0.0
 40
189.639218
 50
61.667969
 51
117.989242
210
0.0
220
0.0
230
1.0
  0
LINE
  8
7
  6
CONTINUOUS
 62
   230
  5
BB
 10
890440.169
 20
7289595.93
 30
0.0
 11
890500.609
 21
7289559.009
 31
0.0
  0
ARC
  8
7
  6
CONTINUOUS
 62
     3
  5
BC
 10
890480.329602
 20
7289350.655443
 30
0.0
 40
57.428093
 50
174.766319
 51
268.115347
210
0.0
220
0.0
230
1.0
  0
ARC
  8
7
  6
CONTINUOUS
 62
     3
  5
BD
 10
890480.329602
 20
7289350.655443
 30
0.0
 40
39.356093
 50
174.766319
 51
268.115347
210
0.0
220
0.0
230
1.0
  0
ARC
  8
7
  6
CONTINUOUS
 62
     3
  5
BE
 10
890595.22362
 20
7289738.487273
 30
0.0
 40
246.568225
 50
227.258514
 51
269.000919
210
0.0
220
0.0
230
1.0
  0
ARC
  8
7
  6
CONTINUOUS
 62
     3
  5
BF
 10
890461.613634
 20
7289501.94553
 30
0.0
 40
5.02
 50
267.801997
 51
60.540181
210
0.0
220
0.0
230
1.0
  0
ARC
  8
7
  6
CONTINUOUS
 62
     3
  5
C0
 10
890463.595681
 20
7289461.679887
 30
0.0
 40
15.06
 50
87.801997
 51
176.08075
210
0.0
220
0.0
230
1.0
  0
LINE
  8
7
  6
CONTINUOUS
 62
     3
  5
C1
 10
890448.571
 20
7289462.71
 30
0.0
 11
890441.154
 21
7289354.452
 31
0.0
  0
LINE
  8
7
  6
CONTINUOUS
 62
     3
  5
C2
 10
890432.876
 20
7289498.025
 30
0.0
 11
890423.125
 21
7289355.688
 31
0.0
  0
LINE
  8
7
  6
CONTINUOUS
 62
     3
  5
C3
 10
890432.876
 20
7289498.025
 30
0.0
 11
890461.421
 21
7289496.929
 31
0.0
  0
ARC
  8
7
  6
CONTINUOUS
 62
     3
  5
C4
 10
890595.22362
 20
7289738.487273
 30
0.0
 40
266.648225
 50
227.258514
 51
240.540181
210
0.0
220
0.0
230
1.0
  0
ARC
  8
7
  6
CONTINUOUS
 62
     3
  5
C5
 10
890335.831506
 20
7289391.942777
 30
0.0
 40
169.559218
 50
61.667969
 51
117.989242
210
0.0
220
0.0
230
1.0
  0
LINE
  8
18
  6
CONTINUOUS
 62
    30
  5
C6
 10
890554.471
 20
7289296.554
 30
0.0
 11
890532.624
 21
7289297.998
 31
0.0
  0
LINE
  8
18
  6
CONTINUOUS
 62
    30
  5
C7
 10
890554.018
 20
7289283.149
 30
0.0
 11
890554.471
 21
7289296.554
 31
0.0
  0
LINE
  8
18
  6
CONTINUOUS
 62
    30
  5
C8
 10
890531.796
 20
7289283.9
 30
0.0
 11
890554.018
 21
7289283.149
 31
0.0
  0
LINE
  8
18
  6
CONTINUOUS
 62
    30
  5
C9
 10
890531.931
 20
7289298.375
 30
0.0
 11
890531.796
 21
7289283.9
 31
0.0
  0
LINE
  8
7
  6
CONTINUOUS
 62
     3
  5
CA
 10
890563.707
 20
7289308.601
 30
0.0
 11
890516.598
 21
7289307.56
 31
0.0
  0
LINE
  8
7
  6
CONTINUOUS
 62
     3
  5
CB
 10
890565.781
 20
7289265.447
 30
0.0
 11
890563.707
 21
7289308.601
 31
0.0
  0
LINE
  8
7
  6
CONTINUOUS
 62
     3
  5
CC
 10
890513.174
 20
7289265.812
 30
0.0
 11
890565.781
 21
7289265.447
 31
0.0
  0
LINE
  8
7
  6
CONTINUOUS
 62
     3
  5
CD
 10
890514.788
 20
7289289.579
 30
0.0
 11
890513.174
 21
7289265.812
 31
0.0
  0
LINE
  8
7
  6
CONTINUOUS
 62
     3
  5
CE
 10
890477.833
 20
7289293.299
 30
0.0
 11
890514.788
 21
7289289.579
 31
0.0
  0
LINE
  8
7
  6
CONTINUOUS
 62
     3
  5
CF
 10
890479.643
 20
7289311.28
 30
0.0
 11
890516.598
 21
7289307.56
 31
0.0
  0
LINE
  8
7
  6
CONTINUOUS
 62
   230
  5
D0
 10
890517.641
 20
7289548.605
 30
0.0
 11
890544.667
 21
7289532.096
 31
0.0
  0
LINE
  8
7
  6
CONTINUOUS
 62
   230
  5
D1
 10
890595.899
 20
7289533.18
 30
0.0
 11
890595.269
 21
7289514.634
 31
0.0
  0
LINE
  8
7
  6
CONTINUOUS
 62
   230
  5
D2
 10
890544.667
 20
7289532.096
 30
0.0
 11
890595.899
 21
7289533.18
 31
0.0
  0
LINE
  8
7
  6
CONTINUOUS
 62
   230
  5
D3
 10
890378.617
 20
7289618.044
 30
0.0
 11
890383.572
 21
7289818.783
 31
0.0
  0
LINE
  8
7
  6
CONTINUOUS
 62
   230
  5
D4
 10
890327.023
 20
7289621.094
 30
0.0
 11
890331.977
 21
7289821.833
 31
0.0
  0
LINE
  8
7
  6
CONTINUOUS
 62
   230
  5
D5
 10
890277.411
 20
7289611.449
 30
0.0
 11
890297.039
 21
7289621.72
 31
0.0
  0
LINE
  8
7
  6
CONTINUOUS
 62
   230
  5
D6
 10
890403.894
 20
7289618.086
 30
0.0
 11
890418.662
 21
7289609.066
 31
0.0
  0
LINE
  8
7
  6
CONTINUOUS
 62
   230
  5
D7
 10
890374.234
 20
7289618.037
 30
0.0
 11
890403.894
 21
7289618.086
 31
0.0
  0
LINE
  8
7
  6
CONTINUOUS
 62
   230
  5
D8
 10
890297.039
 20
7289621.72
 30
0.0
 11
890341.23
 21
7289620.797
 31
0.0
  0
LINE
  8
7
  6
CONTINUOUS
 62
   230
  5
D9
 10
890399.929
 20
7290587.502
 30
0.0
 11
890406.751
 21
7290788.185
 31
0.0
  0
LINE
  8
7
  6
CONTINUOUS
 62
   230
  5
DA
 10
890348.334
 20
7290590.552
 30
0.0
 11
890355.157
 21
7290791.235
 31
0.0
  0
LINE
  8
7
  6
CONTINUOUS
 62
   230
  5
DB
 10
890386.546
 20
7290100.374
 30
0.0
 11
890392.55
 21
7290301.084
 31
0.0
  0
LINE
  8
7
  6
CONTINUOUS
 62
   230
  5
DC
 10
890334.951
 20
7290103.423
 30
0.0
 11
890340.956
 21
7290304.134
 31
0.0
  0
LINE
  8
7
  6
CONTINUOUS
 62
   230
  5
DD
 10
890394.029
 20
7290341.263
 30
0.0
 11
890399.458
 21
7290541.989
 31
0.0
  0
LINE
  8
7
  6
CONTINUOUS
 62
   230
  5
DE
 10
890342.435
 20
7290344.313
 30
0.0
 11
890347.863
 21
7290545.039
 31
0.0
  0
LINE
  8
7
  6
CONTINUOUS
 62
   230
  5
DF
 10
890405.027
 20
7290830.942
 30
0.0
 11
890407.61
 21
7290897.594
 31
0.0
  0
LINE
  8
7
  6
CONTINUOUS
 62
   230
  5
E0
 10
890353.433
 20
7290833.992
 30
0.0
 11
890355.958
 21
7290899.147
 31
0.0
  0
ARC
  8
7
  6
CONTINUOUS
 62
     3
  5
E1
 10
892281.396042
 20
7289289.331548
 30
0.0
 40
118.267383
 50
350.684525
 51
49.500836
210
0.0
220
0.0
230
1.0
  0
ARC
  8
7
  6
CONTINUOUS
 62
     3
  5
E2
 10
892281.396042
 20
7289289.331548
 30
0.0
 40
138.347383
 50
350.684525
 51
49.500836
210
0.0
220
0.0
230
1.0
  0
ARC
  8
7
  6
CONTINUOUS
 62
     3
  5
E3
 10
892239.547834
 20
7289162.734145
 30
0.0
 40
266.786205
 50
60.820539
 51
92.944503
210
0.0
220
0.0
230
1.0
  0
ARC
  8
7
  6
CONTINUOUS
 62
     3
  5
E4
 10
892239.547834
 20
7289162.734145
 30
0.0
 40
246.706205
 50
60.820539
 51
92.944503
210
0.0
220
0.0
230
1.0
  0
TEXT
  8
19
  6
CONTINUOUS
 62
     1
  5
E7
 10
890577.897
 20
7287933.39
 30
0.0
 40
24.0
  1
TAXIWAY B
 50
358.2786
  7
ROMANC
210
0.0
220
0.0
230
1.0
  0
TEXT
  8
19
  6
CONTINUOUS
 62
     1
  5
E8
 10
890294.564
 20
7287087.879
 30
0.0
 40
24.0
  1
PRIMARY/INSTRUMENT
 50
88.2786
  7
ROMANC
210
0.0
220
0.0
230
1.0
  0
TEXT
  8
15
  6
CONTINUOUS
 62
    30
  5
EA
 10
890676.11
 20
7288749.399
 30
0.0
 40
50.0
  1
REESE
 50
28.2786
  7
ROMANC
210
0.0
220
0.0
230
1.0
  0
TEXT
  8
15
  6
CONTINUOUS
 62
    30
  5
EB
 10
890916.331
 20
7287682.569
 30
0.0
 40
50.0
  1
AIR
 50
28.2786
  7
ROMANC
210
0.0
220
0.0
230
1.0
  0
TEXT
  8
15
  6
CONTINUOUS
 62
    30
  5
EC
 10
891144.165
 20
7286706.936
 30
0.0
 40
50.0
  1
FORCE
 50
28.2786
  7
ROMANC
210
0.0
220
0.0
230
1.0
  0
TEXT
  8
15
  6
CONTINUOUS
 62
    30
  5
ED
 10
891355.523
 20
7285686.385
 30
0.0
 40
50.0
  1
BASE
 50
28.2786
  7
ROMANC
210
0.0
220
0.0
230
1.0
  0
POLYLINE
  8
1
  6
HIDDEN
 62
   253
  5
EF
 66
     1
 10
0.0
 20
0.0
 30
0.0
 70
     1
  0
VERTEX
  8
1
  6
HIDDEN
 62
   253
  5
F0
 10
895009.159
 20
7285476.92
 30
0.0
  0
VERTEX
  8
1
  6
HIDDEN
 62
   253
  5
F1
 10
889731.543
 20
7285635.529
 30
0.0
  0
VERTEX
  8
1
  6
HIDDEN
 62
   253
  5
F2
 10
889890.151
 20
7290913.146
 30
0.0
  0
VERTEX
  8
1
  6
HIDDEN
 62
   253
  5
F3
 10
895167.769
 20
7290754.537
 30
0.0
  0
SEQEND
  8
1
  6
HIDDEN
 62
   253
  5
F4
  0
ENDSEC
  0
EOF
