  0
SECTION
  2
HEADER
  9
$ACADVER
  1
AC1009
  9
$INSBASE
 10
0.0
 20
0.0
 30
0.0
  9
$EXTMIN
 10
894498.892
 20
7269536.669
 30
0.0
  9
$EXTMAX
 10
899976.56
 20
7274981.368
 30
0.0
  9
$LIMMIN
 10
0.0
 20
0.0
  9
$LIMMAX
 10
12.0
 20
9.0
  9
$ORTHOMODE
 70
     0
  9
$REGENMODE
 70
     1
  9
$FILLMODE
 70
     1
  9
$QTEXTMODE
 70
     0
  9
$MIRRTEXT
 70
     1
  9
$DRAGMODE
 70
     2
  9
$LTSCALE
 40
1.0
  9
$OSMODE
 70
     0
  9
$ATTMODE
 70
     1
  9
$TEXTSIZE
 40
0.2
  9
$TRACEWID
 40
0.05
  9
$TEXTSTYLE
  7
STANDARD
  9
$CLAYER
  8
0
  9
$CELTYPE
  6
CONTINUOUS
  9
$CECOLOR
 62
   256
  9
$DIMSCALE
 40
1.0
  9
$DIMASZ
 40
0.18
  9
$DIMEXO
 40
0.0625
  9
$DIMDLI
 40
0.38
  9
$DIMRND
 40
0.0
  9
$DIMDLE
 40
0.0
  9
$DIMEXE
 40
0.18
  9
$DIMTP
 40
0.0
  9
$DIMTM
 40
0.0
  9
$DIMTXT
 40
0.18
  9
$DIMCEN
 40
0.09
  9
$DIMTSZ
 40
0.0
  9
$DIMTOL
 70
     0
  9
$DIMLIM
 70
     0
  9
$DIMTIH
 70
     1
  9
$DIMTOH
 70
     1
  9
$DIMSE1
 70
     0
  9
$DIMSE2
 70
     0
  9
$DIMTAD
 70
     0
  9
$DIMZIN
 70
     0
  9
$DIMBLK
  1

  9
$DIMASO
 70
     1
  9
$DIMSHO
 70
     1
  9
$DIMPOST
  1

  9
$DIMAPOST
  1

  9
$DIMALT
 70
     0
  9
$DIMALTD
 70
     2
  9
$DIMALTF
 40
25.4
  9
$DIMLFAC
 40
1.0
  9
$DIMTOFL
 70
     0
  9
$DIMTVP
 40
0.0
  9
$DIMTIX
 70
     0
  9
$DIMSOXD
 70
     0
  9
$DIMSAH
 70
     0
  9
$DIMBLK1
  1

  9
$DIMBLK2
  1

  9
$DIMSTYLE
  2
STANDARD
  9
$DIMCLRD
 70
     0
  9
$DIMCLRE
 70
     0
  9
$DIMCLRT
 70
     0
  9
$DIMTFAC
 40
1.0
  9
$DIMGAP
 40
0.09
  9
$LUNITS
 70
     2
  9
$LUPREC
 70
     4
  9
$AXISMODE
 70
     0
  9
$AXISUNIT
 10
0.0
 20
0.0
  9
$SKETCHINC
 40
0.1
  9
$FILLETRAD
 40
0.0
  9
$AUNITS
 70
     0
  9
$AUPREC
 70
     0
  9
$MENU
  1
acad
  9
$ELEVATION
 40
0.0
  9
$PELEVATION
 40
0.0
  9
$THICKNESS
 40
0.0
  9
$LIMCHECK
 70
     0
  9
$BLIPMODE
 70
     1
  9
$CHAMFERA
 40
0.0
  9
$CHAMFERB
 40
0.0
  9
$SKPOLY
 70
     0
  9
$TDCREATE
 40
2453013.905069444
  9
$TDUPDATE
 40
2453013.905069444
  9
$TDINDWG
 40
0.0000000000
  9
$TDUSRTIMER
 40
0.0000000000
  9
$USRTIMER
 70
     1
  9
$ANGBASE
 50
0.0
  9
$ANGDIR
 70
     0
  9
$PDMODE
 70
     0
  9
$PDSIZE
 40
0.0
  9
$PLINEWID
 40
0.0
  9
$COORDS
 70
     0
  9
$SPLFRAME
 70
     0
  9
$SPLINETYPE
 70
     6
  9
$SPLINESEGS
 70
    10
  9
$ATTDIA
 70
     0
  9
$ATTREQ
 70
     1
  9
$HANDLING
 70
     1
  9
$HANDSEED
  5
347
  9
$SURFTAB1
 70
     6
  9
$SURFTAB2
 70
     6
  9
$SURFTYPE
 70
     6
  9
$SURFU
 70
     6
  9
$SURFV
 70
     6
  9
$UCSNAME
  2

  9
$UCSORG
 10
0.0
 20
0.0
 30
0.0
  9
$UCSXDIR
 10
1.0
 20
0.0
 30
0.0
  9
$UCSYDIR
 10
0.0
 20
1.0
 30
0.0
  9
$PUCSNAME
  2

  9
$PUCSORG
 10
0.0
 20
0.0
 30
0.0
  9
$PUCSXDIR
 10
1.0
 20
0.0
 30
0.0
  9
$PUCSYDIR
 10
0.0
 20
1.0
 30
0.0
  9
$USERI1
 70
     0
  9
$USERI2
 70
     0
  9
$USERI3
 70
     0
  9
$USERI4
 70
     0
  9
$USERI5
 70
     0
  9
$USERR1
 40
0.0
  9
$USERR2
 40
0.0
  9
$USERR3
 40
0.0
  9
$USERR4
 40
0.0
  9
$USERR5
 40
0.0
  9
$WORLDVIEW
 70
     1
  9
$SHADEDGE
 70
     3
  9
$SHADEDIF
 70
    70
  9
$TILEMODE
 70
     1
  9
$MAXACTVP
 70
    16
  9
$PINSBASE
 10
0.0
 20
0.0
 30
0.0
  9
$PLIMCHECK
 70
     0
  9
$PEXTMIN
 10
-1.000000E+20
 20
-1.000000E+20
 30
-1.000000E+20
  9
$PEXTMAX
 10
-1.000000E+20
 20
-1.000000E+20
 30
-1.000000E+20
  9
$PLIMMIN
 10
0.0
 20
0.0
  9
$PLIMMAX
 10
12.0
 20
9.0
  9
$UNITMODE
 70
     0
  9
$VISRETAIN
 70
     0
  9
$PLINEGEN
 70
     1
  9
$PSLTSCALE
 70
     0
  9
$TREEDEPTH
 70
  3020
  9
$DWGCODEPAGE
  3
ansi_1252
  0
ENDSEC
  0
SECTION
  2
TABLES
  0
TABLE
  2
VPORT
 70
     1
  0
VPORT
  2
*ACTIVE
 70
     0
 10
0.0
 20
0.0
 11
1.0
 21
1.0
 12
0.0
 22
0.0
 13
0.0
 23
0.0
 14
0.0
 24
0.0
 15
0.0
 25
0.0
 16
0.0
 26
0.0
 36
1.0
 17
897237.7265
 27
7272338.064256
 37
0.0
 40
5738.908513
 41
1.430582
 42
50.0
 43
0.004
 44
0.0
 50
0.0
 51
0.0
 71
     0
 72
   100
 73
     1
 74
     0
 75
     0
 76
     0
 77
     0
 78
     0
  0
ENDTAB
  0
TABLE
  2
LTYPE
 70
     7
  0
LTYPE
  2
CONTINUOUS
 70
     0
  3
Solid line
 72
    65
 73
     0
 40
0.0
  0
LTYPE
  2
DOT
 70
    64
  3
. . . . . . . . . . . . . . . . . . . . . . . . . . . . . . . . .
 72
    65
 73
     2
 40
0.25
 49
0.0
 49
-0.25
  0
LTYPE
  2
HIDDEN
 70
    64
  3
__ __ __ __ __ __ __ __ __ __ __ __ __ __ __ __ __ __ __ __ __ 
 72
    65
 73
     2
 40
0.375
 49
0.25
 49
-0.125
  0
LTYPE
  2
DASHED
 70
    64
  3
__ __ __ __ __ __ __ __ __ __ __ __ __ __ __ __ __ __ __ __ __
 72
    65
 73
     2
 40
0.75
 49
0.5
 49
-0.25
  0
LTYPE
  2
DASHDOT
 70
    64
  3
__ . __ . __ . __ . __ . __ . __ . __ . __ . __ . __ . __ . _
 72
    65
 73
     4
 40
1.0
 49
0.5
 49
-0.25
 49
0.0
 49
-0.25
  0
LTYPE
  2
DIVIDE
 70
    64
  3
____ . . ____ . . ____ . . ____ . . ____ . . ____ . . ____ . .
 72
    65
 73
     6
 40
1.25
 49
0.5
 49
-0.25
 49
0.0
 49
-0.25
 49
0.0
 49
-0.25
  0
LTYPE
  2
CENTER
 70
    64
  3
____ _ ____ _ ____ _ ____ _ ____ _ ____ _ ____ _ ____ _ ____ _
 72
    65
 73
     4
 40
2.0
 49
1.25
 49
-0.25
 49
0.25
 49
-0.25
  0
ENDTAB
  0
TABLE
  2
LAYER
 70
    16
  0
LAYER
  2
0
 70
     0
 62
     7
  6
CONTINUOUS
  0
LAYER
  2
CONSTRUCTION_CLASS
 70
     1
 62
     7
  6
CONTINUOUS
  0
LAYER
  2
PATTERN_CLASS
 70
     0
 62
     7
  6
CONTINUOUS
  0
LAYER
  2
6
 70
    64
 62
     7
  6
CONTINUOUS
  0
LAYER
  2
7
 70
    64
 62
     7
  6
CONTINUOUS
  0
LAYER
  2
10
 70
    64
 62
     7
  6
CONTINUOUS
  0
LAYER
  2
27
 70
    64
 62
     7
  6
CONTINUOUS
  0
LAYER
  2
19
 70
    64
 62
     7
  6
CONTINUOUS
  0
LAYER
  2
11
 70
    64
 62
     7
  6
CONTINUOUS
  0
LAYER
  2
DEFPOINTS
 70
    64
 62
     7
  6
CONTINUOUS
  0
LAYER
  2
15
 70
    64
 62
     7
  6
CONTINUOUS
  0
LAYER
  2
1
 70
    64
 62
     7
  6
CONTINUOUS
  0
LAYER
  2
13
 70
    64
 62
     7
  6
CONTINUOUS
  0
LAYER
  2
21
 70
    64
 62
     7
  6
CONTINUOUS
  0
LAYER
  2
22
 70
    64
 62
     7
  6
CONTINUOUS
  0
LAYER
  2
28
 70
    64
 62
     7
  6
CONTINUOUS
  0
ENDTAB
  0
TABLE
  2
STYLE
 70
     4
  0
STYLE
  2
STANDARD
 70
     0
 40
0.0
 41
1.0
 50
0.0
 71
     0
 42
0.0
  3
txt
  4

  0
STYLE
  2
ROMANS
 70
     0
 40
0.2
 41
1.0
 50
0.0
 71
     0
 42
0.2
  3
ROMANS
  4

  0
STYLE
  2
txt
 70
     0
 40
0.2
 41
1.0
 50
0.0
 71
     0
 42
0.2
  3
TXT
  4

  0
STYLE
  2
ROMANC
 70
     0
 40
0.2
 41
1.0
 50
0.0
 71
     0
 42
0.2
  3
ROMANC
  4

  0
ENDTAB
  0
TABLE
  2
VIEW
 70
     0
  0
ENDTAB
  0
TABLE
  2
UCS
 70
     0
  0
ENDTAB
  0
TABLE
  2
APPID
 70
     1
  0
APPID
  2
ACAD
 70
     0
  0
ENDTAB
  0
TABLE
  2
DIMSTYLE
 70
     2
  0
DIMSTYLE
  2
STANDARD
 70
     0
  3

  4

  5

  6

  7

 40
1.0
 41
0.18
 42
0.0625
 43
0.38
 44
0.18
 45
0.0
 46
0.0
 47
0.0
 48
0.0
140
0.18
141
0.09
142
0.0
143
25.4
144
1.0
145
0.0
146
1.0
147
0.09
 71
     0
 72
     0
 73
     1
 74
     1
 75
     0
 76
     0
 77
     0
 78
     0
170
     0
171
     2
172
     0
173
     0
174
     0
175
     0
176
     0
177
     0
178
     0
  0
DIMSTYLE
  2
MSADIM
 70
     0
  3

  4

  5

  6

  7

 40
1.0
 41
8.0
 42
4.0
 43
0.0
 44
4.0
 45
0.0
 46
0.0
 47
0.0
 48
0.0
140
8.0
141
4.0
142
0.0
143
25.4
144
1.0
145
4.0
146
1.0
147
4.0
 71
     0
 72
     0
 73
     1
 74
     1
 75
     1
 76
     1
 77
     0
 78
     2
170
     0
171
     2
172
     0
173
     0
174
     0
175
     0
176
     0
177
     0
178
     0
  0
ENDTAB
  0
ENDSEC
  0
SECTION
  2
BLOCKS
  0
BLOCK
  8
11
  6
CONTINUOUS
 62
     7
  5
5A
  2
*D0
 70
     1
 10
0.0
 20
0.0
 30
0.0
  3
*N0
  0
TEXT
  8
11
  6
CONTINUOUS
 62
     7
  5
5B
 10
898717.479
 20
7271962.69
 30
0.0
 40
8.0
  1
S70%%d15'38.9"E
 50
340.260806
  7
ROMANS
 72
     1
 11
898767.71352
 21
7271953.164088
 31
0.0
210
0.0
220
0.0
230
1.0
 73
     3
  0
TEXT
  8
11
  6
CONTINUOUS
 62
     7
  5
5C
 10
898767.906
 20
7271961.595
 30
0.0
 40
8.0
  1
 
 50
340.260806
  7
ROMANS
 72
     1
 11
898770.415345
 21
7271960.694587
 31
0.0
210
0.0
220
0.0
230
1.0
  0
ENDBLK
  8
11
  6
CONTINUOUS
 62
     7
  5
5D
  0
ENDSEC
  0
SECTION
  2
ENTITIES
  0
LINE
  8
6
  6
CONTINUOUS
 62
     7
  5
29
 10
894713.75
 20
7274903.043
 30
0.0
 11
894665.638
 21
7273438.522
 31
0.0
  0
LINE
  8
6
  6
CONTINUOUS
 62
     7
  5
2A
 10
899906.164
 20
7274737.333
 30
0.0
 11
899347.126
 21
7274755.39
 31
0.0
  0
LINE
  8
7
  6
CONTINUOUS
 62
     7
  5
2C
 10
897316.08
 20
7274817.552
 30
0.0
 11
897273.385
 21
7273517.936
 31
0.0
  0
LINE
  8
7
  6
CONTINUOUS
 62
     7
  5
2D
 10
897525.966
 20
7274810.657
 30
0.0
 11
897519.072
 21
7274600.77
 31
0.0
  0
LINE
  8
7
  6
CONTINUOUS
 62
     7
  5
2E
 10
898893.934
 20
7272193.684
 30
0.0
 11
898885.016
 21
7271917.573
 31
0.0
  0
LINE
  8
7
  6
CONTINUOUS
 62
     7
  5
2F
 10
897224.697
 20
7272238.228
 30
0.0
 11
895895.4
 21
7272281.48
 31
0.0
  0
LINE
  8
7
  6
CONTINUOUS
 62
     7
  5
30
 10
899341.19
 20
7274575.488
 30
0.0
 11
899900.354
 21
7274557.427
 31
0.0
  0
LINE
  8
7
  6
CONTINUOUS
 62
     7
  5
31
 10
899882.6
 20
7274007.714
 30
0.0
 11
899642.918
 21
7274015.455
 31
0.0
  0
LINE
  8
7
  6
CONTINUOUS
 62
     7
  5
32
 10
899885.505
 20
7274097.666
 30
0.0
 11
899645.877
 21
7274105.407
 31
0.0
  0
LINE
  8
7
  6
CONTINUOUS
 62
     7
  5
33
 10
899888.572
 20
7274192.617
 30
0.0
 11
899648.997
 21
7274200.356
 31
0.0
  0
LINE
  8
7
  6
CONTINUOUS
 62
     7
  5
34
 10
899891.477
 20
7274282.571
 30
0.0
 11
899651.954
 21
7274290.307
 31
0.0
  0
LINE
  8
7
  6
CONTINUOUS
 62
     7
  5
35
 10
899894.543
 20
7274377.521
 30
0.0
 11
899655.077
 21
7274385.255
 31
0.0
  0
LINE
  8
7
  6
CONTINUOUS
 62
     7
  5
36
 10
899897.126
 20
7274457.48
 30
0.0
 11
899657.706
 21
7274465.212
 31
0.0
  0
TEXT
  8
10
  6
CONTINUOUS
 62
   134
  5
39
 10
896579.793
 20
7273819.977
 30
0.0
 40
13.999
  1
X
 50
358.1184
  7
ROMANS
 11
896580.252646
 21
7273833.968452
 31
0.0
210
0.0
220
0.0
230
1.0
 73
     3
  0
TEXT
  8
10
  6
CONTINUOUS
 62
   134
  5
3A
 10
897934.649
 20
7273636.505
 30
0.0
 40
13.999
  1
D-12
 50
358.1184
  7
ROMANS
 11
897935.108646
 21
7273650.496452
 31
0.0
210
0.0
220
0.0
230
1.0
 73
     3
  0
TEXT
  8
10
  6
CONTINUOUS
 62
   134
  5
3B
 10
896354.643
 20
7272573.68
 30
0.0
 40
13.999
  1
Y
 50
358.1364
  7
ROMANS
 11
896355.098251
 21
7272587.671596
 31
0.0
210
0.0
220
0.0
230
1.0
 73
     3
  0
TEXT
  8
10
  6
CONTINUOUS
 62
   134
  5
3C
 10
895816.803
 20
7271194.611
 30
0.0
 40
13.999
  1
W
 50
358.1364
  7
ROMANS
 11
895817.258251
 21
7271208.602596
 31
0.0
210
0.0
220
0.0
230
1.0
 73
     3
  0
TEXT
  8
10
  6
CONTINUOUS
 62
   134
  5
3D
 10
898481.305
 20
7271142.656
 30
0.0
 40
13.999
  1
Z
 50
358.1364
  7
ROMANS
 11
898481.760251
 21
7271156.647596
 31
0.0
210
0.0
220
0.0
230
1.0
 73
     3
  0
TEXT
  8
10
  6
CONTINUOUS
 62
   134
  5
3E
 10
898714.688
 20
7272075.347
 30
0.0
 40
13.999
  1
B
 50
358.1501
  7
ROMANS
 11
898715.139905
 21
7272089.338704
 31
0.0
210
0.0
220
0.0
230
1.0
 73
     3
  0
TEXT
  8
10
  6
CONTINUOUS
 62
   134
  5
3F
 10
898406.96
 20
7272154.169
 30
0.0
 40
13.999
  1
C
 50
358.1184
  7
ROMANS
 11
898407.419646
 21
7272168.160452
 31
0.0
210
0.0
220
0.0
230
1.0
 73
     3
  0
TEXT
  8
10
  6
CONTINUOUS
 62
   134
  5
40
 10
897325.357
 20
7274683.726
 30
0.0
 40
13.999
  1
D-4
 50
358.1184
  7
ROMANS
 11
897325.816646
 21
7274697.717452
 31
0.0
210
0.0
220
0.0
230
1.0
 73
     3
  0
LINE
  8
6
  6
CONTINUOUS
 62
     7
  5
41
 10
899837.785
 20
7271477.894
 30
0.0
 11
894622.004
 21
7273347.934
 31
0.0
  0
LINE
  8
27
  6
CONTINUOUS
 62
    32
  5
43
 10
899839.509
 20
7271530.392
 30
0.0
 11
894623.719
 21
7273400.436
 31
0.0
  0
LINE
  8
7
  6
CONTINUOUS
 62
     7
  5
44
 10
895895.4
 20
7272281.48
 30
0.0
 11
895915.053
 21
7272885.46
 31
0.0
  0
TEXT
  8
19
  6
CONTINUOUS
 62
     1
  5
47
 10
894639.772
 20
7273511.912
 30
0.0
 40
24.0
  1
QUITSNA AVE
 50
88.1184
  7
txt
 72
     4
 11
894631.842492
 21
7273636.013273
 31
0.0
210
0.0
220
0.0
230
1.0
  0
TEXT
  8
19
  6
CONTINUOUS
 62
     1
  5
48
 10
898654.161
 20
7274808.91
 30
0.0
 40
24.0
  1
STATE HIGHWAY 114 (19TH STREET)
 50
358.1501
  7
txt
 72
     4
 11
898999.426539
 21
7274809.764847
 31
0.0
210
0.0
220
0.0
230
1.0
  0
TEXT
  8
19
  6
CONTINUOUS
 62
     1
  5
49
 10
899026.35
 20
7269805.225
 30
0.0
 40
24.0
  1
JASON AVE
 50
88.1364
  7
txt
 72
     4
 11
899017.640954
 21
7269906.56382
 31
0.0
210
0.0
220
0.0
230
1.0
  0
TEXT
  8
11
  6
CONTINUOUS
 62
     7
  5
4B
 10
894825.006
 20
7274933.382
 30
0.0
 40
8.0
  1
65'
 50
88.1184
  7
ROMANS
210
0.0
220
0.0
230
1.0
  0
TEXT
  8
11
  6
CONTINUOUS
 62
     7
  5
4C
 10
894672.92
 20
7274814.215
 30
0.0
 40
8.0
  1
40'
 50
358.1184
  7
ROMANS
210
0.0
220
0.0
230
1.0
  0
TEXT
  8
11
  6
CONTINUOUS
 62
     7
  5
4D
 10
894631.852
 20
7273564.123
 30
0.0
 40
8.0
  1
40'
 50
358.1184
  7
ROMANS
210
0.0
220
0.0
230
1.0
  0
TEXT
  8
11
  6
CONTINUOUS
 62
     7
  5
4E
 10
899903.45
 20
7274765.49
 30
0.0
 40
8.0
  1
65'
 50
88.1501
  7
txt
 72
     4
 11
899899.757078
 21
7274775.062201
 31
0.0
210
0.0
220
0.0
230
1.0
  0
TEXT
  8
11
  6
CONTINUOUS
 62
     7
  5
4F
 10
899919.087
 20
7274727.242
 30
0.0
 40
8.0
  1
40'
 50
358.1501
  7
txt
 72
     4
 11
899929.00602
 21
7274730.923721
 31
0.0
210
0.0
220
0.0
230
1.0
  0
TEXT
  8
11
  6
CONTINUOUS
 62
     7
  5
50
 10
894565.101
 20
7271375.199
 30
0.0
 40
8.0
  1
3752.72'
 50
88.1184
  7
ROMANS
210
0.0
220
0.0
230
1.0
  0
TEXT
  8
11
  6
CONTINUOUS
 62
     7
  5
51
 10
895786.634
 20
7269666.862
 30
0.0
 40
8.0
  1
2640'
 50
358.1184
  7
ROMANS
210
0.0
220
0.0
230
1.0
  0
TEXT
  8
11
  6
CONTINUOUS
 62
     7
  5
52
 10
895918.569
 20
7272636.253
 30
0.0
 40
8.0
  1
604.30'
 50
88.1364
  7
ROMANS
210
0.0
220
0.0
230
1.0
  0
TEXT
  8
11
  6
CONTINUOUS
 62
     7
  5
53
 10
896549.51
 20
7272268.814
 30
0.0
 40
8.0
  1
1330'
 50
358.1364
  7
ROMANS
210
0.0
220
0.0
230
1.0
  0
TEXT
  8
11
  6
CONTINUOUS
 62
     7
  5
54
 10
897223.344
 20
7272396.262
 30
0.0
 40
8.0
  1
175'
 50
88.1364
  7
ROMANS
210
0.0
220
0.0
230
1.0
  0
TEXT
  8
11
  6
CONTINUOUS
 62
     7
  5
55
 10
897209.69
 20
7271323.075
 30
0.0
 40
8.0
  1
2070.57'
 50
88.1364
  7
ROMANS
210
0.0
220
0.0
230
1.0
  0
TEXT
  8
11
  6
CONTINUOUS
 62
     7
  5
56
 10
897181.065
 20
7271094.236
 30
0.0
 40
8.0
  1
2725.57'
 50
88.1364
  7
ROMANS
210
0.0
220
0.0
230
1.0
  0
INSERT
  8
11
  6
CONTINUOUS
 62
     7
  5
5E
  2
*D0
 10
894622.1
 20
7273444.959
 30
0.0
 70
     0
 71
     0
  0
TEXT
  8
11
  6
CONTINUOUS
 62
     7
  5
5F
 10
898624.994
 20
7271996.939
 30
0.0
 40
8.0
  1
2
 50
340.260803
  7
ROMANS
 72
     1
 11
898629.891826
 21
7272003.680972
 31
0.0
210
0.0
220
0.0
230
1.0
 73
     3
  0
TEXT
  8
11
  6
CONTINUOUS
 62
     7
  5
60
 10
898632.524
 20
7271994.237
 30
0.0
 40
8.0
  1
7
 50
340.260803
  7
ROMANS
 72
     1
 11
898637.421826
 21
7272000.978972
 31
0.0
210
0.0
220
0.0
230
1.0
 73
     3
  0
TEXT
  8
11
  6
CONTINUOUS
 62
     7
  5
61
 10
898641.005
 20
7271991.196
 30
0.0
 40
8.0
  1
1
 50
340.260803
  7
ROMANS
 72
     1
 11
898644.962528
 21
7271998.275374
 31
0.0
210
0.0
220
0.0
230
1.0
 73
     3
  0
TEXT
  8
11
  6
CONTINUOUS
 62
     7
  5
62
 10
898648.535
 20
7271988.493
 30
0.0
 40
8.0
  1
1
 50
340.260803
  7
ROMANS
 72
     1
 11
898652.492528
 21
7271995.572374
 31
0.0
210
0.0
220
0.0
230
1.0
 73
     3
  0
TEXT
  8
11
  6
CONTINUOUS
 62
     7
  5
63
 10
898656.064
 20
7271985.791
 30
0.0
 40
8.0
  1
.
 50
340.260803
  7
ROMANS
 72
     1
 11
898660.010233
 21
7271992.874426
 31
0.0
210
0.0
220
0.0
230
1.0
 73
     3
  0
TEXT
  8
11
  6
CONTINUOUS
 62
     7
  5
64
 10
898662.347
 20
7271983.535
 30
0.0
 40
8.0
  1
0
 50
340.260803
  7
ROMANS
 72
     1
 11
898667.544141
 21
7271990.169571
 31
0.0
210
0.0
220
0.0
230
1.0
 73
     3
  0
TEXT
  8
11
  6
CONTINUOUS
 62
     7
  5
65
 10
898670.174
 20
7271980.728
 30
0.0
 40
8.0
  1
8
 50
340.260803
  7
ROMANS
 72
     1
 11
898675.071826
 21
7271987.469972
 31
0.0
210
0.0
220
0.0
230
1.0
 73
     3
  0
TEXT
  8
11
  6
CONTINUOUS
 62
     7
  5
66
 10
898678.655
 20
7271977.684
 30
0.0
 40
8.0
  1
'
 50
340.260803
  7
ROMANS
 72
     1
 11
898682.612528
 21
7271984.763374
 31
0.0
210
0.0
220
0.0
230
1.0
 73
     3
  0
TEXT
  8
11
  6
CONTINUOUS
 62
     7
  5
67
 10
899307.816
 20
7271766.8
 30
0.0
 40
8.0
  1
9
 50
340.260803
  7
ROMANS
 72
     1
 11
899310.011912
 21
7271766.012054
 31
0.0
210
0.0
220
0.0
230
1.0
  0
TEXT
  8
11
  6
CONTINUOUS
 62
     7
  5
68
 10
899315.347
 20
7271764.098
 30
0.0
 40
8.0
  1
7
 50
340.260803
  7
ROMANS
 72
     1
 11
899317.542912
 21
7271763.310054
 31
0.0
210
0.0
220
0.0
230
1.0
  0
TEXT
  8
11
  6
CONTINUOUS
 62
     7
  5
69
 10
899322.877
 20
7271761.396
 30
0.0
 40
8.0
  1
7
 50
340.260803
  7
ROMANS
 72
     1
 11
899325.072912
 21
7271760.608054
 31
0.0
210
0.0
220
0.0
230
1.0
  0
TEXT
  8
11
  6
CONTINUOUS
 62
     7
  5
6A
 10
899331.355
 20
7271758.354
 30
0.0
 40
8.0
  1
.
 50
340.260803
  7
ROMANS
 72
     1
 11
899332.599319
 21
7271757.907509
 31
0.0
210
0.0
220
0.0
230
1.0
  0
TEXT
  8
11
  6
CONTINUOUS
 62
     7
  5
6B
 10
899337.936
 20
7271755.992
 30
0.0
 40
8.0
  1
2
 50
340.260803
  7
ROMANS
 72
     1
 11
899340.131912
 21
7271755.204054
 31
0.0
210
0.0
220
0.0
230
1.0
  0
TEXT
  8
11
  6
CONTINUOUS
 62
     7
  5
6C
 10
899345.466
 20
7271753.29
 30
0.0
 40
8.0
  1
5
 50
340.260803
  7
ROMANS
 72
     1
 11
899347.672266
 21
7271752.498339
 31
0.0
210
0.0
220
0.0
230
1.0
  0
TEXT
  8
11
  6
CONTINUOUS
 62
     7
  5
6D
 10
899353.946
 20
7271750.248
 30
0.0
 40
8.0
  1
'
 50
340.260803
  7
ROMANS
 72
     1
 11
899355.201614
 21
7271749.797456
 31
0.0
210
0.0
220
0.0
230
1.0
  0
TEXT
  8
11
  6
CONTINUOUS
 62
     7
  5
6E
 10
898898.545
 20
7272005.61
 30
0.0
 40
8.0
  1
283.48'
 50
88.1501
  7
txt
 72
     4
 11
898895.316734
 21
7272029.568699
 31
0.0
210
0.0
220
0.0
230
1.0
  0
TEXT
  8
11
  6
CONTINUOUS
 62
     7
  5
6F
 10
898317.651
 20
7272214.443
 30
0.0
 40
8.0
  1
538.23'
 50
358.1184
  7
ROMANS
210
0.0
220
0.0
230
1.0
  0
TEXT
  8
11
  6
CONTINUOUS
 62
     7
  5
70
 10
898550.73
 20
7272096.826
 30
0.0
 40
8.0
  1
173.73'
 50
88.1501
  7
txt
 72
     4
 11
898547.451892
 21
7272119.241504
 31
0.0
210
0.0
220
0.0
230
1.0
  0
TEXT
  8
11
  6
CONTINUOUS
 62
     7
  5
71
 10
898297.548
 20
7272137.829
 30
0.0
 40
8.0
  1
5
 50
340.229103
  7
ROMANS
 72
     1
 11
898299.753828
 21
7272137.036119
 31
0.0
210
0.0
220
0.0
230
1.0
  0
TEXT
  8
11
  6
CONTINUOUS
 62
     7
  5
72
 10
898304.898
 20
7272135.188
 30
0.0
 40
8.0
  1
6
 50
340.229103
  7
ROMANS
 72
     1
 11
898307.269453
 21
7272134.335585
 31
0.0
210
0.0
220
0.0
230
1.0
  0
TEXT
  8
11
  6
CONTINUOUS
 62
     7
  5
73
 10
898312.605
 20
7272132.418
 30
0.0
 40
8.0
  1
5
 50
340.229103
  7
ROMANS
 72
     1
 11
898314.810828
 21
7272131.625119
 31
0.0
210
0.0
220
0.0
230
1.0
  0
TEXT
  8
11
  6
CONTINUOUS
 62
     7
  5
74
 10
898321.082
 20
7272129.369
 30
0.0
 40
8.0
  1
.
 50
340.229103
  7
ROMANS
 72
     1
 11
898322.326072
 21
7272128.92182
 31
0.0
210
0.0
220
0.0
230
1.0
  0
TEXT
  8
11
  6
CONTINUOUS
 62
     7
  5
75
 10
898327.662
 20
7272127.005
 30
0.0
 40
8.0
  1
5
 50
340.229103
  7
ROMANS
 72
     1
 11
898329.867828
 21
7272126.212119
 31
0.0
210
0.0
220
0.0
230
1.0
  0
TEXT
  8
11
  6
CONTINUOUS
 62
     7
  5
76
 10
898335.19
 20
7272124.298
 30
0.0
 40
8.0
  1
8
 50
340.229103
  7
ROMANS
 72
     1
 11
898337.385476
 21
7272123.508839
 31
0.0
210
0.0
220
0.0
230
1.0
  0
TEXT
  8
11
  6
CONTINUOUS
 62
     7
  5
77
 10
898343.666
 20
7272121.252
 30
0.0
 40
8.0
  1
'
 50
340.229103
  7
ROMANS
 72
     1
 11
898344.921364
 21
7272120.800761
 31
0.0
210
0.0
220
0.0
230
1.0
  0
TEXT
  8
11
  6
CONTINUOUS
 62
     7
  5
78
 10
898680.971
 20
7271991.728
 30
0.0
 40
8.0
  1
3
 50
340.260803
  7
ROMANS
 72
     1
 11
898683.166912
 21
7271990.940054
 31
0.0
210
0.0
220
0.0
230
1.0
  0
TEXT
  8
11
  6
CONTINUOUS
 62
     7
  5
79
 10
898688.5
 20
7271989.025
 30
0.0
 40
8.0
  1
5
 50
340.260803
  7
ROMANS
 72
     1
 11
898690.706266
 21
7271988.233339
 31
0.0
210
0.0
220
0.0
230
1.0
  0
TEXT
  8
11
  6
CONTINUOUS
 62
     7
  5
7A
 10
898696.031
 20
7271986.324
 30
0.0
 40
8.0
  1
7
 50
340.260803
  7
ROMANS
 72
     1
 11
898698.226912
 21
7271985.536054
 31
0.0
210
0.0
220
0.0
230
1.0
  0
TEXT
  8
11
  6
CONTINUOUS
 62
     7
  5
7B
 10
898704.509
 20
7271983.281
 30
0.0
 40
8.0
  1
.
 50
340.260803
  7
ROMANS
 72
     1
 11
898705.753319
 21
7271982.834509
 31
0.0
210
0.0
220
0.0
230
1.0
  0
TEXT
  8
11
  6
CONTINUOUS
 62
     7
  5
7C
 10
898711.09
 20
7271980.919
 30
0.0
 40
8.0
  1
2
 50
340.260803
  7
ROMANS
 72
     1
 11
898713.285912
 21
7271980.131054
 31
0.0
210
0.0
220
0.0
230
1.0
  0
TEXT
  8
11
  6
CONTINUOUS
 62
     7
  5
7D
 10
898718.62
 20
7271978.217
 30
0.0
 40
8.0
  1
7
 50
340.260803
  7
ROMANS
 72
     1
 11
898720.815912
 21
7271977.429054
 31
0.0
210
0.0
220
0.0
230
1.0
  0
TEXT
  8
11
  6
CONTINUOUS
 62
     7
  5
7E
 10
898727.1
 20
7271975.175
 30
0.0
 40
8.0
  1
'
 50
340.260803
  7
ROMANS
 72
     1
 11
898728.355614
 21
7271974.724456
 31
0.0
210
0.0
220
0.0
230
1.0
  0
TEXT
  8
11
  6
CONTINUOUS
 62
     7
  5
7F
 10
898064.208
 20
7274796.448
 30
0.0
 40
8.0
  1
1110'
 50
358.1184
  7
ROMANS
210
0.0
220
0.0
230
1.0
  0
TEXT
  8
11
  6
CONTINUOUS
 62
     7
  5
80
 10
897412.38
 20
7274816.571
 30
0.0
 40
8.0
  1
210'
 50
358.1184
  7
ROMANS
210
0.0
220
0.0
230
1.0
  0
TEXT
  8
11
  6
CONTINUOUS
 62
     7
  5
81
 10
897520.131
 20
7274712.641
 30
0.0
 40
8.0
  1
210'
 50
88.1184
  7
ROMANS
210
0.0
220
0.0
230
1.0
  0
TEXT
  8
11
  6
CONTINUOUS
 62
     7
  5
82
 10
897267.344
 20
7273666.588
 30
0.0
 40
8.0
  1
2317.66'
 50
88.1184
  7
ROMANS
210
0.0
220
0.0
230
1.0
  0
TEXT
  8
11
  6
CONTINUOUS
 62
     7
  5
83
 10
894622.882
 20
7273458.682
 30
0.0
 40
8.0
  1
4
 50
340.229103
  7
ROMANS
 72
     1
 11
894625.077476
 21
7273457.892839
 31
0.0
210
0.0
220
0.0
230
1.0
  0
TEXT
  8
11
  6
CONTINUOUS
 62
     7
  5
84
 10
894630.411
 20
7273455.976
 30
0.0
 40
8.0
  1
2
 50
340.229103
  7
ROMANS
 72
     1
 11
894632.606476
 21
7273455.186839
 31
0.0
210
0.0
220
0.0
230
1.0
  0
TEXT
  8
11
  6
CONTINUOUS
 62
     7
  5
85
 10
894638.888
 20
7273452.929
 30
0.0
 40
8.0
  1
.
 50
340.229103
  7
ROMANS
 72
     1
 11
894640.132072
 21
7273452.48182
 31
0.0
210
0.0
220
0.0
230
1.0
  0
TEXT
  8
11
  6
CONTINUOUS
 62
     7
  5
86
 10
894645.172
 20
7273450.67
 30
0.0
 40
8.0
  1
0
 50
340.229103
  7
ROMANS
 72
     1
 11
894647.666731
 21
7273449.773273
 31
0.0
210
0.0
220
0.0
230
1.0
  0
TEXT
  8
11
  6
CONTINUOUS
 62
     7
  5
87
 10
894652.996
 20
7273447.858
 30
0.0
 40
8.0
  1
3
 50
340.229103
  7
ROMANS
 72
     1
 11
894655.191476
 21
7273447.068839
 31
0.0
210
0.0
220
0.0
230
1.0
  0
TEXT
  8
11
  6
CONTINUOUS
 62
     7
  5
88
 10
894661.473
 20
7273444.81
 30
0.0
 40
8.0
  1
'
 50
340.229103
  7
ROMANS
 72
     1
 11
894662.728364
 21
7273444.358761
 31
0.0
210
0.0
220
0.0
230
1.0
  0
TEXT
  8
15
  6
CONTINUOUS
 62
    30
  5
8A
 10
897253.777
 20
7269917.466
 30
0.0
 40
50.0
  1
CHEYENNE
 50
28.1364
  7
txt
 72
     4
 11
897411.056945
 21
7270029.924338
 31
0.0
210
0.0
220
0.0
230
1.0
  0
TEXT
  8
15
  6
CONTINUOUS
 62
    30
  5
8B
 10
899189.315
 20
7269889.524
 30
0.0
 40
50.0
  1
ESTATES
 50
28.1364
  7
txt
 72
     4
 11
899321.422299
 21
7269988.520838
 31
0.0
210
0.0
220
0.0
230
1.0
  0
TEXT
  8
15
  6
CONTINUOUS
 62
    30
  5
8C
 10
898362.458
 20
7269904.872
 30
0.0
 40
50.0
  1
COUNTRY
 50
28.1364
  7
txt
 72
     4
 11
898500.472661
 21
7270007.0279
 31
0.0
210
0.0
220
0.0
230
1.0
  0
TEXT
  8
11
  6
CONTINUOUS
 62
     7
  5
8D
 10
899684.103
 20
7274735.844
 30
0.0
 40
8.0
  1
90'
 50
358.1501
  7
txt
 72
     4
 11
899693.643218
 21
7274739.537955
 31
0.0
210
0.0
220
0.0
230
1.0
  0
TEXT
  8
11
  6
CONTINUOUS
 62
     7
  5
8E
 10
899641.077
 20
7274627.93
 30
0.0
 40
8.0
  1
180'
 50
88.1501
  7
txt
 72
     4
 11
899637.472528
 21
7274640.240773
 31
0.0
210
0.0
220
0.0
230
1.0
  0
TEXT
  8
11
  6
CONTINUOUS
 62
     7
  5
8F
 10
899902.511
 20
7274673.09
 30
0.0
 40
8.0
  1
100'
 50
88.1501
  7
txt
 72
     4
 11
899898.905495
 21
7274685.36879
 31
0.0
210
0.0
220
0.0
230
1.0
  0
TEXT
  8
11
  6
CONTINUOUS
 62
     7
  5
90
 10
899753.114
 20
7274667.808
 30
0.0
 40
8.0
  1
110'
 50
88.1501
  7
txt
 72
     4
 11
899749.463786
 21
7274678.702511
 31
0.0
210
0.0
220
0.0
230
1.0
  0
TEXT
  8
11
  6
CONTINUOUS
 62
     7
  5
91
 10
899818.184
 20
7274731.389
 30
0.0
 40
8.0
  1
150'
 50
358.1501
  7
txt
 72
     4
 11
899830.494773
 21
7274734.993472
 31
0.0
210
0.0
220
0.0
230
1.0
  0
TEXT
  8
11
  6
CONTINUOUS
 62
     7
  5
92
 10
899749.644
 20
7274551.292
 30
0.0
 40
8.0
  1
250'
 50
358.1501
  7
txt
 72
     4
 11
899763.372034
 21
7274554.850697
 31
0.0
210
0.0
220
0.0
230
1.0
  0
TEXT
  8
11
  6
CONTINUOUS
 62
     7
  5
93
 10
899866.149
 20
7273891.776
 30
0.0
 40
8.0
  1
180'
 50
88.1501
  7
txt
 72
     4
 11
899862.544528
 21
7273904.086773
 31
0.0
210
0.0
220
0.0
230
1.0
  0
TEXT
  8
11
  6
CONTINUOUS
 62
     7
  5
94
 10
899879.315
 20
7274043.852
 30
0.0
 40
8.0
  1
90'
 50
88.1501
  7
txt
 72
     4
 11
899875.621045
 21
7274053.392218
 31
0.0
210
0.0
220
0.0
230
1.0
  0
TEXT
  8
11
  6
CONTINUOUS
 62
     7
  5
95
 10
899882.562
 20
7274137.511
 30
0.0
 40
8.0
  1
95'
 50
88.1501
  7
txt
 72
     4
 11
899878.869078
 21
7274147.083201
 31
0.0
210
0.0
220
0.0
230
1.0
  0
TEXT
  8
11
  6
CONTINUOUS
 62
     7
  5
96
 10
899885.984
 20
7274229.688
 30
0.0
 40
8.0
  1
90'
 50
88.1501
  7
txt
 72
     4
 11
899882.290045
 21
7274239.228218
 31
0.0
210
0.0
220
0.0
230
1.0
  0
TEXT
  8
11
  6
CONTINUOUS
 62
     7
  5
97
 10
899889.713
 20
7274325.095
 30
0.0
 40
8.0
  1
95'
 50
88.1501
  7
txt
 72
     4
 11
899886.020078
 21
7274334.667201
 31
0.0
210
0.0
220
0.0
230
1.0
  0
TEXT
  8
11
  6
CONTINUOUS
 62
     7
  5
98
 10
899891.599
 20
7274410.572
 30
0.0
 40
8.0
  1
80'
 50
88.1501
  7
txt
 72
     4
 11
899887.911178
 21
7274420.302119
 31
0.0
210
0.0
220
0.0
230
1.0
  0
TEXT
  8
11
  6
CONTINUOUS
 62
     7
  5
99
 10
899894.527
 20
7274501.276
 30
0.0
 40
8.0
  1
100'
 50
88.1501
  7
txt
 72
     4
 11
899890.921495
 21
7274513.55479
 31
0.0
210
0.0
220
0.0
230
1.0
  0
POLYLINE
  8
1
  6
HIDDEN
 62
   253
  5
9B
 66
     1
 10
0.0
 20
0.0
 30
0.0
 70
     1
  0
VERTEX
  8
1
  6
HIDDEN
 62
   253
  5
9C
 10
894498.892
 20
7269703.663
 30
0.0
  0
VERTEX
  8
1
  6
HIDDEN
 62
   253
  5
9D
 10
899762.269
 20
7269536.669
 30
0.0
  0
VERTEX
  8
1
  6
HIDDEN
 62
   253
  5
9E
 10
899930.139
 20
7274817.949
 30
0.0
  0
VERTEX
  8
1
  6
HIDDEN
 62
   253
  5
9F
 10
894665.267
 20
7274978.127
 30
0.0
  0
SEQEND
  8
1
  6
HIDDEN
 62
   253
  5
A0
  0
LINE
  8
6
  6
CONTINUOUS
 62
     7
  5
A1
 10
898632.531
 20
7274774.304
 30
0.0
 11
894713.75
 21
7274903.044
 31
0.0
  0
TEXT
  8
11
  6
CONTINUOUS
 62
     7
  5
A2
 10
894668.038
 20
7274556.097
 30
0.0
 40
8.0
  1
40'
 50
358.1184
  7
ROMANS
210
0.0
220
0.0
230
1.0
  0
TEXT
  8
11
  6
CONTINUOUS
 62
     7
  5
A3
 10
894663.657
 20
7274495.744
 30
0.0
 40
8.0
  1
40'
 50
358.1184
  7
ROMANS
210
0.0
220
0.0
230
1.0
  0
TEXT
  8
19
  6
CONTINUOUS
 62
     1
  5
A4
 10
899363.736
 20
7273440.637
 30
0.0
 40
24.0
  1
JASON AVE
 50
88.1501
  7
txt
 72
     4
 11
899355.002724
 21
7273541.973735
 31
0.0
210
0.0
220
0.0
230
1.0
  0
LINE
  8
6
  6
CONTINUOUS
 62
     7
  5
A5
 10
897472.827
 20
7274602.126
 30
0.0
 11
897472.828
 21
7274602.128
 31
0.0
  0
LINE
  8
6
  6
CONTINUOUS
 62
     7
  5
A6
 10
897372.879
 20
7274605.336
 30
0.0
 11
897380.364
 21
7274815.441
 31
0.0
  0
LINE
  8
6
  6
CONTINUOUS
 62
     7
  5
A7
 10
897480.31
 20
7274812.157
 30
0.0
 11
897472.827
 21
7274602.126
 31
0.0
  0
LINE
  8
6
  6
CONTINUOUS
 62
     7
  5
A8
 10
897472.828
 20
7274602.125
 30
0.0
 11
897472.828
 21
7274602.128
 31
0.0
  0
LINE
  8
6
  6
CONTINUOUS
 62
     7
  5
A9
 10
897934.098
 20
7272285.189
 30
0.0
 11
898088.235
 21
7272211.403
 31
0.0
  0
LINE
  8
6
  6
CONTINUOUS
 62
     7
  5
AA
 10
899841.234
 20
7271582.891
 30
0.0
 11
898088.236
 21
7272211.402
 31
0.0
  0
TEXT
  8
11
  6
CONTINUOUS
 62
     7
  5
AB
 10
897531.339
 20
7272685.612
 30
0.0
 40
8.0
  1
991.79'        R=904.93'
 50
303.237178
  7
ROMANS
 72
     1
 11
897589.186654
 21
7272611.932302
 31
0.0
210
0.0
220
0.0
230
1.0
 73
     3
  0
TEXT
  8
11
  6
CONTINUOUS
 62
     7
  5
AC
 10
897955.413
 20
7272277.204
 30
0.0
 40
8.0
  1
102.95'
 50
334.419211
  7
ROMANS
 72
     1
 11
897978.263694
 21
7272266.265201
 31
0.0
210
0.0
220
0.0
230
1.0
  0
ARC
  8
6
  6
CONTINUOUS
 62
     7
  5
AD
 10
896410.019322
 20
7273789.040892
 30
0.0
 40
904.93
 50
340.839767
 51
352.467278
210
0.0
220
0.0
230
1.0
  0
TEXT
  8
11
  6
CONTINUOUS
 62
     7
  5
AE
 10
897375.958
 20
7274712.191
 30
0.0
 40
8.0
  1
208.86'
 50
87.960036
  7
ROMANS
 72
     1
 11
897376.859768
 21
7274737.507945
 31
0.0
210
0.0
220
0.0
230
1.0
  0
TEXT
  8
11
  6
CONTINUOUS
 62
     7
  5
AF
 10
897486.122
 20
7274704.388
 30
0.0
 40
8.0
  1
208.84'
 50
87.959792
  7
ROMANS
 72
     1
 11
897487.023911
 21
7274729.705941
 31
0.0
210
0.0
220
0.0
230
1.0
  0
TEXT
  8
11
  6
CONTINUOUS
 62
     7
  5
B0
 10
897415.492
 20
7274803.991
 30
0.0
 40
8.0
  1
100'
 50
358.161878
  7
ROMANS
 72
     1
 11
897428.819139
 21
7274803.563302
 31
0.0
210
0.0
220
0.0
230
1.0
  0
LINE
  8
7
  6
CONTINUOUS
 62
     7
  5
B1
 10
897519.072
 20
7274600.77
 30
0.0
 11
897472.832
 21
7274602.289
 31
0.0
  0
LINE
  8
7
  6
CONTINUOUS
 62
     7
  5
B2
 10
897372.889
 20
7274605.573
 30
0.0
 11
897309.185
 21
7274607.666
 31
0.0
  0
TEXT
  8
11
  6
CONTINUOUS
 62
     7
  5
B3
 10
897356.963
 20
7274245.406
 30
0.0
 40
8.0
  1
626.45'
 50
87.960036
  7
ROMANS
 72
     1
 11
897357.864768
 21
7274270.722945
 31
0.0
210
0.0
220
0.0
230
1.0
  0
TEXT
  8
11
  6
CONTINUOUS
 62
     7
  5
B4
 10
897323.165
 20
7273809.882
 30
0.0
 40
8.0
  1
325.32'
 50
82.247633
  7
ROMANS
 72
     1
 11
897318.655468
 21
7273836.06359
 31
0.0
210
0.0
220
0.0
230
1.0
 73
     3
  0
TEXT
  8
11
  6
CONTINUOUS
 62
     7
  5
B5
 10
897457.183
 20
7273802.707
 30
0.0
 40
8.0
  1
1482.92'
 50
87.959908
  7
ROMANS
 72
     1
 11
897458.227219
 21
7273832.021408
 31
0.0
210
0.0
220
0.0
230
1.0
  0
TEXT
  8
11
  6
CONTINUOUS
 62
     7
  5
B6
 10
896185.808
 20
7272897.062
 30
0.0
 40
8.0
  1
100.22'
 50
343.810247
  7
ROMANS
 72
     1
 11
896210.136384
 21
7272889.998669
 31
0.0
210
0.0
220
0.0
230
1.0
  0
LINE
  8
6
  6
CONTINUOUS
 62
     7
  5
B7
 10
894625.433
 20
7273452.937
 30
0.0
 11
896096.148
 21
7272925.635
 31
0.0
  0
TEXT
  8
11
  6
CONTINUOUS
 62
     7
  5
B8
 10
895422.715
 20
7273155.952
 30
0.0
 40
8.0
  1
1526.98'
 50
340.1184
  7
txt
 72
     4
 11
895448.391166
 21
7273150.920204
 31
0.0
210
0.0
220
0.0
230
1.0
  0
ARC
  8
6
  6
CONTINUOUS
 62
     7
  5
B9
 10
896408.389502
 20
7273780.882487
 30
0.0
 40
904.93
 50
256.263094
 51
340.901725
210
0.0
220
0.0
230
1.0
  0
LINE
  8
6
  6
CONTINUOUS
 62
     7
  5
BA
 10
897307.14
 20
7273670.411
 30
0.0
 11
897351.023
 21
7273992.759
 31
0.0
  0
ARC
  8
6
  6
CONTINUOUS
 62
     7
  5
BB
 10
898468.705621
 20
7273188.506019
 30
0.0
 40
1049.66
 50
182.996956
 51
239.381797
210
0.0
220
0.0
230
1.0
  0
LINE
  8
6
  6
CONTINUOUS
 62
     7
  5
BC
 10
897472.828
 20
7274602.128
 30
0.0
 11
897420.481
 21
7273133.626
 31
0.0
  0
LINE
  8
6
  6
CONTINUOUS
 62
     7
  5
BD
 10
897351.023
 20
7273992.759
 30
0.0
 11
897372.879
 21
7274605.333
 31
0.0
  0
LINE
  8
6
  6
CONTINUOUS
 62
     7
  5
BE
 10
896096.148
 20
7272925.635
 30
0.0
 11
896193.501
 21
7272901.837
 31
0.0
  0
TEXT
  8
19
  6
CONTINUOUS
 62
     1
  5
BF
 10
894752.796
 20
7274945.387
 30
0.0
 40
24.0
  1
STATE HIGHWAY 114 (19TH ST)
 50
358.1184
  7
txt
 72
     4
 11
895051.224227
 21
7274947.589532
 31
0.0
210
0.0
220
0.0
230
1.0
  0
TEXT
  8
19
  6
CONTINUOUS
 62
     1
  5
C0
 10
899285.234
 20
7269554.986
 30
0.0
 40
24.0
  1
34TH ST
 50
358.1364
  7
txt
 72
     4
 11
899366.179613
 21
7269564.358588
 31
0.0
210
0.0
220
0.0
230
1.0
  0
TEXT
  8
19
  6
CONTINUOUS
 62
     1
  5
C1
 10
898922.49
 20
7272766.863
 30
0.0
 40
24.0
  1
25TH ST
 50
358.1501
  7
txt
 72
     4
 11
899002.867664
 21
7272776.273214
 31
0.0
210
0.0
220
0.0
230
1.0
  0
TEXT
  8
19
  6
CONTINUOUS
 62
     1
  5
C2
 10
898469.466
 20
7270331.727
 30
0.0
 40
24.0
  1
32ND ST
 50
358.1364
  7
txt
 72
     4
 11
898549.845912
 21
7270341.117995
 31
0.0
210
0.0
220
0.0
230
1.0
  0
TEXT
  8
19
  6
CONTINUOUS
 62
     1
  5
C3
 10
898888.273
 20
7274350.546
 30
0.0
 40
24.0
  1
SHARON AVE
 50
88.1501
  7
txt
 72
     4
 11
898880.000345
 21
7274466.144298
 31
0.0
210
0.0
220
0.0
230
1.0
  0
TEXT
  8
19
  6
CONTINUOUS
 62
     1
  5
C4
 10
898866.482
 20
7273424.872
 30
0.0
 40
24.0
  1
KELSEY AVE
 50
88.1501
  7
txt
 72
     4
 11
898858.233717
 21
7273541.224905
 31
0.0
210
0.0
220
0.0
230
1.0
  0
TEXT
  8
19
  6
CONTINUOUS
 62
     1
  5
C5
 10
897179.961
 20
7269910.121
 30
0.0
 40
24.0
  1
MACKEY AVE
 50
88.1364
  7
txt
 72
     4
 11
897171.832766
 21
7270029.310374
 31
0.0
210
0.0
220
0.0
230
1.0
  0
TEXT
  8
19
  6
CONTINUOUS
 62
     1
  5
C6
 10
897597.592
 20
7269900.231
 30
0.0
 40
24.0
  1
LANGFORD AVE
 50
88.1364
  7
txt
 72
     4
 11
897590.090495
 21
7270038.682181
 31
0.0
210
0.0
220
0.0
230
1.0
  0
TEXT
  8
19
  6
CONTINUOUS
 62
     1
  5
C7
 10
898315.616
 20
7269884.586
 30
0.0
 40
24.0
  1
KELSEY AVE
 50
88.1364
  7
txt
 72
     4
 11
898307.395538
 21
7270000.940874
 31
0.0
210
0.0
220
0.0
230
1.0
  0
TEXT
  8
19
  6
CONTINUOUS
 62
     1
  5
C8
 10
898978.881
 20
7274184.48
 30
0.0
 40
24.0
  1
20TH ST
 50
358.1501
  7
txt
 72
     4
 11
899059.162714
 21
7274193.893313
 31
0.0
210
0.0
220
0.0
230
1.0
  0
TEXT
  8
19
  6
CONTINUOUS
 62
     1
  5
C9
 10
899881.796
 20
7273049.935
 30
0.0
 40
24.0
  1
FARM RD 179 (INLER AVE)
 50
88.1501
  7
txt
 72
     4
 11
899877.95501
 21
7273302.74475
 31
0.0
210
0.0
220
0.0
230
1.0
  0
TEXT
  8
19
  6
CONTINUOUS
 62
     1
  5
CA
 10
899799.742
 20
7270535.095
 30
0.0
 40
24.0
  1
FARM RD 179 (INLER AVE)
 50
88.1364
  7
txt
 72
     4
 11
899795.961459
 21
7270787.905661
 31
0.0
210
0.0
220
0.0
230
1.0
  0
TEXT
  8
13
  6
CONTINUOUS
 62
    14
  5
CC
 10
897386.883
 20
7274690.117
 30
0.0
 40
8.0
  1
V6182 P346
 50
358.149261
  7
ROMANS
 72
     1
 11
897425.641273
 21
7274696.86879
 31
0.0
210
0.0
220
0.0
230
1.0
 73
     3
  0
TEXT
  8
13
  6
CONTINUOUS
 62
    14
  5
CD
 10
897302.302
 20
7273281.334
 30
0.0
 40
8.0
  1
V6254 P030
 50
358.149261
  7
ROMANS
 72
     1
 11
897341.191205
 21
7273288.081559
 31
0.0
210
0.0
220
0.0
230
1.0
 73
     3
  0
TEXT
  8
13
  6
CONTINUOUS
 62
    14
  5
CE
 10
896870.502
 20
7272753.28
 30
0.0
 40
8.0
  1
V6437 P092
 50
358.1184
  7
ROMANS
 72
     4
 11
896908.945668
 21
7272756.019209
 31
0.0
210
0.0
220
0.0
230
1.0
  0
TEXT
  8
11
  6
CONTINUOUS
 62
     7
  5
CF
 10
896949.312
 20
7273060.001
 30
0.0
 40
8.0
  1
1218.51' 
 50
38.1184
  7
ROMANS
 72
     4
 11
896974.115865
 21
7273084.546873
 31
0.0
210
0.0
220
0.0
230
1.0
  0
TEXT
  8
11
  6
CONTINUOUS
 62
     7
  5
D0
 10
896955.414
 20
7273046.678
 30
0.0
 40
8.0
  1
R=904.93'
 50
38.1184
  7
ROMANS
 72
     4
 11
896979.169144
 21
7273070.401027
 31
0.0
210
0.0
220
0.0
230
1.0
  0
TEXT
  8
11
  6
CONTINUOUS
 62
     7
  5
D1
 10
897282.094
 20
7273554.111
 30
0.0
 40
8.0
  1
183.33' 
 50
76.211472
  7
ROMANS
 72
     1
 11
897281.633448
 21
7273585.79998
 31
0.0
210
0.0
220
0.0
230
1.0
 73
     3
  0
TEXT
  8
11
  6
CONTINUOUS
 62
     7
  5
D2
 10
897291.166
 20
7273536.841
 30
0.0
 40
8.0
  1
R=904.93'
 50
76.211472
  7
ROMANS
 72
     1
 11
897291.341336
 21
7273571.121094
 31
0.0
210
0.0
220
0.0
230
1.0
 73
     3
  0
LINE
  8
6
  6
CONTINUOUS
 62
     7
  5
D3
 10
899666.29
 20
7274745.082
 30
0.0
 11
899660.479
 21
7274565.175
 31
0.0
  0
LINE
  8
6
  6
CONTINUOUS
 62
     7
  5
D4
 10
899756.242
 20
7274742.177
 30
0.0
 11
899750.432
 21
7274562.27
 31
0.0
  0
TEXT
  8
11
  6
CONTINUOUS
 62
     7
  5
D5
 10
899493.207
 20
7274738.411
 30
0.0
 40
8.0
  1
319.33'
 50
358.1501
  7
ROMANS
210
0.0
220
0.0
230
1.0
  0
LINE
  8
6
  6
CONTINUOUS
 62
     7
  5
D6
 10
899883.429
 20
7274622.007
 30
0.0
 11
899881.363
 21
7274558.04
 31
0.0
  0
LINE
  8
7
  6
CONTINUOUS
 62
     7
  5
D7
 10
899752.907
 20
7274626.223
 30
0.0
 11
899883.839
 21
7274621.994
 31
0.0
  0
LINE
  8
7
  6
CONTINUOUS
 62
     7
  5
D8
 10
899883.429
 20
7274622.007
 30
0.0
 11
899902.735
 21
7274631.178
 31
0.0
  0
TEXT
  8
15
  6
CONTINUOUS
 62
    30
  5
DA
 10
899687.772
 20
7274500.355
 30
0.0
 40
50.0
  1
SELENA
 50
28.150097
  7
ROMANC
 72
     4
 11
899814.473642
 21
7274596.503654
 31
0.0
210
0.0
220
0.0
230
1.0
  0
LINE
  8
6
  6
CONTINUOUS
 62
     7
  5
DB
 10
899906.164
 20
7274737.333
 30
0.0
 11
899902.735
 21
7274631.178
 31
0.0
  0
LINE
  8
6
  6
CONTINUOUS
 62
     7
  5
DC
 10
899900.354
 20
7274557.427
 30
0.0
 11
899876.87
 21
7273830.306
 31
0.0
  0
TEXT
  8
10
  6
CONTINUOUS
 62
   134
  5
DD
 10
899798.744
 20
7274587.467
 30
0.0
 40
13.999
  1
1
 50
358.1501
  7
ROMANS
 11
899799.195905
 21
7274601.458704
 31
0.0
210
0.0
220
0.0
230
1.0
 73
     3
  0
TEXT
  8
10
  6
CONTINUOUS
 62
   134
  5
DE
 10
899412.529
 20
7274631.711
 30
0.0
 40
13.999
  1
UNSUBDIVIDED
 50
358.1501
  7
ROMANS
 11
899412.980905
 21
7274645.702704
 31
0.0
210
0.0
220
0.0
230
1.0
 73
     3
  0
TEXT
  8
10
  6
CONTINUOUS
 62
   134
  5
DF
 10
899686.984
 20
7274649.824
 30
0.0
 40
13.999
  1
UNSUBDIVIDED
 50
358.1501
  7
ROMANS
 11
899687.435905
 21
7274663.815704
 31
0.0
210
0.0
220
0.0
230
1.0
 73
     3
  0
TEXT
  8
10
  6
CONTINUOUS
 62
   134
  5
E0
 10
899691.845
 20
7274222.18
 30
0.0
 40
13.999
  1
UNSUBDIVIDED
 50
358.1501
  7
ROMANS
 11
899692.296905
 21
7274236.171704
 31
0.0
210
0.0
220
0.0
230
1.0
 73
     3
  0
TEXT
  8
11
  6
CONTINUOUS
 62
     7
  5
E1
 10
899880.414
 20
7274571.735
 30
0.0
 40
8.0
  1
65.5'
 50
88.1501
  7
txt
 72
     4
 11
899876.915282
 21
7274587.320065
 31
0.0
210
0.0
220
0.0
230
1.0
  0
TEXT
  8
11
  6
CONTINUOUS
 62
     7
  5
E2
 10
899760.596
 20
7274578.906
 30
0.0
 40
8.0
  1
65.5'
 50
88.1501
  7
txt
 72
     4
 11
899757.097282
 21
7274594.491065
 31
0.0
210
0.0
220
0.0
230
1.0
  0
TEXT
  8
11
  6
CONTINUOUS
 62
     7
  5
E3
 10
899804.105
 20
7274626.681
 30
0.0
 40
8.0
  1
131'
 50
358.1501
  7
txt
 72
     4
 11
899815.030495
 21
7274630.330213
 31
0.0
210
0.0
220
0.0
230
1.0
  0
TEXT
  8
11
  6
CONTINUOUS
 62
     7
  5
E4
 10
899801.443
 20
7274562.828
 30
0.0
 40
8.0
  1
131'
 50
358.1501
  7
txt
 72
     4
 11
899812.368495
 21
7274566.477213
 31
0.0
210
0.0
220
0.0
230
1.0
  0
LINE
  8
6
  6
CONTINUOUS
 62
     7
  5
E5
 10
897592.905
 20
7270424.379
 30
0.0
 11
897162.749
 21
7270438.252
 31
0.0
  0
LINE
  8
6
  6
CONTINUOUS
 62
     7
  5
E6
 10
899797.807
 20
7271830.817
 30
0.0
 11
899805.554
 21
7272070.693
 31
0.0
  0
LINE
  8
6
  6
CONTINUOUS
 62
     7
  5
E7
 10
899820.546
 20
7272070.212
 30
0.0
 11
899497.711
 21
7272080.545
 31
0.0
  0
LINE
  8
6
  6
CONTINUOUS
 62
     7
  5
E8
 10
899497.711
 20
7272080.545
 30
0.0
 11
899489.964
 21
7271840.67
 31
0.0
  0
LINE
  8
6
  6
CONTINUOUS
 62
     7
  5
E9
 10
899489.964
 20
7271840.67
 30
0.0
 11
899812.799
 21
7271830.337
 31
0.0
  0
LINE
  8
6
  6
CONTINUOUS
 62
     7
  5
EA
 10
899747.344
 20
7270279.865
 30
0.0
 11
899738.728
 21
7270015.01
 31
0.0
  0
LINE
  8
6
  6
CONTINUOUS
 62
     7
  5
EB
 10
897202.728
 20
7270436.963
 30
0.0
 11
897176.987
 21
7269692.468
 31
0.0
  0
LINE
  8
6
  6
CONTINUOUS
 62
     7
  5
EC
 10
899722.229
 20
7269815.437
 30
0.0
 11
899715.561
 21
7269610.536
 31
0.0
  0
LINE
  8
6
  6
CONTINUOUS
 62
     7
  5
ED
 10
899390.019
 20
7270306.4
 30
0.0
 11
899366.766
 21
7269591.777
 31
0.0
  0
ARC
  8
6
  6
CONTINUOUS
 62
     7
  5
EE
 10
899732.353006
 20
7270280.352812
 30
0.0
 40
15.0
 50
358.1364
 51
88.153075
210
0.0
220
0.0
230
1.0
  0
LINE
  8
6
  6
CONTINUOUS
 62
     7
  5
EF
 10
899732.836
 20
7270295.346
 30
0.0
 11
899390.019
 21
7270306.4
 31
0.0
  0
LINE
  8
7
  6
CONTINUOUS
 62
     7
  5
F0
 10
899386.117
 20
7270186.463
 30
0.0
 11
899743.93
 21
7270174.925
 31
0.0
  0
LINE
  8
7
  6
CONTINUOUS
 62
     7
  5
F1
 10
899382.214
 20
7270066.527
 30
0.0
 11
899740.028
 21
7270054.988
 31
0.0
  0
LINE
  8
7
  6
CONTINUOUS
 62
     7
  5
F2
 10
899378.312
 20
7269946.589
 30
0.0
 11
899732.128
 21
7269935.182
 31
0.0
  0
LINE
  8
7
  6
CONTINUOUS
 62
     7
  5
F3
 10
899374.409
 20
7269826.654
 30
0.0
 11
899722.229
 21
7269815.437
 31
0.0
  0
LINE
  8
7
  6
CONTINUOUS
 62
     7
  5
F4
 10
899370.507
 20
7269706.717
 30
0.0
 11
899718.326
 21
7269695.501
 31
0.0
  0
LINE
  8
6
  6
CONTINUOUS
 62
     7
  5
F5
 10
899366.766
 20
7269591.777
 30
0.0
 11
899684.611
 21
7269581.528
 31
0.0
  0
LINE
  8
6
  6
CONTINUOUS
 62
     7
  5
F6
 10
899738.728
 20
7270015.01
 30
0.0
 11
899722.229
 21
7269815.437
 31
0.0
  0
LINE
  8
6
  6
CONTINUOUS
 62
     7
  5
F7
 10
899370.03
 20
7270307.045
 30
0.0
 11
899346.778
 21
7269592.421
 31
0.0
  0
LINE
  8
6
  6
CONTINUOUS
 62
     7
  5
F8
 10
899051.707
 20
7270302.305
 30
0.0
 11
899029.43
 21
7269617.666
 31
0.0
  0
LINE
  8
6
  6
CONTINUOUS
 62
     7
  5
F9
 10
899370.03
 20
7270307.045
 30
0.0
 11
899067.183
 21
7270316.81
 31
0.0
  0
LINE
  8
6
  6
CONTINUOUS
 62
     7
  5
FA
 10
899043.939
 20
7269602.186
 30
0.0
 11
899346.778
 21
7269592.421
 31
0.0
  0
LINE
  8
6
  6
CONTINUOUS
 62
     7
  5
FB
 10
898991.738
 20
7270304.231
 30
0.0
 11
898969.462
 21
7269619.591
 31
0.0
  0
LINE
  8
6
  6
CONTINUOUS
 62
     7
  5
FC
 10
898674.391
 20
7270329.476
 30
0.0
 11
898651.139
 21
7269614.851
 31
0.0
  0
LINE
  8
6
  6
CONTINUOUS
 62
     7
  5
FD
 10
898977.23
 20
7270319.71
 30
0.0
 11
898674.391
 21
7270329.476
 31
0.0
  0
LINE
  8
6
  6
CONTINUOUS
 62
     7
  5
FE
 10
898651.139
 20
7269614.851
 30
0.0
 11
898953.986
 21
7269605.087
 31
0.0
  0
LINE
  8
6
  6
CONTINUOUS
 62
     7
  5
FF
 10
898654.401
 20
7270330.121
 30
0.0
 11
898631.149
 21
7269615.495
 31
0.0
  0
LINE
  8
6
  6
CONTINUOUS
 62
     7
  5
100
 10
898336.079
 20
7270325.381
 30
0.0
 11
898313.802
 21
7269640.739
 31
0.0
  0
LINE
  8
6
  6
CONTINUOUS
 62
     7
  5
101
 10
898654.401
 20
7270330.121
 30
0.0
 11
898351.554
 21
7270339.885
 31
0.0
  0
LINE
  8
6
  6
CONTINUOUS
 62
     7
  5
102
 10
898328.311
 20
7269625.259
 30
0.0
 11
898631.149
 21
7269615.495
 31
0.0
  0
LINE
  8
6
  6
CONTINUOUS
 62
     7
  5
103
 10
898276.109
 20
7270327.306
 30
0.0
 11
898253.832
 21
7269642.665
 31
0.0
  0
LINE
  8
6
  6
CONTINUOUS
 62
     7
  5
104
 10
897958.763
 20
7270352.552
 30
0.0
 11
897935.511
 21
7269637.925
 31
0.0
  0
LINE
  8
6
  6
CONTINUOUS
 62
     7
  5
105
 10
897938.773
 20
7270353.197
 30
0.0
 11
897915.521
 21
7269638.569
 31
0.0
  0
LINE
  8
6
  6
CONTINUOUS
 62
     7
  5
106
 10
897620.451
 20
7270348.458
 30
0.0
 11
897598.175
 21
7269663.814
 31
0.0
  0
LINE
  8
6
  6
CONTINUOUS
 62
     7
  5
107
 10
898261.601
 20
7270342.787
 30
0.0
 11
897958.763
 21
7270352.552
 31
0.0
  0
LINE
  8
6
  6
CONTINUOUS
 62
     7
  5
108
 10
897938.773
 20
7270353.197
 30
0.0
 11
897635.927
 21
7270362.962
 31
0.0
  0
LINE
  8
6
  6
CONTINUOUS
 62
     7
  5
109
 10
897935.511
 20
7269637.925
 30
0.0
 11
898238.357
 21
7269628.16
 31
0.0
  0
LINE
  8
6
  6
CONTINUOUS
 62
     7
  5
10A
 10
897562.92
 20
7270425.347
 30
0.0
 11
897538.205
 21
7269665.738
 31
0.0
  0
LINE
  8
6
  6
CONTINUOUS
 62
     7
  5
10B
 10
897206.001
 20
7269661.446
 30
0.0
 11
897522.729
 21
7269651.233
 31
0.0
  0
LINE
  8
6
  6
CONTINUOUS
 62
     7
  5
10C
 10
897612.682
 20
7269648.334
 30
0.0
 11
897915.521
 21
7269638.569
 31
0.0
  0
ARC
  8
6
  6
CONTINUOUS
 62
     7
  5
10D
 10
897523.213016
 20
7269666.22642
 30
0.0
 40
15.0
 50
268.153178
 51
358.1364
210
0.0
220
0.0
230
1.0
  0
ARC
  8
6
  6
CONTINUOUS
 62
     7
  5
10E
 10
897635.442833
 20
7270347.970112
 30
0.0
 40
15.0
 50
88.153194
 51
178.1364
210
0.0
220
0.0
230
1.0
  0
ARC
  8
6
  6
CONTINUOUS
 62
     7
  5
10F
 10
897613.166272
 20
7269663.325981
 30
0.0
 40
15.0
 50
178.1364
 51
268.153278
210
0.0
220
0.0
230
1.0
  0
ARC
  8
6
  6
CONTINUOUS
 62
     7
  5
110
 10
898238.841154
 20
7269643.152341
 30
0.0
 40
15.0
 50
268.153203
 51
358.1364
210
0.0
220
0.0
230
1.0
  0
ARC
  8
6
  6
CONTINUOUS
 62
     7
  5
111
 10
898261.117652
 20
7270327.794539
 30
0.0
 40
15.0
 50
358.1364
 51
88.153111
210
0.0
220
0.0
230
1.0
  0
ARC
  8
6
  6
CONTINUOUS
 62
     7
  5
112
 10
898351.070896
 20
7270324.893736
 30
0.0
 40
15.0
 50
88.153153
 51
178.1364
210
0.0
220
0.0
230
1.0
  0
ARC
  8
6
  6
CONTINUOUS
 62
     7
  5
113
 10
898328.7944
 20
7269640.251618
 30
0.0
 40
15.0
 50
178.1364
 51
268.153236
210
0.0
220
0.0
230
1.0
  0
ARC
  8
6
  6
CONTINUOUS
 62
     7
  5
114
 10
898976.745717
 20
7270304.718242
 30
0.0
 40
15.0
 50
358.1364
 51
88.152975
210
0.0
220
0.0
230
1.0
  0
ARC
  8
6
  6
CONTINUOUS
 62
     7
  5
115
 10
898954.469298
 20
7269620.078461
 30
0.0
 40
15.0
 50
268.153336
 51
358.1364
210
0.0
220
0.0
230
1.0
  0
ARC
  8
6
  6
CONTINUOUS
 62
     7
  5
116
 10
899044.422567
 20
7269617.178448
 30
0.0
 40
15.0
 50
178.1364
 51
268.153156
210
0.0
220
0.0
230
1.0
  0
ARC
  8
6
  6
CONTINUOUS
 62
     7
  5
117
 10
899066.698982
 20
7270301.818087
 30
0.0
 40
15.0
 50
88.152975
 51
178.1364
210
0.0
220
0.0
230
1.0
  0
ARC
  8
6
  6
CONTINUOUS
 62
     7
  5
118
 10
899685.577439
 20
7269611.512774
 30
0.0
 40
30.0
 50
268.153194
 51
358.1364
210
0.0
220
0.0
230
1.0
  0
ARC
  8
6
  6
CONTINUOUS
 62
     7
  5
119
 10
897206.968734
 20
7269691.431231
 30
0.0
 40
30.0
 50
178.019753
 51
268.153128
210
0.0
220
0.0
230
1.0
  0
LINE
  8
7
  6
CONTINUOUS
 62
     7
  5
11A
 10
899048.292
 20
7270197.357
 30
0.0
 11
899366.126
 21
7270187.108
 31
0.0
  0
LINE
  8
7
  6
CONTINUOUS
 62
     7
  5
11B
 10
898670.489
 20
7270209.539
 30
0.0
 11
898988.324
 21
7270199.29
 31
0.0
  0
LINE
  8
7
  6
CONTINUOUS
 62
     7
  5
11C
 10
898332.665
 20
7270220.434
 30
0.0
 11
898650.499
 21
7270210.184
 31
0.0
  0
LINE
  8
7
  6
CONTINUOUS
 62
     7
  5
11D
 10
897617.036
 20
7270243.51
 30
0.0
 11
897934.871
 21
7270233.261
 31
0.0
  0
LINE
  8
7
  6
CONTINUOUS
 62
     7
  5
11E
 10
897954.86
 20
7270232.615
 30
0.0
 11
898272.695
 21
7270222.365
 31
0.0
  0
LINE
  8
7
  6
CONTINUOUS
 62
     7
  5
11F
 10
897198.877
 20
7270325.6
 30
0.0
 11
897559.297
 21
7270313.977
 31
0.0
  0
LINE
  8
7
  6
CONTINUOUS
 62
     7
  5
120
 10
897195.027
 20
7270214.235
 30
0.0
 11
897555.673
 21
7270202.607
 31
0.0
  0
LINE
  8
7
  6
CONTINUOUS
 62
     7
  5
121
 10
897191.176
 20
7270102.872
 30
0.0
 11
897552.05
 21
7270091.236
 31
0.0
  0
LINE
  8
7
  6
CONTINUOUS
 62
     7
  5
122
 10
897187.326
 20
7269991.508
 30
0.0
 11
897548.426
 21
7269979.865
 31
0.0
  0
LINE
  8
7
  6
CONTINUOUS
 62
     7
  5
123
 10
897183.476
 20
7269880.144
 30
0.0
 11
897544.801
 21
7269868.493
 31
0.0
  0
LINE
  8
7
  6
CONTINUOUS
 62
     7
  5
124
 10
897179.625
 20
7269768.782
 30
0.0
 11
897541.178
 21
7269757.122
 31
0.0
  0
LINE
  8
7
  6
CONTINUOUS
 62
     7
  5
125
 10
899044.39
 20
7270077.421
 30
0.0
 11
899362.225
 21
7270067.171
 31
0.0
  0
LINE
  8
7
  6
CONTINUOUS
 62
     7
  5
126
 10
899040.488
 20
7269957.484
 30
0.0
 11
899358.322
 21
7269947.234
 31
0.0
  0
LINE
  8
7
  6
CONTINUOUS
 62
     7
  5
127
 10
899036.584
 20
7269837.548
 30
0.0
 11
899354.419
 21
7269827.299
 31
0.0
  0
LINE
  8
7
  6
CONTINUOUS
 62
     7
  5
128
 10
899032.683
 20
7269717.611
 30
0.0
 11
899350.517
 21
7269707.362
 31
0.0
  0
LINE
  8
7
  6
CONTINUOUS
 62
     7
  5
129
 10
898666.586
 20
7270089.604
 30
0.0
 11
898984.421
 21
7270079.354
 31
0.0
  0
LINE
  8
7
  6
CONTINUOUS
 62
     7
  5
12A
 10
898662.684
 20
7269969.667
 30
0.0
 11
898980.518
 21
7269959.416
 31
0.0
  0
LINE
  8
7
  6
CONTINUOUS
 62
     7
  5
12B
 10
898658.781
 20
7269849.73
 30
0.0
 11
898976.617
 21
7269839.481
 31
0.0
  0
LINE
  8
7
  6
CONTINUOUS
 62
     7
  5
12C
 10
898654.879
 20
7269729.793
 30
0.0
 11
898972.713
 21
7269719.544
 31
0.0
  0
LINE
  8
7
  6
CONTINUOUS
 62
     7
  5
12D
 10
898328.762
 20
7270100.498
 30
0.0
 11
898646.597
 21
7270090.249
 31
0.0
  0
LINE
  8
7
  6
CONTINUOUS
 62
     7
  5
12E
 10
898324.859
 20
7269980.56
 30
0.0
 11
898642.694
 21
7269970.311
 31
0.0
  0
LINE
  8
7
  6
CONTINUOUS
 62
     7
  5
12F
 10
898320.957
 20
7269860.624
 30
0.0
 11
898638.792
 21
7269850.375
 31
0.0
  0
LINE
  8
7
  6
CONTINUOUS
 62
     7
  5
130
 10
898317.055
 20
7269740.688
 30
0.0
 11
898634.889
 21
7269730.438
 31
0.0
  0
LINE
  8
7
  6
CONTINUOUS
 62
     7
  5
131
 10
897950.958
 20
7270112.679
 30
0.0
 11
898268.793
 21
7270102.43
 31
0.0
  0
LINE
  8
7
  6
CONTINUOUS
 62
     7
  5
132
 10
897947.056
 20
7269992.742
 30
0.0
 11
898264.891
 21
7269982.493
 31
0.0
  0
LINE
  8
7
  6
CONTINUOUS
 62
     7
  5
133
 10
897943.153
 20
7269872.806
 30
0.0
 11
898260.988
 21
7269862.556
 31
0.0
  0
LINE
  8
7
  6
CONTINUOUS
 62
     7
  5
134
 10
897939.251
 20
7269752.869
 30
0.0
 11
898257.085
 21
7269742.619
 31
0.0
  0
LINE
  8
7
  6
CONTINUOUS
 62
     7
  5
135
 10
897613.133
 20
7270123.574
 30
0.0
 11
897930.969
 21
7270113.325
 31
0.0
  0
LINE
  8
7
  6
CONTINUOUS
 62
     7
  5
136
 10
897609.231
 20
7270003.637
 30
0.0
 11
897927.066
 21
7269993.387
 31
0.0
  0
LINE
  8
7
  6
CONTINUOUS
 62
     7
  5
137
 10
897605.329
 20
7269883.701
 30
0.0
 11
897923.164
 21
7269873.451
 31
0.0
  0
LINE
  8
7
  6
CONTINUOUS
 62
     7
  5
138
 10
897601.426
 20
7269763.764
 30
0.0
 11
897919.261
 21
7269753.515
 31
0.0
  0
TEXT
  8
11
  6
CONTINUOUS
 62
     7
  5
139
 10
899648.521
 20
7272065.713
 30
0.0
 40
8.0
  1
308'
 50
358.166831
  7
txt
 72
     1
 11
899662.375952
 21
7272073.273658
 31
0.0
210
0.0
220
0.0
230
1.0
 73
     3
  0
TEXT
  8
11
  6
CONTINUOUS
 62
     7
  5
13A
 10
899641.161
 20
7271837.848
 30
0.0
 40
8.0
  1
308'
 50
358.166831
  7
txt
 72
     1
 11
899655.015952
 21
7271845.408658
 31
0.0
210
0.0
220
0.0
230
1.0
 73
     3
  0
TEXT
  8
11
  6
CONTINUOUS
 62
     7
  5
13B
 10
899504.271
 20
7271950.956
 30
0.0
 40
8.0
  1
240'
 50
88.1501
  7
txt
 72
     4
 11
899500.718404
 21
7271964.872935
 31
0.0
210
0.0
220
0.0
230
1.0
  0
TEXT
  8
11
  6
CONTINUOUS
 62
     7
  5
13C
 10
899798.884
 20
7271941.44
 30
0.0
 40
8.0
  1
240'
 50
88.1501
  7
txt
 72
     4
 11
899795.331404
 21
7271955.356935
 31
0.0
210
0.0
220
0.0
230
1.0
  0
TEXT
  8
11
  6
CONTINUOUS
 62
     7
  5
13D
 10
899824.271
 20
7272060.322
 30
0.0
 40
8.0
  1
55'
 50
358.1501
  7
txt
 72
     4
 11
899834.033102
 21
7272064.008789
 31
0.0
210
0.0
220
0.0
230
1.0
  0
TEXT
  8
11
  6
CONTINUOUS
 62
     7
  5
13E
 10
899816.86
 20
7271830.857
 30
0.0
 40
8.0
  1
55'
 50
358.1501
  7
txt
 72
     4
 11
899826.622102
 21
7271834.543789
 31
0.0
210
0.0
220
0.0
230
1.0
  0
TEXT
  8
11
  6
CONTINUOUS
 62
     7
  5
13F
 10
899852.889
 20
7271933.176
 30
0.0
 40
8.0
  1
240'
 50
88.1501
  7
txt
 72
     4
 11
899849.336404
 21
7271947.092935
 31
0.0
210
0.0
220
0.0
230
1.0
  0
TEXT
  8
11
  6
CONTINUOUS
 62
     7
  5
140
 10
899764.076
 20
7270273.836
 30
0.0
 40
8.0
  1
55'
 50
358.1364
  7
txt
 72
     4
 11
899773.838983
 21
7270277.520454
 31
0.0
210
0.0
220
0.0
230
1.0
  0
TEXT
  8
11
  6
CONTINUOUS
 62
     7
  5
141
 10
899755.476
 20
7270009.5
 30
0.0
 40
8.0
  1
55'
 50
358.1364
  7
txt
 72
     4
 11
899765.238983
 21
7270013.184454
 31
0.0
210
0.0
220
0.0
230
1.0
  0
TEXT
  8
11
  6
CONTINUOUS
 62
     7
  5
142
 10
899749.153
 20
7269809.347
 30
0.0
 40
8.0
  1
65'
 50
358.1364
  7
txt
 72
     4
 11
899758.726084
 21
7269813.037633
 31
0.0
210
0.0
220
0.0
230
1.0
  0
TEXT
  8
11
  6
CONTINUOUS
 62
     7
  5
143
 10
899742.641
 20
7269609.199
 30
0.0
 40
8.0
  1
65'
 50
358.1364
  7
txt
 72
     4
 11
899752.214084
 21
7269612.889633
 31
0.0
210
0.0
220
0.0
230
1.0
  0
TEXT
  8
11
  6
CONTINUOUS
 62
     7
  5
144
 10
899688.357
 20
7269548.044
 30
0.0
 40
8.0
  1
55'
 50
88.1364
  7
txt
 72
     4
 11
899684.672546
 21
7269557.806983
 31
0.0
210
0.0
220
0.0
230
1.0
  0
TEXT
  8
11
  6
CONTINUOUS
 62
     7
  5
145
 10
899735.675
 20
7270299.475
 30
0.0
 40
8.0
  1
30'
 50
88.1364
  7
txt
 72
     4
 11
899731.989505
 21
7270309.206
 31
0.0
210
0.0
220
0.0
230
1.0
  0
TEXT
  8
11
  6
CONTINUOUS
 62
     7
  5
146
 10
899371.789
 20
7270296.899
 30
0.0
 40
8.0
  1
20'
 50
358.1364
  7
txt
 72
     4
 11
899381.52
 21
7270300.584495
 31
0.0
210
0.0
220
0.0
230
1.0
  0
TEXT
  8
11
  6
CONTINUOUS
 62
     7
  5
147
 10
899349.036
 20
7269597.623
 30
0.0
 40
8.0
  1
20'
 50
358.1364
  7
txt
 72
     4
 11
899358.767
 21
7269601.308495
 31
0.0
210
0.0
220
0.0
230
1.0
  0
TEXT
  8
11
  6
CONTINUOUS
 62
     7
  5
148
 10
899013.126
 20
7270294.266
 30
0.0
 40
8.0
  1
60'
 50
358.1364
  7
txt
 72
     4
 11
899022.667101
 21
7270297.957674
 31
0.0
210
0.0
220
0.0
230
1.0
  0
TEXT
  8
11
  6
CONTINUOUS
 62
     7
  5
149
 10
898991.154
 20
7269618.995
 30
0.0
 40
8.0
  1
60'
 50
358.1364
  7
txt
 72
     4
 11
899000.695101
 21
7269622.686674
 31
0.0
210
0.0
220
0.0
230
1.0
  0
TEXT
  8
11
  6
CONTINUOUS
 62
     7
  5
14A
 10
898272.81
 20
7269642.368
 30
0.0
 40
8.0
  1
60'
 50
358.1364
  7
txt
 72
     4
 11
898282.351101
 21
7269646.059674
 31
0.0
210
0.0
220
0.0
230
1.0
  0
TEXT
  8
11
  6
CONTINUOUS
 62
     7
  5
14B
 10
898294.837
 20
7270319.352
 30
0.0
 40
8.0
  1
60'
 50
358.1364
  7
txt
 72
     4
 11
898304.378101
 21
7270323.043674
 31
0.0
210
0.0
220
0.0
230
1.0
  0
TEXT
  8
11
  6
CONTINUOUS
 62
     7
  5
14C
 10
897583.06
 20
7270342.511
 30
0.0
 40
8.0
  1
60'
 50
358.1364
  7
txt
 72
     4
 11
897592.601101
 21
7270346.202674
 31
0.0
210
0.0
220
0.0
230
1.0
  0
TEXT
  8
11
  6
CONTINUOUS
 62
     7
  5
14D
 10
897561.032
 20
7269665.526
 30
0.0
 40
8.0
  1
60'
 50
358.1364
  7
txt
 72
     4
 11
897570.573101
 21
7269669.217674
 31
0.0
210
0.0
220
0.0
230
1.0
  0
TEXT
  8
11
  6
CONTINUOUS
 62
     7
  5
14E
 10
897146.724
 20
7269679.007
 30
0.0
 40
8.0
  1
40'
 50
358.1364
  7
txt
 72
     4
 11
897156.6439
 21
7269682.686349
 31
0.0
210
0.0
220
0.0
230
1.0
  0
TEXT
  8
11
  6
CONTINUOUS
 62
     7
  5
14F
 10
897173.951
 20
7270427.885
 30
0.0
 40
8.0
  1
40'
 50
358.153042
  7
txt
 72
     1
 11
897183.998751
 21
7270435.565152
 31
0.0
210
0.0
220
0.0
230
1.0
 73
     3
  0
TEXT
  8
11
  6
CONTINUOUS
 62
     7
  5
150
 10
897940.287
 20
7270340.615
 30
0.0
 40
8.0
  1
20'
 50
358.1364
  7
txt
 72
     4
 11
897950.018
 21
7270344.300495
 31
0.0
210
0.0
220
0.0
230
1.0
  0
TEXT
  8
11
  6
CONTINUOUS
 62
     7
  5
151
 10
897917.666
 20
7269645.34
 30
0.0
 40
8.0
  1
20'
 50
358.1364
  7
txt
 72
     4
 11
897927.397
 21
7269649.025495
 31
0.0
210
0.0
220
0.0
230
1.0
  0
TEXT
  8
11
  6
CONTINUOUS
 62
     7
  5
152
 10
898633.012
 20
7269622.064
 30
0.0
 40
8.0
  1
20'
 50
358.1364
  7
txt
 72
     4
 11
898642.743
 21
7269625.749495
 31
0.0
210
0.0
220
0.0
230
1.0
  0
TEXT
  8
11
  6
CONTINUOUS
 62
     7
  5
153
 10
898655.681
 20
7270318.767
 30
0.0
 40
8.0
  1
20'
 50
358.1364
  7
txt
 72
     4
 11
898665.412
 21
7270322.452495
 31
0.0
210
0.0
220
0.0
230
1.0
  0
TEXT
  8
11
  6
CONTINUOUS
 62
     7
  5
154
 10
897646.51
 20
7270368.881
 30
0.0
 40
8.0
  1
30'
 50
88.1364
  7
txt
 72
     4
 11
897642.824505
 21
7270378.612
 31
0.0
210
0.0
220
0.0
230
1.0
  0
TEXT
  8
11
  6
CONTINUOUS
 62
     7
  5
155
 10
897567.225
 20
7270415.202
 30
0.0
 40
8.0
  1
30'
 50
358.153042
  7
txt
 72
     1
 11
897577.083849
 21
7270422.888243
 31
0.0
210
0.0
220
0.0
230
1.0
 73
     3
  0
TEXT
  8
11
  6
CONTINUOUS
 62
     7
  5
156
 10
897213.536
 20
7269625.707
 30
0.0
 40
8.0
  1
55'
 50
88.1364
  7
txt
 72
     4
 11
897209.851546
 21
7269635.469983
 31
0.0
210
0.0
220
0.0
230
1.0
  0
TEXT
  8
11
  6
CONTINUOUS
 62
     7
  5
157
 10
897210.234
 20
7270364.669
 30
0.0
 40
8.0
  1
111.43'
 50
88.019722
  7
txt
 72
     1
 11
897202.91572
 21
7270384.523744
 31
0.0
210
0.0
220
0.0
230
1.0
 73
     3
  0
TEXT
  8
11
  6
CONTINUOUS
 62
     7
  5
158
 10
897206.356
 20
7270252.482
 30
0.0
 40
8.0
  1
111.43'
 50
88.019722
  7
txt
 72
     1
 11
897199.03772
 21
7270272.336744
 31
0.0
210
0.0
220
0.0
230
1.0
 73
     3
  0
TEXT
  8
11
  6
CONTINUOUS
 62
     7
  5
159
 10
897202.367
 20
7270137.112
 30
0.0
 40
8.0
  1
111.43'
 50
88.019722
  7
txt
 72
     1
 11
897195.04872
 21
7270156.966744
 31
0.0
210
0.0
220
0.0
230
1.0
 73
     3
  0
TEXT
  8
11
  6
CONTINUOUS
 62
     7
  5
15A
 10
897198.741
 20
7270032.247
 30
0.0
 40
8.0
  1
111.43'
 50
88.019722
  7
txt
 72
     1
 11
897191.42272
 21
7270052.101744
 31
0.0
210
0.0
220
0.0
230
1.0
 73
     3
  0
TEXT
  8
11
  6
CONTINUOUS
 62
     7
  5
15B
 10
897194.806
 20
7269918.468
 30
0.0
 40
8.0
  1
111.43'
 50
88.019722
  7
txt
 72
     1
 11
897187.48772
 21
7269938.322744
 31
0.0
210
0.0
220
0.0
230
1.0
 73
     3
  0
TEXT
  8
11
  6
CONTINUOUS
 62
     7
  5
15C
 10
897191.147
 20
7269812.643
 30
0.0
 40
8.0
  1
111.43'
 50
88.019722
  7
txt
 72
     1
 11
897183.82872
 21
7269832.497744
 31
0.0
210
0.0
220
0.0
230
1.0
 73
     3
  0
TEXT
  8
11
  6
CONTINUOUS
 62
     7
  5
15D
 10
897187.526
 20
7269707.897
 30
0.0
 40
8.0
  1
76.36'
 50
88.019722
  7
txt
 72
     1
 11
897180.197906
 21
7269727.467914
 31
0.0
210
0.0
220
0.0
230
1.0
 73
     3
  0
TEXT
  8
11
  6
CONTINUOUS
 62
     7
  5
15E
 10
897190.717
 20
7269671.737
 30
0.0
 40
8.0
  1
R=30'
 50
43.1364
  7
txt
 72
     4
 11
897200.301319
 21
7269686.198769
 31
0.0
210
0.0
220
0.0
230
1.0
  0
TEXT
  8
11
  6
CONTINUOUS
 62
     7
  5
15F
 10
897347.272
 20
7269658.894
 30
0.0
 40
8.0
  1
317.1'
 50
358.153214
  7
txt
 72
     1
 11
897364.113248
 21
7269658.350976
 31
0.0
210
0.0
220
0.0
230
1.0
  0
TEXT
  8
11
  6
CONTINUOUS
 62
     7
  5
160
 10
897608.92
 20
7269651.144
 30
0.0
 40
8.0
  1
R=15'
 50
43.1364
  7
txt
 72
     4
 11
897617.492916
 21
7269664.658109
 31
0.0
210
0.0
220
0.0
230
1.0
  0
TEXT
  8
11
  6
CONTINUOUS
 62
     7
  5
161
 10
897507.767
 20
7269676.363
 30
0.0
 40
8.0
  1
R=15'
 50
313.1364
  7
txt
 72
     4
 11
897521.281109
 21
7269667.790084
 31
0.0
210
0.0
220
0.0
230
1.0
  0
TEXT
  8
11
  6
CONTINUOUS
 62
     7
  5
162
 10
897537.515
 20
7269698.32
 30
0.0
 40
8.0
  1
91.44'
 50
88.1364
  7
txt
 72
     1
 11
897538.114153
 21
7269716.734255
 31
0.0
210
0.0
220
0.0
230
1.0
  0
TEXT
  8
11
  6
CONTINUOUS
 62
     7
  5
163
 10
897540.598
 20
7269801.273
 30
0.0
 40
8.0
  1
111.43'
 50
88.019722
  7
txt
 72
     1
 11
897533.27972
 21
7269821.127744
 31
0.0
210
0.0
220
0.0
230
1.0
 73
     3
  0
TEXT
  8
11
  6
CONTINUOUS
 62
     7
  5
164
 10
897543.458
 20
7269907.124
 30
0.0
 40
8.0
  1
111.43'
 50
88.019722
  7
txt
 72
     1
 11
897536.13972
 21
7269926.978744
 31
0.0
210
0.0
220
0.0
230
1.0
 73
     3
  0
TEXT
  8
11
  6
CONTINUOUS
 62
     7
  5
165
 10
897547.393
 20
7270020.903
 30
0.0
 40
8.0
  1
111.43'
 50
88.019722
  7
txt
 72
     1
 11
897540.07472
 21
7270040.757744
 31
0.0
210
0.0
220
0.0
230
1.0
 73
     3
  0
TEXT
  8
11
  6
CONTINUOUS
 62
     7
  5
166
 10
897551.017
 20
7270125.767
 30
0.0
 40
8.0
  1
111.43'
 50
88.019722
  7
txt
 72
     1
 11
897543.69872
 21
7270145.621744
 31
0.0
210
0.0
220
0.0
230
1.0
 73
     3
  0
TEXT
  8
11
  6
CONTINUOUS
 62
     7
  5
167
 10
897554.207
 20
7270241.164
 30
0.0
 40
8.0
  1
111.43'
 50
88.019722
  7
txt
 72
     1
 11
897546.88872
 21
7270261.018744
 31
0.0
210
0.0
220
0.0
230
1.0
 73
     3
  0
TEXT
  8
11
  6
CONTINUOUS
 62
     7
  5
168
 10
897557.286
 20
7270353.376
 30
0.0
 40
8.0
  1
111.43'
 50
88.019722
  7
txt
 72
     1
 11
897549.96772
 21
7270373.230744
 31
0.0
210
0.0
220
0.0
230
1.0
 73
     3
  0
TEXT
  8
11
  6
CONTINUOUS
 62
     7
  5
169
 10
897350.592
 20
7270422.188
 30
0.0
 40
8.0
  1
360.38'
 50
358.153042
  7
txt
 72
     1
 11
897374.269666
 21
7270429.428632
 31
0.0
210
0.0
220
0.0
230
1.0
 73
     3
  0
TEXT
  8
11
  6
CONTINUOUS
 62
     7
  5
16A
 10
897353.144
 20
7270322.626
 30
0.0
 40
8.0
  1
360.62'
 50
358.153083
  7
txt
 72
     1
 11
897376.373926
 21
7270321.876929
 31
0.0
210
0.0
220
0.0
230
1.0
  0
TEXT
  8
11
  6
CONTINUOUS
 62
     7
  5
16B
 10
897358.316
 20
7270210.971
 30
0.0
 40
8.0
  1
360.86'
 50
358.153072
  7
txt
 72
     1
 11
897381.545926
 21
7270210.221925
 31
0.0
210
0.0
220
0.0
230
1.0
  0
TEXT
  8
11
  6
CONTINUOUS
 62
     7
  5
16C
 10
897354.905
 20
7270099.596
 30
0.0
 40
8.0
  1
361.1'
 50
358.153061
  7
txt
 72
     1
 11
897371.525361
 21
7270099.060054
 31
0.0
210
0.0
220
0.0
230
1.0
  0
TEXT
  8
11
  6
CONTINUOUS
 62
     7
  5
16D
 10
897347.276
 20
7269988.354
 30
0.0
 40
8.0
  1
361.34'
 50
358.153053
  7
txt
 72
     1
 11
897369.500448
 21
7269987.63734
 31
0.0
210
0.0
220
0.0
230
1.0
  0
TEXT
  8
11
  6
CONTINUOUS
 62
     7
  5
16E
 10
897346.429
 20
7269876.891
 30
0.0
 40
8.0
  1
361.59'
 50
358.153042
  7
txt
 72
     1
 11
897368.274645
 21
7269876.186551
 31
0.0
210
0.0
220
0.0
230
1.0
  0
TEXT
  8
11
  6
CONTINUOUS
 62
     7
  5
16F
 10
897349.015
 20
7269765.321
 30
0.0
 40
8.0
  1
361.83'
 50
358.153031
  7
txt
 72
     1
 11
897371.049547
 21
7269764.610455
 31
0.0
210
0.0
220
0.0
230
1.0
  0
TEXT
  8
11
  6
CONTINUOUS
 62
     7
  5
170
 10
897764.456
 20
7270348.811
 30
0.0
 40
8.0
  1
303.01'
 50
358.153231
  7
txt
 72
     1
 11
897786.874297
 21
7270356.092316
 31
0.0
210
0.0
220
0.0
230
1.0
 73
     3
  0
TEXT
  8
11
  6
CONTINUOUS
 62
     7
  5
171
 10
898095.709
 20
7270338.131
 30
0.0
 40
8.0
  1
302.99'
 50
358.153042
  7
txt
 72
     1
 11
898119.196765
 21
7270345.377756
 31
0.0
210
0.0
220
0.0
230
1.0
 73
     3
  0
TEXT
  8
11
  6
CONTINUOUS
 62
     7
  5
172
 10
898499.21
 20
7270325.119
 30
0.0
 40
8.0
  1
303.01'
 50
358.153231
  7
txt
 72
     1
 11
898521.628297
 21
7270332.400316
 31
0.0
210
0.0
220
0.0
230
1.0
 73
     3
  0
TEXT
  8
11
  6
CONTINUOUS
 62
     7
  5
173
 10
898811.388
 20
7270315.053
 30
0.0
 40
8.0
  1
302.99'
 50
358.153042
  7
txt
 72
     1
 11
898834.875765
 21
7270322.299756
 31
0.0
210
0.0
220
0.0
230
1.0
 73
     3
  0
TEXT
  8
11
  6
CONTINUOUS
 62
     7
  5
174
 10
899202.268
 20
7270302.449
 30
0.0
 40
8.0
  1
303.01'
 50
358.153039
  7
txt
 72
     1
 11
899224.686321
 21
7270309.730241
 31
0.0
210
0.0
220
0.0
230
1.0
 73
     3
  0
TEXT
  8
11
  6
CONTINUOUS
 62
     7
  5
175
 10
899557.977
 20
7270290.979
 30
0.0
 40
8.0
  1
342.99'
 50
358.153106
  7
txt
 72
     1
 11
899581.686641
 21
7270298.218627
 31
0.0
210
0.0
220
0.0
230
1.0
 73
     3
  0
TEXT
  8
11
  6
CONTINUOUS
 62
     7
  5
176
 10
899397.831
 20
7270240.635
 30
0.0
 40
8.0
  1
120'
 50
88.1364
  7
txt
 72
     4
 11
899394.229472
 21
7270252.946634
 31
0.0
210
0.0
220
0.0
230
1.0
  0
TEXT
  8
11
  6
CONTINUOUS
 62
     7
  5
177
 10
899393.928
 20
7270120.697
 30
0.0
 40
8.0
  1
120'
 50
88.1364
  7
txt
 72
     4
 11
899390.326472
 21
7270133.008634
 31
0.0
210
0.0
220
0.0
230
1.0
  0
TEXT
  8
11
  6
CONTINUOUS
 62
     7
  5
178
 10
899390.025
 20
7270000.761
 30
0.0
 40
8.0
  1
120'
 50
88.1364
  7
txt
 72
     4
 11
899386.423472
 21
7270013.072634
 31
0.0
210
0.0
220
0.0
230
1.0
  0
TEXT
  8
11
  6
CONTINUOUS
 62
     7
  5
179
 10
899386.124
 20
7269880.824
 30
0.0
 40
8.0
  1
120'
 50
88.1364
  7
txt
 72
     4
 11
899382.522472
 21
7269893.135634
 31
0.0
210
0.0
220
0.0
230
1.0
  0
TEXT
  8
11
  6
CONTINUOUS
 62
     7
  5
17A
 10
899382.22
 20
7269760.889
 30
0.0
 40
8.0
  1
120'
 50
88.1364
  7
txt
 72
     4
 11
899378.618472
 21
7269773.200634
 31
0.0
210
0.0
220
0.0
230
1.0
  0
TEXT
  8
11
  6
CONTINUOUS
 62
     7
  5
17B
 10
899717.469
 20
7269749.98
 30
0.0
 40
8.0
  1
120'
 50
88.1364
  7
txt
 72
     4
 11
899713.867472
 21
7269762.291634
 31
0.0
210
0.0
220
0.0
230
1.0
  0
TEXT
  8
11
  6
CONTINUOUS
 62
     7
  5
17C
 10
899739.366
 20
7270109.457
 30
0.0
 40
8.0
  1
120'
 50
88.1364
  7
txt
 72
     4
 11
899735.764472
 21
7270121.768634
 31
0.0
210
0.0
220
0.0
230
1.0
  0
TEXT
  8
11
  6
CONTINUOUS
 62
     7
  5
17D
 10
899743.545
 20
7270211.531
 30
0.0
 40
8.0
  1
104.99'
 50
88.1364
  7
txt
 72
     4
 11
899740.263016
 21
7270233.663437
 31
0.0
210
0.0
220
0.0
230
1.0
  0
TEXT
  8
11
  6
CONTINUOUS
 62
     7
  5
17E
 10
899726.655
 20
7270267.811
 30
0.0
 40
8.0
  1
R=15'
 50
43.1364
  7
txt
 72
     4
 11
899735.227916
 21
7270281.325109
 31
0.0
210
0.0
220
0.0
230
1.0
  0
TEXT
  8
11
  6
CONTINUOUS
 62
     7
  5
17F
 10
899038.655
 20
7269607.056
 30
0.0
 40
8.0
  1
R=15'
 50
43.1364
  7
txt
 72
     4
 11
899047.227916
 21
7269620.570109
 31
0.0
210
0.0
220
0.0
230
1.0
  0
TEXT
  8
11
  6
CONTINUOUS
 62
     7
  5
180
 10
898970.252
 20
7270294.7
 30
0.0
 40
8.0
  1
R=15'
 50
43.1364
  7
txt
 72
     4
 11
898978.824916
 21
7270308.214109
 31
0.0
210
0.0
220
0.0
230
1.0
  0
TEXT
  8
11
  6
CONTINUOUS
 62
     7
  5
181
 10
898254.535
 20
7270314.446
 30
0.0
 40
8.0
  1
R=15'
 50
43.1364
  7
txt
 72
     4
 11
898263.107916
 21
7270327.960109
 31
0.0
210
0.0
220
0.0
230
1.0
  0
TEXT
  8
11
  6
CONTINUOUS
 62
     7
  5
182
 10
898322.513
 20
7269630.269
 30
0.0
 40
8.0
  1
R=15'
 50
43.1364
  7
txt
 72
     4
 11
898331.085916
 21
7269643.783109
 31
0.0
210
0.0
220
0.0
230
1.0
  0
TEXT
  8
11
  6
CONTINUOUS
 62
     7
  5
183
 10
898225.019
 20
7269653.025
 30
0.0
 40
8.0
  1
R=15'
 50
313.1364
  7
txt
 72
     4
 11
898238.533109
 21
7269644.452084
 31
0.0
210
0.0
220
0.0
230
1.0
  0
TEXT
  8
11
  6
CONTINUOUS
 62
     7
  5
184
 10
898942.631
 20
7269625.757
 30
0.0
 40
8.0
  1
R=15'
 50
313.1364
  7
txt
 72
     4
 11
898956.145109
 21
7269617.184084
 31
0.0
210
0.0
220
0.0
230
1.0
  0
TEXT
  8
11
  6
CONTINUOUS
 62
     7
  5
185
 10
899684.035
 20
7269608.943
 30
0.0
 40
8.0
  1
R=30'
 50
313.1364
  7
txt
 72
     4
 11
899698.496769
 21
7269599.358681
 31
0.0
210
0.0
220
0.0
230
1.0
  0
TEXT
  8
11
  6
CONTINUOUS
 62
     7
  5
186
 10
897623.778
 20
7270353.733
 30
0.0
 40
8.0
  1
R=15'
 50
313.1364
  7
txt
 72
     4
 11
897637.292109
 21
7270345.160084
 31
0.0
210
0.0
220
0.0
230
1.0
  0
TEXT
  8
11
  6
CONTINUOUS
 62
     7
  5
187
 10
898339.738
 20
7270330.437
 30
0.0
 40
8.0
  1
R=15'
 50
313.1364
  7
txt
 72
     4
 11
898353.252109
 21
7270321.864084
 31
0.0
210
0.0
220
0.0
230
1.0
  0
TEXT
  8
11
  6
CONTINUOUS
 62
     7
  5
188
 10
899056.244
 20
7270307.125
 30
0.0
 40
8.0
  1
R=15'
 50
313.1364
  7
txt
 72
     4
 11
899069.758109
 21
7270298.552084
 31
0.0
210
0.0
220
0.0
230
1.0
  0
TEXT
  8
11
  6
CONTINUOUS
 62
     7
  5
189
 10
899555.251
 20
7270183.011
 30
0.0
 40
8.0
  1
358'
 50
358.153044
  7
txt
 72
     1
 11
899568.881915
 21
7270182.571449
 31
0.0
210
0.0
220
0.0
230
1.0
  0
TEXT
  8
11
  6
CONTINUOUS
 62
     7
  5
18A
 10
899551.348
 20
7270063.074
 30
0.0
 40
8.0
  1
358'
 50
358.153044
  7
txt
 72
     1
 11
899564.978915
 21
7270062.634449
 31
0.0
210
0.0
220
0.0
230
1.0
  0
TEXT
  8
11
  6
CONTINUOUS
 62
     7
  5
18B
 10
899547.258
 20
7269943.143
 30
0.0
 40
8.0
  1
354'
 50
358.153044
  7
txt
 72
     1
 11
899561.076817
 21
7269942.69739
 31
0.0
210
0.0
220
0.0
230
1.0
  0
TEXT
  8
11
  6
CONTINUOUS
 62
     7
  5
18C
 10
899543.356
 20
7269823.206
 30
0.0
 40
8.0
  1
348'
 50
358.153044
  7
txt
 72
     1
 11
899557.174817
 21
7269822.76039
 31
0.0
210
0.0
220
0.0
230
1.0
  0
TEXT
  8
11
  6
CONTINUOUS
 62
     7
  5
18D
 10
899539.453
 20
7269703.27
 30
0.0
 40
8.0
  1
348'
 50
358.153044
  7
txt
 72
     1
 11
899553.271817
 21
7269702.82439
 31
0.0
210
0.0
220
0.0
230
1.0
  0
TEXT
  8
11
  6
CONTINUOUS
 62
     7
  5
18E
 10
899528.756
 20
7269588.556
 30
0.0
 40
8.0
  1
318.01'
 50
358.153044
  7
txt
 72
     1
 11
899549.531201
 21
7269587.88607
 31
0.0
210
0.0
220
0.0
230
1.0
  0
TEXT
  8
11
  6
CONTINUOUS
 62
     7
  5
18F
 10
899205.47
 20
7270194.289
 30
0.0
 40
8.0
  1
318'
 50
358.152975
  7
txt
 72
     1
 11
899217.683651
 21
7270193.895136
 31
0.0
210
0.0
220
0.0
230
1.0
  0
TEXT
  8
11
  6
CONTINUOUS
 62
     7
  5
190
 10
899201.569
 20
7270074.353
 30
0.0
 40
8.0
  1
318'
 50
358.152975
  7
txt
 72
     1
 11
899213.782651
 21
7270073.959136
 31
0.0
210
0.0
220
0.0
230
1.0
  0
TEXT
  8
11
  6
CONTINUOUS
 62
     7
  5
191
 10
899197.666
 20
7269954.416
 30
0.0
 40
8.0
  1
318'
 50
358.152975
  7
txt
 72
     1
 11
899209.879651
 21
7269954.022136
 31
0.0
210
0.0
220
0.0
230
1.0
  0
TEXT
  8
11
  6
CONTINUOUS
 62
     7
  5
192
 10
899193.763
 20
7269834.479
 30
0.0
 40
8.0
  1
318'
 50
358.152975
  7
txt
 72
     1
 11
899205.976651
 21
7269834.085136
 31
0.0
210
0.0
220
0.0
230
1.0
  0
TEXT
  8
11
  6
CONTINUOUS
 62
     7
  5
193
 10
899189.861
 20
7269714.542
 30
0.0
 40
8.0
  1
318'
 50
358.152975
  7
txt
 72
     1
 11
899202.074651
 21
7269714.148136
 31
0.0
210
0.0
220
0.0
230
1.0
  0
TEXT
  8
11
  6
CONTINUOUS
 62
     7
  5
194
 10
899175.105
 20
7269599.959
 30
0.0
 40
8.0
  1
302.99'
 50
358.152975
  7
txt
 72
     1
 11
899198.334924
 21
7269599.209885
 31
0.0
210
0.0
220
0.0
230
1.0
  0
TEXT
  8
11
  6
CONTINUOUS
 62
     7
  5
195
 10
899378.137
 20
7269640.27
 30
0.0
 40
8.0
  1
115'
 50
88.1364
  7
txt
 72
     4
 11
899374.490399
 21
7269651.196367
 31
0.0
210
0.0
220
0.0
230
1.0
  0
TEXT
  8
11
  6
CONTINUOUS
 62
     7
  5
196
 10
899345.46
 20
7269641.334
 30
0.0
 40
8.0
  1
115'
 50
88.1364
  7
txt
 72
     4
 11
899341.813399
 21
7269652.260367
 31
0.0
210
0.0
220
0.0
230
1.0
  0
TEXT
  8
11
  6
CONTINUOUS
 62
     7
  5
197
 10
899715.132
 20
7269636.448
 30
0.0
 40
8.0
  1
85.01'
 50
88.1364
  7
txt
 72
     4
 11
899711.726114
 21
7269654.772452
 31
0.0
210
0.0
220
0.0
230
1.0
  0
TEXT
  8
11
  6
CONTINUOUS
 62
     7
  5
198
 10
899039.416
 20
7269646.831
 30
0.0
 40
8.0
  1
99.99'
 50
88.1364
  7
txt
 72
     4
 11
899036.032618
 21
7269665.847086
 31
0.0
210
0.0
220
0.0
230
1.0
  0
TEXT
  8
11
  6
CONTINUOUS
 62
     7
  5
199
 10
899350.451
 20
7269761.922
 30
0.0
 40
8.0
  1
120'
 50
88.1364
  7
txt
 72
     4
 11
899346.849472
 21
7269774.233634
 31
0.0
210
0.0
220
0.0
230
1.0
  0
TEXT
  8
11
  6
CONTINUOUS
 62
     7
  5
19A
 10
899044.55
 20
7269771.875
 30
0.0
 40
8.0
  1
120'
 50
88.1364
  7
txt
 72
     4
 11
899040.948472
 21
7269784.186634
 31
0.0
210
0.0
220
0.0
230
1.0
  0
TEXT
  8
11
  6
CONTINUOUS
 62
     7
  5
19B
 10
898971.932
 20
7269774.238
 30
0.0
 40
8.0
  1
120'
 50
88.1364
  7
txt
 72
     4
 11
898968.330472
 21
7269786.549634
 31
0.0
210
0.0
220
0.0
230
1.0
  0
TEXT
  8
11
  6
CONTINUOUS
 62
     7
  5
19C
 10
899354.353
 20
7269881.859
 30
0.0
 40
8.0
  1
120'
 50
88.1364
  7
txt
 72
     4
 11
899350.751472
 21
7269894.170634
 31
0.0
210
0.0
220
0.0
230
1.0
  0
TEXT
  8
11
  6
CONTINUOUS
 62
     7
  5
19D
 10
899049.361
 20
7269891.782
 30
0.0
 40
8.0
  1
120'
 50
88.1364
  7
txt
 72
     4
 11
899045.759472
 21
7269904.093634
 31
0.0
210
0.0
220
0.0
230
1.0
  0
TEXT
  8
11
  6
CONTINUOUS
 62
     7
  5
19E
 10
899358.257
 20
7270001.794
 30
0.0
 40
8.0
  1
120'
 50
88.1364
  7
txt
 72
     4
 11
899354.655472
 21
7270014.105634
 31
0.0
210
0.0
220
0.0
230
1.0
  0
TEXT
  8
11
  6
CONTINUOUS
 62
     7
  5
19F
 10
899362.159
 20
7270121.731
 30
0.0
 40
8.0
  1
120'
 50
88.1364
  7
txt
 72
     4
 11
899358.557472
 21
7270134.042634
 31
0.0
210
0.0
220
0.0
230
1.0
  0
TEXT
  8
11
  6
CONTINUOUS
 62
     7
  5
1A0
 10
899366.06
 20
7270241.668
 30
0.0
 40
8.0
  1
120'
 50
88.1364
  7
txt
 72
     4
 11
899362.458472
 21
7270253.979634
 31
0.0
210
0.0
220
0.0
230
1.0
  0
TEXT
  8
11
  6
CONTINUOUS
 62
     7
  5
1A1
 10
899053.265
 20
7270011.718
 30
0.0
 40
8.0
  1
120'
 50
88.1364
  7
txt
 72
     4
 11
899049.663472
 21
7270024.029634
 31
0.0
210
0.0
220
0.0
230
1.0
  0
TEXT
  8
11
  6
CONTINUOUS
 62
     7
  5
1A2
 10
899057.166
 20
7270131.654
 30
0.0
 40
8.0
  1
120'
 50
88.1364
  7
txt
 72
     4
 11
899053.564472
 21
7270143.965634
 31
0.0
210
0.0
220
0.0
230
1.0
  0
TEXT
  8
11
  6
CONTINUOUS
 62
     7
  5
1A3
 10
899060.432
 20
7270232.028
 30
0.0
 40
8.0
  1
105.01'
 50
88.1364
  7
txt
 72
     4
 11
899057.109073
 21
7270252.902103
 31
0.0
210
0.0
220
0.0
230
1.0
  0
TEXT
  8
11
  6
CONTINUOUS
 62
     7
  5
1A4
 10
898987.021
 20
7270228.835
 30
0.0
 40
8.0
  1
104.99'
 50
88.1364
  7
txt
 72
     4
 11
898983.739016
 21
7270250.967437
 31
0.0
210
0.0
220
0.0
230
1.0
  0
TEXT
  8
11
  6
CONTINUOUS
 62
     7
  5
1A5
 10
898343.408
 20
7270253.999
 30
0.0
 40
8.0
  1
105.01
 50
88.1364
  7
txt
 72
     4
 11
898339.988781
 21
7270271.913669
 31
0.0
210
0.0
220
0.0
230
1.0
  0
TEXT
  8
11
  6
CONTINUOUS
 62
     7
  5
1A6
 10
898271.561
 20
7270252.114
 30
0.0
 40
8.0
  1
104.99'
 50
88.1364
  7
txt
 72
     4
 11
898268.279016
 21
7270274.246437
 31
0.0
210
0.0
220
0.0
230
1.0
  0
TEXT
  8
11
  6
CONTINUOUS
 62
     7
  5
1A7
 10
897627.125
 20
7270274.342
 30
0.0
 40
8.0
  1
105.01'
 50
88.1364
  7
txt
 72
     4
 11
897623.802073
 21
7270295.216103
 31
0.0
210
0.0
220
0.0
230
1.0
  0
TEXT
  8
11
  6
CONTINUOUS
 62
     7
  5
1A8
 10
897608.252
 20
7269694.307
 30
0.0
 40
8.0
  1
99.99'
 50
88.1364
  7
txt
 72
     4
 11
897604.868618
 21
7269713.323086
 31
0.0
210
0.0
220
0.0
230
1.0
  0
TEXT
  8
11
  6
CONTINUOUS
 62
     7
  5
1A9
 10
897914.414
 20
7269692.442
 30
0.0
 40
8.0
  1
115'
 50
88.1364
  7
txt
 72
     4
 11
897910.767399
 21
7269703.368367
 31
0.0
210
0.0
220
0.0
230
1.0
  0
TEXT
  8
11
  6
CONTINUOUS
 62
     7
  5
1AA
 10
897947.093
 20
7269691.38
 30
0.0
 40
8.0
  1
115'
 50
88.1364
  7
txt
 72
     4
 11
897943.446399
 21
7269702.306367
 31
0.0
210
0.0
220
0.0
230
1.0
  0
TEXT
  8
11
  6
CONTINUOUS
 62
     7
  5
1AB
 10
898630.693
 20
7269669.137
 30
0.0
 40
8.0
  1
115'
 50
88.1364
  7
txt
 72
     4
 11
898627.046399
 21
7269680.063367
 31
0.0
210
0.0
220
0.0
230
1.0
  0
TEXT
  8
11
  6
CONTINUOUS
 62
     7
  5
1AC
 10
898663.37
 20
7269668.074
 30
0.0
 40
8.0
  1
115'
 50
88.1364
  7
txt
 72
     4
 11
898659.723399
 21
7269679.000367
 31
0.0
210
0.0
220
0.0
230
1.0
  0
TEXT
  8
11
  6
CONTINUOUS
 62
     7
  5
1AD
 10
898967.768
 20
7269648.243
 30
0.0
 40
8.0
  1
100.01'
 50
88.1364
  7
txt
 72
     4
 11
898964.444032
 21
7269669.08512
 31
0.0
210
0.0
220
0.0
230
1.0
  0
TEXT
  8
11
  6
CONTINUOUS
 62
     7
  5
1AE
 10
898253.305
 20
7269671.49
 30
0.0
 40
8.0
  1
100.01'
 50
88.1364
  7
txt
 72
     4
 11
898249.981032
 21
7269692.33212
 31
0.0
210
0.0
220
0.0
230
1.0
  0
TEXT
  8
11
  6
CONTINUOUS
 62
     7
  5
1AF
 10
898325.074
 20
7269670.982
 30
0.0
 40
8.0
  1
99.99'
 50
88.1364
  7
txt
 72
     4
 11
898321.690618
 21
7269689.998086
 31
0.0
210
0.0
220
0.0
230
1.0
  0
TEXT
  8
11
  6
CONTINUOUS
 62
     7
  5
1B0
 10
898682.882
 20
7270263.896
 30
0.0
 40
8.0
  1
120'
 50
88.1364
  7
txt
 72
     4
 11
898679.280472
 21
7270276.207634
 31
0.0
210
0.0
220
0.0
230
1.0
  0
TEXT
  8
11
  6
CONTINUOUS
 62
     7
  5
1B1
 10
898678.981
 20
7270143.96
 30
0.0
 40
8.0
  1
120'
 50
88.1364
  7
txt
 72
     4
 11
898675.379472
 21
7270156.271634
 31
0.0
210
0.0
220
0.0
230
1.0
  0
TEXT
  8
11
  6
CONTINUOUS
 62
     7
  5
1B2
 10
898675.078
 20
7270024.023
 30
0.0
 40
8.0
  1
120'
 50
88.1364
  7
txt
 72
     4
 11
898671.476472
 21
7270036.334634
 31
0.0
210
0.0
220
0.0
230
1.0
  0
TEXT
  8
11
  6
CONTINUOUS
 62
     7
  5
1B3
 10
898671.176
 20
7269904.087
 30
0.0
 40
8.0
  1
120'
 50
88.1364
  7
txt
 72
     4
 11
898667.574472
 21
7269916.398634
 31
0.0
210
0.0
220
0.0
230
1.0
  0
TEXT
  8
11
  6
CONTINUOUS
 62
     7
  5
1B4
 10
898667.273
 20
7269784.15
 30
0.0
 40
8.0
  1
120'
 50
88.1364
  7
txt
 72
     4
 11
898663.671472
 21
7269796.461634
 31
0.0
210
0.0
220
0.0
230
1.0
  0
TEXT
  8
11
  6
CONTINUOUS
 62
     7
  5
1B5
 10
898975.835
 20
7269894.174
 30
0.0
 40
8.0
  1
120'
 50
88.1364
  7
txt
 72
     4
 11
898972.233472
 21
7269906.485634
 31
0.0
210
0.0
220
0.0
230
1.0
  0
TEXT
  8
11
  6
CONTINUOUS
 62
     7
  5
1B6
 10
898979.738
 20
7270014.111
 30
0.0
 40
8.0
  1
120'
 50
88.1364
  7
txt
 72
     4
 11
898976.136472
 21
7270026.422634
 31
0.0
210
0.0
220
0.0
230
1.0
  0
TEXT
  8
11
  6
CONTINUOUS
 62
     7
  5
1B7
 10
898983.64
 20
7270134.046
 30
0.0
 40
8.0
  1
120'
 50
88.1364
  7
txt
 72
     4
 11
898980.038472
 21
7270146.357634
 31
0.0
210
0.0
220
0.0
230
1.0
  0
TEXT
  8
11
  6
CONTINUOUS
 62
     7
  5
1B8
 10
898648.89
 20
7270265.002
 30
0.0
 40
8.0
  1
120'
 50
88.1364
  7
txt
 72
     4
 11
898645.288472
 21
7270277.313634
 31
0.0
210
0.0
220
0.0
230
1.0
  0
TEXT
  8
11
  6
CONTINUOUS
 62
     7
  5
1B9
 10
898644.988
 20
7270145.066
 30
0.0
 40
8.0
  1
120'
 50
88.1364
  7
txt
 72
     4
 11
898641.386472
 21
7270157.377634
 31
0.0
210
0.0
220
0.0
230
1.0
  0
TEXT
  8
11
  6
CONTINUOUS
 62
     7
  5
1BA
 10
898641.085
 20
7270025.13
 30
0.0
 40
8.0
  1
120'
 50
88.1364
  7
txt
 72
     4
 11
898637.483472
 21
7270037.441634
 31
0.0
210
0.0
220
0.0
230
1.0
  0
TEXT
  8
11
  6
CONTINUOUS
 62
     7
  5
1BB
 10
898637.182
 20
7269905.193
 30
0.0
 40
8.0
  1
120'
 50
88.1364
  7
txt
 72
     4
 11
898633.580472
 21
7269917.504634
 31
0.0
210
0.0
220
0.0
230
1.0
  0
TEXT
  8
11
  6
CONTINUOUS
 62
     7
  5
1BC
 10
898633.281
 20
7269785.256
 30
0.0
 40
8.0
  1
120'
 50
88.1364
  7
txt
 72
     4
 11
898629.679472
 21
7269797.567634
 31
0.0
210
0.0
220
0.0
230
1.0
  0
TEXT
  8
11
  6
CONTINUOUS
 62
     7
  5
1BD
 10
898329.0
 20
7269795.157
 30
0.0
 40
8.0
  1
120'
 50
88.1364
  7
txt
 72
     4
 11
898325.398472
 21
7269807.468634
 31
0.0
210
0.0
220
0.0
230
1.0
  0
TEXT
  8
11
  6
CONTINUOUS
 62
     7
  5
1BE
 10
898332.903
 20
7269915.093
 30
0.0
 40
8.0
  1
120'
 50
88.1364
  7
txt
 72
     4
 11
898329.301472
 21
7269927.404634
 31
0.0
210
0.0
220
0.0
230
1.0
  0
TEXT
  8
11
  6
CONTINUOUS
 62
     7
  5
1BF
 10
898336.804
 20
7270035.03
 30
0.0
 40
8.0
  1
120'
 50
88.1364
  7
txt
 72
     4
 11
898333.202472
 21
7270047.341634
 31
0.0
210
0.0
220
0.0
230
1.0
  0
TEXT
  8
11
  6
CONTINUOUS
 62
     7
  5
1C0
 10
898340.707
 20
7270154.966
 30
0.0
 40
8.0
  1
120'
 50
88.1364
  7
txt
 72
     4
 11
898337.105472
 21
7270167.277634
 31
0.0
210
0.0
220
0.0
230
1.0
  0
TEXT
  8
11
  6
CONTINUOUS
 62
     7
  5
1C1
 10
898267.086
 20
7270157.362
 30
0.0
 40
8.0
  1
120'
 50
88.1364
  7
txt
 72
     4
 11
898263.484472
 21
7270169.673634
 31
0.0
210
0.0
220
0.0
230
1.0
  0
TEXT
  8
11
  6
CONTINUOUS
 62
     7
  5
1C2
 10
897963.635
 20
7270167.236
 30
0.0
 40
8.0
  1
120'
 50
88.1364
  7
txt
 72
     4
 11
897960.033472
 21
7270179.547634
 31
0.0
210
0.0
220
0.0
230
1.0
  0
TEXT
  8
11
  6
CONTINUOUS
 62
     7
  5
1C3
 10
897967.537
 20
7270287.172
 30
0.0
 40
8.0
  1
120'
 50
88.1364
  7
txt
 72
     4
 11
897963.935472
 21
7270299.483634
 31
0.0
210
0.0
220
0.0
230
1.0
  0
TEXT
  8
11
  6
CONTINUOUS
 62
     7
  5
1C4
 10
897934.374
 20
7270288.251
 30
0.0
 40
8.0
  1
120'
 50
88.1364
  7
txt
 72
     4
 11
897930.772472
 21
7270300.562634
 31
0.0
210
0.0
220
0.0
230
1.0
  0
TEXT
  8
11
  6
CONTINUOUS
 62
     7
  5
1C5
 10
897930.471
 20
7270168.315
 30
0.0
 40
8.0
  1
120'
 50
88.1364
  7
txt
 72
     4
 11
897926.869472
 21
7270180.626634
 31
0.0
210
0.0
220
0.0
230
1.0
  0
TEXT
  8
11
  6
CONTINUOUS
 62
     7
  5
1C6
 10
897625.363
 20
7270178.242
 30
0.0
 40
8.0
  1
120'
 50
88.1364
  7
txt
 72
     4
 11
897621.761472
 21
7270190.553634
 31
0.0
210
0.0
220
0.0
230
1.0
  0
TEXT
  8
11
  6
CONTINUOUS
 62
     7
  5
1C7
 10
897621.461
 20
7270058.305
 30
0.0
 40
8.0
  1
120'
 50
88.1364
  7
txt
 72
     4
 11
897617.859472
 21
7270070.616634
 31
0.0
210
0.0
220
0.0
230
1.0
  0
TEXT
  8
11
  6
CONTINUOUS
 62
     7
  5
1C8
 10
897617.557
 20
7269938.369
 30
0.0
 40
8.0
  1
120'
 50
88.1364
  7
txt
 72
     4
 11
897613.955472
 21
7269950.680634
 31
0.0
210
0.0
220
0.0
230
1.0
  0
TEXT
  8
11
  6
CONTINUOUS
 62
     7
  5
1C9
 10
897613.656
 20
7269818.433
 30
0.0
 40
8.0
  1
120'
 50
88.1364
  7
txt
 72
     4
 11
897610.054472
 21
7269830.744634
 31
0.0
210
0.0
220
0.0
230
1.0
  0
TEXT
  8
11
  6
CONTINUOUS
 62
     7
  5
1CA
 10
897926.569
 20
7270048.378
 30
0.0
 40
8.0
  1
120'
 50
88.1364
  7
txt
 72
     4
 11
897922.967472
 21
7270060.689634
 31
0.0
210
0.0
220
0.0
230
1.0
  0
TEXT
  8
11
  6
CONTINUOUS
 62
     7
  5
1CB
 10
897922.667
 20
7269928.442
 30
0.0
 40
8.0
  1
120'
 50
88.1364
  7
txt
 72
     4
 11
897919.065472
 21
7269940.753634
 31
0.0
210
0.0
220
0.0
230
1.0
  0
TEXT
  8
11
  6
CONTINUOUS
 62
     7
  5
1CC
 10
897918.764
 20
7269808.505
 30
0.0
 40
8.0
  1
120'
 50
88.1364
  7
txt
 72
     4
 11
897915.162472
 21
7269820.816634
 31
0.0
210
0.0
220
0.0
230
1.0
  0
TEXT
  8
11
  6
CONTINUOUS
 62
     7
  5
1CD
 10
897959.732
 20
7270047.299
 30
0.0
 40
8.0
  1
120'
 50
88.1364
  7
txt
 72
     4
 11
897956.130472
 21
7270059.610634
 31
0.0
210
0.0
220
0.0
230
1.0
  0
TEXT
  8
11
  6
CONTINUOUS
 62
     7
  5
1CE
 10
897955.83
 20
7269927.362
 30
0.0
 40
8.0
  1
120'
 50
88.1364
  7
txt
 72
     4
 11
897952.228472
 21
7269939.673634
 31
0.0
210
0.0
220
0.0
230
1.0
  0
TEXT
  8
11
  6
CONTINUOUS
 62
     7
  5
1CF
 10
897951.928
 20
7269807.426
 30
0.0
 40
8.0
  1
120'
 50
88.1364
  7
txt
 72
     4
 11
897948.326472
 21
7269819.737634
 31
0.0
210
0.0
220
0.0
230
1.0
  0
TEXT
  8
11
  6
CONTINUOUS
 62
     7
  5
1D0
 10
898263.182
 20
7270037.425
 30
0.0
 40
8.0
  1
120'
 50
88.1364
  7
txt
 72
     4
 11
898259.580472
 21
7270049.736634
 31
0.0
210
0.0
220
0.0
230
1.0
  0
TEXT
  8
11
  6
CONTINUOUS
 62
     7
  5
1D1
 10
898259.281
 20
7269917.489
 30
0.0
 40
8.0
  1
120'
 50
88.1364
  7
txt
 72
     4
 11
898255.679472
 21
7269929.800634
 31
0.0
210
0.0
220
0.0
230
1.0
  0
TEXT
  8
11
  6
CONTINUOUS
 62
     7
  5
1D2
 10
898255.378
 20
7269797.552
 30
0.0
 40
8.0
  1
120'
 50
88.1364
  7
txt
 72
     4
 11
898251.776472
 21
7269809.863634
 31
0.0
210
0.0
220
0.0
230
1.0
  0
TEXT
  8
11
  6
CONTINUOUS
 62
     7
  5
1D3
 10
898816.93
 20
7270206.931
 30
0.0
 40
8.0
  1
318'
 50
358.152975
  7
txt
 72
     1
 11
898829.143651
 21
7270206.537136
 31
0.0
210
0.0
220
0.0
230
1.0
  0
TEXT
  8
11
  6
CONTINUOUS
 62
     7
  5
1D4
 10
898813.028
 20
7270086.994
 30
0.0
 40
8.0
  1
318'
 50
358.152975
  7
txt
 72
     1
 11
898825.241651
 21
7270086.600136
 31
0.0
210
0.0
220
0.0
230
1.0
  0
TEXT
  8
11
  6
CONTINUOUS
 62
     7
  5
1D5
 10
898809.126
 20
7269967.059
 30
0.0
 40
8.0
  1
318'
 50
358.152975
  7
txt
 72
     1
 11
898821.339651
 21
7269966.665136
 31
0.0
210
0.0
220
0.0
230
1.0
  0
TEXT
  8
11
  6
CONTINUOUS
 62
     7
  5
1D6
 10
898805.222
 20
7269847.121
 30
0.0
 40
8.0
  1
318'
 50
358.152975
  7
txt
 72
     1
 11
898817.435651
 21
7269846.727136
 31
0.0
210
0.0
220
0.0
230
1.0
  0
TEXT
  8
11
  6
CONTINUOUS
 62
     7
  5
1D7
 10
898801.321
 20
7269727.185
 30
0.0
 40
8.0
  1
318'
 50
358.152975
  7
txt
 72
     1
 11
898813.534651
 21
7269726.791136
 31
0.0
210
0.0
220
0.0
230
1.0
  0
TEXT
  8
11
  6
CONTINUOUS
 62
     7
  5
1D8
 10
898483.244
 20
7269737.534
 30
0.0
 40
8.0
  1
318'
 50
358.152975
  7
txt
 72
     1
 11
898495.457651
 21
7269737.140136
 31
0.0
210
0.0
220
0.0
230
1.0
  0
TEXT
  8
11
  6
CONTINUOUS
 62
     7
  5
1D9
 10
898487.147
 20
7269857.471
 30
0.0
 40
8.0
  1
318'
 50
358.152975
  7
txt
 72
     1
 11
898499.360651
 21
7269857.077136
 31
0.0
210
0.0
220
0.0
230
1.0
  0
TEXT
  8
11
  6
CONTINUOUS
 62
     7
  5
1DA
 10
898491.048
 20
7269977.407
 30
0.0
 40
8.0
  1
318'
 50
358.152975
  7
txt
 72
     1
 11
898503.261651
 21
7269977.013136
 31
0.0
210
0.0
220
0.0
230
1.0
  0
TEXT
  8
11
  6
CONTINUOUS
 62
     7
  5
1DB
 10
898494.952
 20
7270097.344
 30
0.0
 40
8.0
  1
318'
 50
358.152975
  7
txt
 72
     1
 11
898507.165651
 21
7270096.950136
 31
0.0
210
0.0
220
0.0
230
1.0
  0
TEXT
  8
11
  6
CONTINUOUS
 62
     7
  5
1DC
 10
898498.853
 20
7270217.28
 30
0.0
 40
8.0
  1
318'
 50
358.152975
  7
txt
 72
     1
 11
898511.066651
 21
7270216.886136
 31
0.0
210
0.0
220
0.0
230
1.0
  0
TEXT
  8
11
  6
CONTINUOUS
 62
     7
  5
1DD
 10
898102.081
 20
7270230.19
 30
0.0
 40
8.0
  1
318'
 50
358.152975
  7
txt
 72
     1
 11
898114.294651
 21
7270229.796136
 31
0.0
210
0.0
220
0.0
230
1.0
  0
TEXT
  8
11
  6
CONTINUOUS
 62
     7
  5
1DE
 10
898098.178
 20
7270110.254
 30
0.0
 40
8.0
  1
318'
 50
358.152975
  7
txt
 72
     1
 11
898110.391651
 21
7270109.860136
 31
0.0
210
0.0
220
0.0
230
1.0
  0
TEXT
  8
11
  6
CONTINUOUS
 62
     7
  5
1DF
 10
898094.276
 20
7269990.318
 30
0.0
 40
8.0
  1
318'
 50
358.152975
  7
txt
 72
     1
 11
898106.489651
 21
7269989.924136
 31
0.0
210
0.0
220
0.0
230
1.0
  0
TEXT
  8
11
  6
CONTINUOUS
 62
     7
  5
1E0
 10
898090.373
 20
7269870.381
 30
0.0
 40
8.0
  1
318'
 50
358.152975
  7
txt
 72
     1
 11
898102.586651
 21
7269869.987136
 31
0.0
210
0.0
220
0.0
230
1.0
  0
TEXT
  8
11
  6
CONTINUOUS
 62
     7
  5
1E1
 10
898086.471
 20
7269750.445
 30
0.0
 40
8.0
  1
318'
 50
358.152975
  7
txt
 72
     1
 11
898098.684651
 21
7269750.051136
 31
0.0
210
0.0
220
0.0
230
1.0
  0
TEXT
  8
11
  6
CONTINUOUS
 62
     7
  5
1E2
 10
897759.667
 20
7269761.078
 30
0.0
 40
8.0
  1
318'
 50
358.152975
  7
txt
 72
     1
 11
897771.880651
 21
7269760.684136
 31
0.0
210
0.0
220
0.0
230
1.0
  0
TEXT
  8
11
  6
CONTINUOUS
 62
     7
  5
1E3
 10
897763.571
 20
7269881.014
 30
0.0
 40
8.0
  1
318'
 50
358.152975
  7
txt
 72
     1
 11
897775.784651
 21
7269880.620136
 31
0.0
210
0.0
220
0.0
230
1.0
  0
TEXT
  8
11
  6
CONTINUOUS
 62
     7
  5
1E4
 10
897767.472
 20
7270000.951
 30
0.0
 40
8.0
  1
318'
 50
358.152975
  7
txt
 72
     1
 11
897779.685651
 21
7270000.557136
 31
0.0
210
0.0
220
0.0
230
1.0
  0
TEXT
  8
11
  6
CONTINUOUS
 62
     7
  5
1E5
 10
897771.375
 20
7270120.887
 30
0.0
 40
8.0
  1
318'
 50
358.152975
  7
txt
 72
     1
 11
897783.588651
 21
7270120.493136
 31
0.0
210
0.0
220
0.0
230
1.0
  0
TEXT
  8
11
  6
CONTINUOUS
 62
     7
  5
1E6
 10
897775.277
 20
7270240.824
 30
0.0
 40
8.0
  1
318'
 50
358.152975
  7
txt
 72
     1
 11
897787.490651
 21
7270240.430136
 31
0.0
210
0.0
220
0.0
230
1.0
  0
TEXT
  8
11
  6
CONTINUOUS
 62
     7
  5
1E7
 10
897744.911
 20
7269646.494
 30
0.0
 40
8.0
  1
302.99'
 50
358.152975
  7
txt
 72
     1
 11
897768.140924
 21
7269645.744885
 31
0.0
210
0.0
220
0.0
230
1.0
  0
TEXT
  8
11
  6
CONTINUOUS
 62
     7
  5
1E8
 10
898072.785
 20
7269635.826
 30
0.0
 40
8.0
  1
303.01'
 50
358.152975
  7
txt
 72
     1
 11
898094.94548
 21
7269635.111372
 31
0.0
210
0.0
220
0.0
230
1.0
  0
TEXT
  8
11
  6
CONTINUOUS
 62
     7
  5
1E9
 10
898468.488
 20
7269622.951
 30
0.0
 40
8.0
  1
302.99'
 50
358.152975
  7
txt
 72
     1
 11
898491.717924
 21
7269622.201885
 31
0.0
210
0.0
220
0.0
230
1.0
  0
TEXT
  8
11
  6
CONTINUOUS
 62
     7
  5
1EA
 10
898787.634
 20
7269612.567
 30
0.0
 40
8.0
  1
303.01'
 50
358.152975
  7
txt
 72
     1
 11
898809.79448
 21
7269611.852372
 31
0.0
210
0.0
220
0.0
230
1.0
  0
TEXT
  8
10
  6
CONTINUOUS
 62
   134
  5
1EB
 10
899672.231
 20
7271953.607
 30
0.0
 40
13.999
  1
1
 50
358.1501
  7
txt
 72
     4
 11
899674.65982
 21
7271960.532204
 31
0.0
210
0.0
220
0.0
230
1.0
  0
TEXT
  8
10
  6
CONTINUOUS
 62
   134
  5
1EC
 10
899558.809
 20
7270233.07
 30
0.0
 40
13.999
  1
2
 50
358.1364
  7
txt
 72
     4
 11
899563.718164
 21
7270239.913973
 31
0.0
210
0.0
220
0.0
230
1.0
  0
TEXT
  8
10
  6
CONTINUOUS
 62
   134
  5
1ED
 10
899554.907
 20
7270113.133
 30
0.0
 40
13.999
  1
3
 50
358.1364
  7
txt
 72
     4
 11
899559.816164
 21
7270119.976973
 31
0.0
210
0.0
220
0.0
230
1.0
  0
TEXT
  8
10
  6
CONTINUOUS
 62
   134
  5
1EE
 10
899550.674
 20
7269993.208
 30
0.0
 40
13.999
  1
4
 50
358.1364
  7
txt
 72
     4
 11
899555.913989
 21
7270000.041209
 31
0.0
210
0.0
220
0.0
230
1.0
  0
TEXT
  8
10
  6
CONTINUOUS
 62
   134
  5
1EF
 10
899547.102
 20
7269873.26
 30
0.0
 40
13.999
  1
5
 50
358.1364
  7
txt
 72
     4
 11
899552.011164
 21
7269880.103973
 31
0.0
210
0.0
220
0.0
230
1.0
  0
TEXT
  8
10
  6
CONTINUOUS
 62
   134
  5
1F0
 10
899543.53
 20
7269753.313
 30
0.0
 40
13.999
  1
6
 50
358.1364
  7
txt
 72
     4
 11
899548.109339
 21
7269760.167705
 31
0.0
210
0.0
220
0.0
230
1.0
  0
TEXT
  8
10
  6
CONTINUOUS
 62
   134
  5
1F1
 10
899539.242
 20
7269633.389
 30
0.0
 40
13.999
  1
7
 50
358.1364
  7
txt
 72
     4
 11
899544.206135
 21
7269640.231184
 31
0.0
210
0.0
220
0.0
230
1.0
  0
TEXT
  8
10
  6
CONTINUOUS
 62
   134
  5
1F2
 10
899192.087
 20
7269644.685
 30
0.0
 40
13.999
  1
8
 50
358.1364
  7
txt
 72
     4
 11
899196.996164
 21
7269651.528973
 31
0.0
210
0.0
220
0.0
230
1.0
  0
TEXT
  8
10
  6
CONTINUOUS
 62
   134
  5
1F3
 10
899196.318
 20
7269764.611
 30
0.0
 40
13.999
  1
9
 50
358.1364
  7
txt
 72
     4
 11
899200.897339
 21
7269771.465705
 31
0.0
210
0.0
220
0.0
230
1.0
  0
TEXT
  8
10
  6
CONTINUOUS
 62
   134
  5
1F4
 10
899195.429
 20
7269884.703
 30
0.0
 40
13.999
  1
10
 50
358.1364
  7
txt
 72
     4
 11
899204.799803
 21
7269891.401803
 31
0.0
210
0.0
220
0.0
230
1.0
  0
TEXT
  8
10
  6
CONTINUOUS
 62
   134
  5
1F5
 10
899201.756
 20
7270004.561
 30
0.0
 40
13.999
  1
11
 50
358.1364
  7
txt
 72
     4
 11
899208.703086
 21
7270011.338664
 31
0.0
210
0.0
220
0.0
230
1.0
  0
TEXT
  8
10
  6
CONTINUOUS
 62
   134
  5
1F6
 10
899203.178
 20
7270124.577
 30
0.0
 40
13.999
  1
12
 50
358.1364
  7
txt
 72
     4
 11
899212.604773
 21
7270131.273981
 31
0.0
210
0.0
220
0.0
230
1.0
  0
TEXT
  8
10
  6
CONTINUOUS
 62
   134
  5
1F7
 10
899207.08
 20
7270244.515
 30
0.0
 40
13.999
  1
13
 50
358.1364
  7
txt
 72
     4
 11
899216.506773
 21
7270251.211981
 31
0.0
210
0.0
220
0.0
230
1.0
  0
TEXT
  8
10
  6
CONTINUOUS
 62
   134
  5
1F8
 10
898817.795
 20
7270257.181
 30
0.0
 40
13.999
  1
14
 50
358.1364
  7
txt
 72
     4
 11
898827.551599
 21
7270263.86725
 31
0.0
210
0.0
220
0.0
230
1.0
  0
TEXT
  8
10
  6
CONTINUOUS
 62
   134
  5
1F9
 10
898814.224
 20
7270137.233
 30
0.0
 40
13.999
  1
15
 50
358.1364
  7
txt
 72
     4
 11
898823.650773
 21
7270143.929981
 31
0.0
210
0.0
220
0.0
230
1.0
  0
TEXT
  8
10
  6
CONTINUOUS
 62
   134
  5
1FA
 10
898810.652
 20
7270017.286
 30
0.0
 40
13.999
  1
16
 50
358.1364
  7
txt
 72
     4
 11
898819.747948
 21
7270023.993746
 31
0.0
210
0.0
220
0.0
230
1.0
  0
TEXT
  8
10
  6
CONTINUOUS
 62
   134
  5
1FB
 10
898806.364
 20
7269897.363
 30
0.0
 40
13.999
  1
17
 50
358.1364
  7
txt
 72
     4
 11
898815.844745
 21
7269904.058225
 31
0.0
210
0.0
220
0.0
230
1.0
  0
TEXT
  8
10
  6
CONTINUOUS
 62
   134
  5
1FC
 10
898802.516
 20
7269777.423
 30
0.0
 40
13.999
  1
18
 50
358.1364
  7
txt
 72
     4
 11
898811.942773
 21
7269784.119981
 31
0.0
210
0.0
220
0.0
230
1.0
  0
TEXT
  8
10
  6
CONTINUOUS
 62
   134
  5
1FD
 10
898799.106
 20
7269662.474
 30
0.0
 40
13.999
  1
19
 50
358.1364
  7
txt
 72
     4
 11
898808.201948
 21
7269669.181746
 31
0.0
210
0.0
220
0.0
230
1.0
  0
TEXT
  8
10
  6
CONTINUOUS
 62
   134
  5
1FE
 10
898471.804
 20
7269673.124
 30
0.0
 40
13.999
  1
20
 50
358.1364
  7
txt
 72
     4
 11
898483.653491
 21
7269679.742152
 31
0.0
210
0.0
220
0.0
230
1.0
  0
TEXT
  8
10
  6
CONTINUOUS
 62
   134
  5
1FF
 10
898477.967
 20
7269787.984
 30
0.0
 40
13.999
  1
21
 50
358.1364
  7
txt
 72
     4
 11
898487.393773
 21
7269794.680981
 31
0.0
210
0.0
220
0.0
230
1.0
  0
TEXT
  8
10
  6
CONTINUOUS
 62
   134
  5
200
 10
898479.39
 20
7269908.001
 30
0.0
 40
13.999
  1
22
 50
358.1364
  7
txt
 72
     4
 11
898491.295462
 21
7269914.617331
 31
0.0
210
0.0
220
0.0
230
1.0
  0
TEXT
  8
10
  6
CONTINUOUS
 62
   134
  5
201
 10
898483.293
 20
7270027.937
 30
0.0
 40
13.999
  1
23
 50
358.1364
  7
txt
 72
     4
 11
898495.198462
 21
7270034.553331
 31
0.0
210
0.0
220
0.0
230
1.0
  0
TEXT
  8
10
  6
CONTINUOUS
 62
   134
  5
202
 10
898486.865
 20
7270147.885
 30
0.0
 40
13.999
  1
24
 50
358.1364
  7
txt
 72
     4
 11
898499.100287
 21
7270154.4906
 31
0.0
210
0.0
220
0.0
230
1.0
  0
TEXT
  8
10
  6
CONTINUOUS
 62
   134
  5
203
 10
898491.098
 20
7270267.81
 30
0.0
 40
13.999
  1
25
 50
358.1364
  7
txt
 72
     4
 11
898503.003462
 21
7270274.426331
 31
0.0
210
0.0
220
0.0
230
1.0
  0
TEXT
  8
10
  6
CONTINUOUS
 62
   134
  5
204
 10
898104.195
 20
7270280.399
 30
0.0
 40
13.999
  1
26
 50
358.1364
  7
txt
 72
     4
 11
898115.770636
 21
7270287.026063
 31
0.0
210
0.0
220
0.0
230
1.0
  0
TEXT
  8
10
  6
CONTINUOUS
 62
   134
  5
205
 10
898099.908
 20
7270160.475
 30
0.0
 40
13.999
  1
27
 50
358.1364
  7
txt
 72
     4
 11
898111.867433
 21
7270167.089575
 31
0.0
210
0.0
220
0.0
230
1.0
  0
TEXT
  8
10
  6
CONTINUOUS
 62
   134
  5
206
 10
898096.06
 20
7270040.538
 30
0.0
 40
13.999
  1
28
 50
358.1364
  7
txt
 72
     4
 11
898107.965462
 21
7270047.154331
 31
0.0
210
0.0
220
0.0
230
1.0
  0
TEXT
  8
10
  6
CONTINUOUS
 62
   134
  5
207
 10
898092.487
 20
7269920.59
 30
0.0
 40
13.999
  1
29
 50
358.1364
  7
txt
 72
     4
 11
898104.062636
 21
7269927.217063
 31
0.0
210
0.0
220
0.0
230
1.0
  0
TEXT
  8
10
  6
CONTINUOUS
 62
   134
  5
208
 10
898088.311
 20
7269800.662
 30
0.0
 40
13.999
  1
30
 50
358.1364
  7
txt
 72
     4
 11
898100.160491
 21
7269807.280152
 31
0.0
210
0.0
220
0.0
230
1.0
  0
TEXT
  8
10
  6
CONTINUOUS
 62
   134
  5
209
 10
898086.994
 20
7269685.645
 30
0.0
 40
13.999
  1
31
 50
358.1364
  7
txt
 72
     4
 11
898096.420773
 21
7269692.341981
 31
0.0
210
0.0
220
0.0
230
1.0
  0
TEXT
  8
10
  6
CONTINUOUS
 62
   134
  5
20A
 10
897751.881
 20
7269696.547
 30
0.0
 40
13.999
  1
32
 50
358.1364
  7
txt
 72
     4
 11
897763.786462
 21
7269703.163331
 31
0.0
210
0.0
220
0.0
230
1.0
  0
TEXT
  8
10
  6
CONTINUOUS
 62
   134
  5
20B
 10
897755.62
 20
7269811.488
 30
0.0
 40
13.999
  1
33
 50
358.1364
  7
txt
 72
     4
 11
897767.525462
 21
7269818.104331
 31
0.0
210
0.0
220
0.0
230
1.0
  0
TEXT
  8
10
  6
CONTINUOUS
 62
   134
  5
20C
 10
897759.194
 20
7269931.435
 30
0.0
 40
13.999
  1
34
 50
358.1364
  7
txt
 72
     4
 11
897771.429287
 21
7269938.0406
 31
0.0
210
0.0
220
0.0
230
1.0
  0
TEXT
  8
10
  6
CONTINUOUS
 62
   134
  5
20D
 10
897763.426
 20
7270051.36
 30
0.0
 40
13.999
  1
35
 50
358.1364
  7
txt
 72
     4
 11
897775.331462
 21
7270057.976331
 31
0.0
210
0.0
220
0.0
230
1.0
  0
TEXT
  8
10
  6
CONTINUOUS
 62
   134
  5
20E
 10
897767.658
 20
7270171.286
 30
0.0
 40
13.999
  1
36
 50
358.1364
  7
txt
 72
     4
 11
897779.233636
 21
7270177.913063
 31
0.0
210
0.0
220
0.0
230
1.0
  0
TEXT
  8
10
  6
CONTINUOUS
 62
   134
  5
20F
 10
897771.177
 20
7270291.235
 30
0.0
 40
13.999
  1
37
 50
358.1364
  7
txt
 72
     4
 11
897783.136433
 21
7270297.849575
 31
0.0
210
0.0
220
0.0
230
1.0
  0
TEXT
  8
10
  6
CONTINUOUS
 62
   134
  5
210
 10
897366.914
 20
7270370.608
 30
0.0
 40
13.999
  1
38
 50
358.1364
  7
txt
 72
     4
 11
897378.819462
 21
7270377.224331
 31
0.0
210
0.0
220
0.0
230
1.0
  0
TEXT
  8
10
  6
CONTINUOUS
 62
   134
  5
211
 10
897363.619
 20
7270259.226
 30
0.0
 40
13.999
  1
39
 50
358.1364
  7
txt
 72
     4
 11
897375.194636
 21
7270265.853063
 31
0.0
210
0.0
220
0.0
230
1.0
  0
TEXT
  8
10
  6
CONTINUOUS
 62
   134
  5
212
 10
897359.391
 20
7270147.875
 30
0.0
 40
13.999
  1
40
 50
358.1364
  7
txt
 72
     4
 11
897371.571316
 21
7270154.482388
 31
0.0
210
0.0
220
0.0
230
1.0
  0
TEXT
  8
10
  6
CONTINUOUS
 62
   134
  5
213
 10
897358.191
 20
7270036.425
 30
0.0
 40
13.999
  1
41
 50
358.1364
  7
txt
 72
     4
 11
897367.947599
 21
7270043.11125
 31
0.0
210
0.0
220
0.0
230
1.0
  0
TEXT
  8
10
  6
CONTINUOUS
 62
   134
  5
214
 10
897352.089
 20
7269925.136
 30
0.0
 40
13.999
  1
42
 50
358.1364
  7
txt
 72
     4
 11
897364.324287
 21
7269931.7416
 31
0.0
210
0.0
220
0.0
230
1.0
  0
TEXT
  8
10
  6
CONTINUOUS
 62
   134
  5
215
 10
897348.465
 20
7269813.765
 30
0.0
 40
13.999
  1
43
 50
358.1364
  7
txt
 72
     4
 11
897360.700287
 21
7269820.3706
 31
0.0
210
0.0
220
0.0
230
1.0
  0
TEXT
  8
10
  6
CONTINUOUS
 62
   134
  5
216
 10
897344.51
 20
7269702.403
 30
0.0
 40
13.999
  1
44
 50
358.1364
  7
txt
 72
     4
 11
897357.077111
 21
7269708.997803
 31
0.0
210
0.0
220
0.0
230
1.0
  0
TEXT
  8
11
  6
CONTINUOUS
 62
     7
  5
217
 10
899734.898
 20
7270025.287
 30
0.0
 40
8.0
  1
40'
 50
88.1364
  7
txt
 72
     4
 11
899731.218651
 21
7270035.2069
 31
0.0
210
0.0
220
0.0
230
1.0
  0
TEXT
  8
11
  6
CONTINUOUS
 62
     7
  5
218
 10
899731.84
 20
7269955.968
 30
0.0
 40
8.0
  1
80.1'
 50
85.274039
  7
txt
 72
     1
 11
899733.010269
 21
7269970.123709
 31
0.0
210
0.0
220
0.0
230
1.0
  0
TEXT
  8
11
  6
CONTINUOUS
 62
     7
  5
219
 10
899723.319
 20
7269852.907
 30
0.0
 40
8.0
  1
120.15'
 50
85.274039
  7
txt
 72
     1
 11
899725.03156
 21
7269873.622331
 31
0.0
210
0.0
220
0.0
230
1.0
  0
TEXT
  8
11
  6
CONTINUOUS
 62
     7
  5
21A
 10
899736.215
 20
7269887.524
 30
0.0
 40
6.0
  1
N2%%d51'45"E
 50
85.274039
  7
txt
 72
     1
 11
899732.356285
 21
7269913.672822
 31
0.0
210
0.0
220
0.0
230
1.0
 73
     3
  0
LINE
  8
7
  6
CONTINUOUS
 62
     7
  5
21B
 10
899588.693
 20
7272981.665
 30
0.0
 11
899370.967
 21
7272988.698
 31
0.0
  0
LINE
  8
7
  6
CONTINUOUS
 62
     7
  5
21C
 10
899594.947
 20
7273171.562
 30
0.0
 11
899377.221
 21
7273178.594
 31
0.0
  0
LINE
  8
7
  6
CONTINUOUS
 62
     7
  5
21D
 10
899601.202
 20
7273361.459
 30
0.0
 11
899383.475
 21
7273368.492
 31
0.0
  0
LINE
  8
7
  6
CONTINUOUS
 62
     7
  5
21E
 10
899607.455
 20
7273551.357
 30
0.0
 11
899389.73
 21
7273558.388
 31
0.0
  0
LINE
  8
7
  6
CONTINUOUS
 62
     7
  5
21F
 10
899613.71
 20
7273741.253
 30
0.0
 11
899395.984
 21
7273748.286
 31
0.0
  0
LINE
  8
7
  6
CONTINUOUS
 62
     7
  5
220
 10
899619.965
 20
7273931.151
 30
0.0
 11
899402.237
 21
7273938.182
 31
0.0
  0
TEXT
  8
11
  6
CONTINUOUS
 62
     7
  5
221
 10
899455.51
 20
7272975.961
 30
0.0
 40
8.0
  1
217.83'
 50
358.1501
  7
txt
 72
     1
 11
899478.023645
 21
7272983.238024
 31
0.0
210
0.0
220
0.0
230
1.0
 73
     3
  0
TEXT
  8
11
  6
CONTINUOUS
 62
     7
  5
222
 10
899198.317
 20
7274750.19
 30
0.0
 40
8.0
  1
240'
 50
358.1501
  7
txt
 72
     1
 11
899212.36306
 21
7274757.740511
 31
0.0
210
0.0
220
0.0
230
1.0
 73
     3
  0
TEXT
  8
11
  6
CONTINUOUS
 62
     7
  5
223
 10
899088.559
 20
7274487.674
 30
0.0
 40
8.0
  1
536'
 50
88.1501
  7
txt
 72
     4
 11
899084.995203
 21
7274501.244116
 31
0.0
210
0.0
220
0.0
230
1.0
  0
TEXT
  8
11
  6
CONTINUOUS
 62
     7
  5
224
 10
899200.389
 20
7274225.85
 30
0.0
 40
8.0
  1
270.94'
 50
358.1501
  7
txt
 72
     1
 11
899224.028673
 21
7274225.086484
 31
0.0
210
0.0
220
0.0
230
1.0
  0
TEXT
  8
11
  6
CONTINUOUS
 62
     7
  5
225
 10
899450.142
 20
7274540.452
 30
0.0
 40
8.0
  1
309.83'
 50
358.1501
  7
txt
 72
     1
 11
899473.820038
 21
7274547.691417
 31
0.0
210
0.0
220
0.0
230
1.0
 73
     3
  0
TEXT
  8
11
  6
CONTINUOUS
 62
     7
  5
226
 10
899616.132
 20
7274544.993
 30
0.0
 40
8.0
  1
14.14'
 50
313.130044
  7
txt
 72
     1
 11
899633.726589
 21
7274537.912545
 31
0.0
210
0.0
220
0.0
230
1.0
 73
     3
  0
TEXT
  8
11
  6
CONTINUOUS
 62
     7
  5
227
 10
899632.623
 20
7274317.626
 30
0.0
 40
8.0
  1
414.56'
 50
88.1501
  7
txt
 72
     4
 11
899629.348959
 21
7274340.167438
 31
0.0
210
0.0
220
0.0
230
1.0
  0
TEXT
  8
11
  6
CONTINUOUS
 62
     7
  5
228
 10
899418.894
 20
7274129.185
 30
0.0
 40
8.0
  1
19.02'
 50
88.1501
  7
txt
 72
     4
 11
899415.477599
 21
7274147.318737
 31
0.0
210
0.0
220
0.0
230
1.0
  0
TEXT
  8
11
  6
CONTINUOUS
 62
     7
  5
229
 10
899496.565
 20
7274126.175
 30
0.0
 40
8.0
  1
217.83'
 50
358.1501
  7
txt
 72
     1
 11
899518.820395
 21
7274125.456194
 31
0.0
210
0.0
220
0.0
230
1.0
  0
TEXT
  8
11
  6
CONTINUOUS
 62
     7
  5
22A
 10
899414.239
 20
7274017.564
 30
0.0
 40
8.0
  1
188.94'
 50
88.1501
  7
txt
 72
     4
 11
899410.95889
 21
7274039.917536
 31
0.0
210
0.0
220
0.0
230
1.0
  0
TEXT
  8
11
  6
CONTINUOUS
 62
     7
  5
22B
 10
899409.059
 20
7273838.599
 30
0.0
 40
8.0
  1
190'
 50
88.1501
  7
txt
 72
     4
 11
899405.448427
 21
7273850.720871
 31
0.0
210
0.0
220
0.0
230
1.0
  0
TEXT
  8
11
  6
CONTINUOUS
 62
     7
  5
22C
 10
899402.897
 20
7273647.767
 30
0.0
 40
8.0
  1
190'
 50
88.1501
  7
txt
 72
     4
 11
899399.286427
 21
7273659.888871
 31
0.0
210
0.0
220
0.0
230
1.0
  0
TEXT
  8
11
  6
CONTINUOUS
 62
     7
  5
22D
 10
899396.568
 20
7273451.828
 30
0.0
 40
8.0
  1
190'
 50
88.1501
  7
txt
 72
     4
 11
899392.957427
 21
7273463.949871
 31
0.0
210
0.0
220
0.0
230
1.0
  0
TEXT
  8
11
  6
CONTINUOUS
 62
     7
  5
22E
 10
899384.571
 20
7273080.386
 30
0.0
 40
8.0
  1
190'
 50
88.1501
  7
txt
 72
     4
 11
899380.960427
 21
7273092.507871
 31
0.0
210
0.0
220
0.0
230
1.0
  0
TEXT
  8
11
  6
CONTINUOUS
 62
     7
  5
22F
 10
899390.666
 20
7273269.113
 30
0.0
 40
8.0
  1
190'
 50
88.1501
  7
txt
 72
     4
 11
899387.055427
 21
7273281.234871
 31
0.0
210
0.0
220
0.0
230
1.0
  0
TEXT
  8
11
  6
CONTINUOUS
 62
     7
  5
230
 10
899377.16
 20
7272869.543
 30
0.0
 40
8.0
  1
189.99'
 50
88.1501
  7
txt
 72
     4
 11
899373.861555
 21
7272891.328832
 31
0.0
210
0.0
220
0.0
230
1.0
  0
TEXT
  8
11
  6
CONTINUOUS
 62
     7
  5
231
 10
899447.925
 20
7272783.106
 30
0.0
 40
8.0
  1
202.83'
 50
358.1501
  7
txt
 72
     1
 11
899471.534689
 21
7272782.343453
 31
0.0
210
0.0
220
0.0
230
1.0
  0
TEXT
  8
11
  6
CONTINUOUS
 62
     7
  5
232
 10
899583.35
 20
7272870.95
 30
0.0
 40
8.0
  1
205'
 50
88.1501
  7
txt
 72
     4
 11
899579.791303
 21
7272884.678034
 31
0.0
210
0.0
220
0.0
230
1.0
  0
TEXT
  8
10
  6
CONTINUOUS
 62
   134
  5
233
 10
899467.954
 20
7272880.122
 30
0.0
 40
13.999
  1
17
 50
358.1501
  7
txt
 72
     4
 11
899477.433144
 21
7272886.819492
 31
0.0
210
0.0
220
0.0
230
1.0
  0
TEXT
  8
10
  6
CONTINUOUS
 62
   134
  5
234
 10
899474.142
 20
7273070.022
 30
0.0
 40
13.999
  1
18
 50
358.1501
  7
txt
 72
     4
 11
899483.567172
 21
7273076.721235
 31
0.0
210
0.0
220
0.0
230
1.0
  0
TEXT
  8
10
  6
CONTINUOUS
 62
   134
  5
235
 10
899480.606
 20
7273259.912
 30
0.0
 40
13.999
  1
19
 50
358.1501
  7
txt
 72
     4
 11
899489.700344
 21
7273266.62192
 31
0.0
210
0.0
220
0.0
230
1.0
  0
TEXT
  8
10
  6
CONTINUOUS
 62
   134
  5
236
 10
899483.986
 20
7273449.902
 30
0.0
 40
13.999
  1
20
 50
358.1501
  7
txt
 72
     4
 11
899495.833908
 21
7273456.522986
 31
0.0
210
0.0
220
0.0
230
1.0
  0
TEXT
  8
10
  6
CONTINUOUS
 62
   134
  5
237
 10
899492.542
 20
7273639.725
 30
0.0
 40
13.999
  1
21
 50
358.1501
  7
txt
 72
     4
 11
899501.967172
 21
7273646.424235
 31
0.0
210
0.0
220
0.0
230
1.0
  0
TEXT
  8
10
  6
CONTINUOUS
 62
   134
  5
238
 10
899496.197
 20
7273829.706
 30
0.0
 40
13.999
  1
22
 50
358.1501
  7
txt
 72
     4
 11
899508.100879
 21
7273836.325178
 31
0.0
210
0.0
220
0.0
230
1.0
  0
TEXT
  8
10
  6
CONTINUOUS
 62
   134
  5
239
 10
899502.33
 20
7274019.606
 30
0.0
 40
13.999
  1
23
 50
358.1501
  7
txt
 72
     4
 11
899514.233879
 21
7274026.225178
 31
0.0
210
0.0
220
0.0
230
1.0
  0
TEXT
  8
10
  6
CONTINUOUS
 62
   134
  5
23A
 10
899360.145
 20
7274394.843
 30
0.0
 40
13.999
  1
24
 50
358.1501
  7
txt
 72
     4
 11
899372.378707
 21
7274401.451525
 31
0.0
210
0.0
220
0.0
230
1.0
  0
LINE
  8
7
  6
CONTINUOUS
 62
     7
  5
23B
 10
899626.184
 20
7274119.988
 30
0.0
 11
899408.457
 21
7274127.021
 31
0.0
  0
LINE
  8
6
  6
CONTINUOUS
 62
     7
  5
23C
 10
899069.609
 20
7274228.074
 30
0.0
 11
899340.407
 21
7274219.327
 31
0.0
  0
ARC
  8
6
  6
CONTINUOUS
 62
     7
  5
23D
 10
899338.121225
 20
7274148.363715
 30
0.0
 40
71.0
 50
358.116208
 51
88.154953
210
0.0
220
0.0
230
1.0
  0
LINE
  8
6
  6
CONTINUOUS
 62
     7
  5
23E
 10
899364.713
 20
7272798.81
 30
0.0
 11
899409.083
 21
7274146.03
 31
0.0
  0
LINE
  8
6
  6
CONTINUOUS
 62
     7
  5
23F
 10
899639.829
 20
7274534.323
 30
0.0
 11
899581.946
 21
7272776.775
 31
0.0
  0
LINE
  8
6
  6
CONTINUOUS
 62
     7
  5
240
 10
899320.493
 20
7274554.645
 30
0.0
 11
899630.162
 21
7274544.643
 31
0.0
  0
LINE
  8
6
  6
CONTINUOUS
 62
     7
  5
241
 10
899630.162
 20
7274544.643
 30
0.0
 11
899639.829
 21
7274534.323
 31
0.0
  0
LINE
  8
6
  6
CONTINUOUS
 62
     7
  5
242
 10
899327.126
 20
7274756.036
 30
0.0
 11
899320.493
 21
7274554.645
 31
0.0
  0
LINE
  8
6
  6
CONTINUOUS
 62
     7
  5
243
 10
899327.126
 20
7274756.036
 30
0.0
 11
899087.251
 21
7274763.783
 31
0.0
  0
LINE
  8
6
  6
CONTINUOUS
 62
     7
  5
244
 10
899087.251
 20
7274763.783
 30
0.0
 11
899069.609
 21
7274228.074
 31
0.0
  0
ARC
  8
6
  6
CONTINUOUS
 62
     7
  5
245
 10
899379.705666
 20
7272798.315706
 30
0.0
 40
15.0
 50
178.111903
 51
268.1501
210
0.0
220
0.0
230
1.0
  0
LINE
  8
6
  6
CONTINUOUS
 62
     7
  5
246
 10
899581.946
 20
7272776.775
 30
0.0
 11
899379.221
 21
7272783.324
 31
0.0
  0
TEXT
  8
11
  6
CONTINUOUS
 62
     7
  5
247
 10
899351.003
 20
7274556.104
 30
0.0
 40
8.0
  1
20'
 50
88.1501
  7
txt
 72
     4
 11
899347.315178
 21
7274565.834119
 31
0.0
210
0.0
220
0.0
230
1.0
  0
TEXT
  8
11
  6
CONTINUOUS
 62
     7
  5
248
 10
899328.466
 20
7274745.355
 30
0.0
 40
8.0
  1
20'
 50
358.1501
  7
txt
 72
     4
 11
899338.196119
 21
7274749.042822
 31
0.0
210
0.0
220
0.0
230
1.0
  0
TEXT
  8
11
  6
CONTINUOUS
 62
     7
  5
249
 10
899639.105
 20
7274546.8
 30
0.0
 40
8.0
  1
20'
 50
88.1501
  7
txt
 72
     4
 11
899635.417178
 21
7274556.530119
 31
0.0
210
0.0
220
0.0
230
1.0
  0
TEXT
  8
11
  6
CONTINUOUS
 62
     7
  5
24A
 10
899641.142
 20
7274514.586
 30
0.0
 40
8.0
  1
20'
 50
358.1501
  7
txt
 72
     4
 11
899650.872119
 21
7274518.273822
 31
0.0
210
0.0
220
0.0
230
1.0
  0
TEXT
  8
11
  6
CONTINUOUS
 62
     7
  5
24B
 10
899619.337
 20
7273839.438
 30
0.0
 40
8.0
  1
20'
 50
358.1501
  7
txt
 72
     4
 11
899629.067119
 21
7273843.125822
 31
0.0
210
0.0
220
0.0
230
1.0
  0
TEXT
  8
11
  6
CONTINUOUS
 62
     7
  5
24C
 10
899281.494
 20
7274759.802
 30
0.0
 40
8.0
  1
15'
 50
88.1501
  7
txt
 72
     4
 11
899277.761436
 21
7274768.146841
 31
0.0
210
0.0
220
0.0
230
1.0
  0
LINE
  8
6
  6
CONTINUOUS
 62
     7
  5
24D
 10
899660.855
 20
7274565.163
 30
0.0
 11
899601.935
 21
7272776.129
 31
0.0
  0
LINE
  8
6
  6
CONTINUOUS
 62
     7
  5
24E
 10
899636.909
 20
7273838.057
 30
0.0
 11
899876.87
 21
7273830.306
 31
0.0
  0
LINE
  8
6
  6
CONTINUOUS
 62
     7
  5
24F
 10
899861.702
 20
7273830.796
 30
0.0
 11
899827.222
 21
7272783.864
 31
0.0
  0
ARC
  8
6
  6
CONTINUOUS
 62
     7
  5
250
 10
899812.230127
 20
7272784.346001
 30
0.0
 40
15.0
 50
268.1501
 51
358.157739
210
0.0
220
0.0
230
1.0
  0
LINE
  8
6
  6
CONTINUOUS
 62
     7
  5
251
 10
899601.935
 20
7272776.129
 30
0.0
 11
899811.746
 21
7272769.353
 31
0.0
  0
LINE
  8
7
  6
CONTINUOUS
 62
     7
  5
252
 10
899609.325
 20
7273000.509
 30
0.0
 11
899834.118
 21
7272993.248
 31
0.0
  0
LINE
  8
7
  6
CONTINUOUS
 62
     7
  5
253
 10
899616.221
 20
7273209.895
 30
0.0
 11
899841.014
 21
7273202.635
 31
0.0
  0
LINE
  8
7
  6
CONTINUOUS
 62
     7
  5
254
 10
899623.117
 20
7273419.282
 30
0.0
 11
899847.91
 21
7273412.022
 31
0.0
  0
LINE
  8
7
  6
CONTINUOUS
 62
     7
  5
255
 10
899630.013
 20
7273628.668
 30
0.0
 11
899854.805
 21
7273621.408
 31
0.0
  0
TEXT
  8
10
  6
CONTINUOUS
 62
   134
  5
256
 10
899713.988
 20
7272884.05
 30
0.0
 40
13.999
  1
12
 50
358.1501
  7
txt
 72
     4
 11
899723.413172
 21
7272890.749235
 31
0.0
210
0.0
220
0.0
230
1.0
  0
TEXT
  8
10
  6
CONTINUOUS
 62
   134
  5
257
 10
899720.937
 20
7273099.234
 30
0.0
 40
13.999
  1
13
 50
358.1501
  7
txt
 72
     4
 11
899730.362172
 21
7273105.933235
 31
0.0
210
0.0
220
0.0
230
1.0
  0
TEXT
  8
10
  6
CONTINUOUS
 62
   134
  5
258
 10
899727.208
 20
7273303.61
 30
0.0
 40
13.999
  1
14
 50
358.1501
  7
txt
 72
     4
 11
899736.963
 21
7273310.298582
 31
0.0
210
0.0
220
0.0
230
1.0
  0
TEXT
  8
10
  6
CONTINUOUS
 62
   134
  5
259
 10
899734.45
 20
7273517.582
 30
0.0
 40
13.999
  1
15
 50
358.1501
  7
txt
 72
     4
 11
899743.875172
 21
7273524.281235
 31
0.0
210
0.0
220
0.0
230
1.0
  0
TEXT
  8
10
  6
CONTINUOUS
 62
   134
  5
25A
 10
899742.777
 20
7273727.908
 30
0.0
 40
13.999
  1
16
 50
358.1501
  7
txt
 72
     4
 11
899751.871344
 21
7273734.61792
 31
0.0
210
0.0
220
0.0
230
1.0
  0
TEXT
  8
11
  6
CONTINUOUS
 62
     7
  5
25B
 10
899855.466
 20
7273708.22
 30
0.0
 40
8.0
  1
209.5'
 50
88.1501
  7
txt
 72
     4
 11
899852.095374
 21
7273727.770997
 31
0.0
210
0.0
220
0.0
230
1.0
  0
TEXT
  8
11
  6
CONTINUOUS
 62
     7
  5
25C
 10
899848.711
 20
7273499.047
 30
0.0
 40
8.0
  1
209.5'
 50
88.1501
  7
txt
 72
     4
 11
899845.340374
 21
7273518.597997
 31
0.0
210
0.0
220
0.0
230
1.0
  0
TEXT
  8
11
  6
CONTINUOUS
 62
     7
  5
25D
 10
899841.877
 20
7273287.468
 30
0.0
 40
8.0
  1
209.5'
 50
88.1501
  7
txt
 72
     4
 11
899838.506374
 21
7273307.018997
 31
0.0
210
0.0
220
0.0
230
1.0
  0
TEXT
  8
11
  6
CONTINUOUS
 62
     7
  5
25E
 10
899835.199
 20
7273080.699
 30
0.0
 40
8.0
  1
209.5'
 50
88.1501
  7
txt
 72
     4
 11
899831.828374
 21
7273100.249997
 31
0.0
210
0.0
220
0.0
230
1.0
  0
TEXT
  8
11
  6
CONTINUOUS
 62
     7
  5
25F
 10
899828.132
 20
7272861.908
 30
0.0
 40
8.0
  1
209.5'
 50
88.1501
  7
txt
 72
     4
 11
899824.761374
 21
7272881.458997
 31
0.0
210
0.0
220
0.0
230
1.0
  0
TEXT
  8
11
  6
CONTINUOUS
 62
     7
  5
260
 10
899616.44
 20
7272871.946
 30
0.0
 40
8.0
  1
224.5'
 50
88.1501
  7
txt
 72
     4
 11
899613.082609
 21
7272891.906784
 31
0.0
210
0.0
220
0.0
230
1.0
  0
TEXT
  8
11
  6
CONTINUOUS
 62
     7
  5
261
 10
899702.487
 20
7272987.495
 30
0.0
 40
8.0
  1
224.91'
 50
358.1501
  7
txt
 72
     1
 11
899724.969661
 21
7272994.773025
 31
0.0
210
0.0
220
0.0
230
1.0
 73
     3
  0
TEXT
  8
11
  6
CONTINUOUS
 62
     7
  5
262
 10
899731.943
 20
7273824.981
 30
0.0
 40
8.0
  1
224.91'
 50
358.1501
  7
txt
 72
     1
 11
899754.425661
 21
7273832.259025
 31
0.0
210
0.0
220
0.0
230
1.0
 73
     3
  0
TEXT
  8
11
  6
CONTINUOUS
 62
     7
  5
263
 10
899861.751
 20
7273820.785
 30
0.0
 40
8.0
  1
15'
 50
358.1501
  7
txt
 72
     4
 11
899870.095841
 21
7273824.517564
 31
0.0
210
0.0
220
0.0
230
1.0
  0
TEXT
  8
11
  6
CONTINUOUS
 62
     7
  5
264
 10
899828.234
 20
7272783.029
 30
0.0
 40
8.0
  1
15'
 50
358.1501
  7
txt
 72
     4
 11
899836.578841
 21
7272786.761564
 31
0.0
210
0.0
220
0.0
230
1.0
  0
TEXT
  8
11
  6
CONTINUOUS
 62
     7
  5
265
 10
899584.114
 20
7272776.84
 30
0.0
 40
8.0
  1
20'
 50
358.1501
  7
txt
 72
     4
 11
899593.844119
 21
7272780.527822
 31
0.0
210
0.0
220
0.0
230
1.0
  0
LINE
  8
6
  6
CONTINUOUS
 62
     7
  5
266
 10
898926.84
 20
7274753.966
 30
0.0
 11
898910.185
 21
7274248.24
 31
0.0
  0
ARC
  8
6
  6
CONTINUOUS
 62
     7
  5
267
 10
898925.177623
 20
7274247.74584
 30
0.0
 40
15.0
 50
178.113803
 51
268.1501
210
0.0
220
0.0
230
1.0
  0
LINE
  8
6
  6
CONTINUOUS
 62
     7
  5
268
 10
899049.618
 20
7274228.719
 30
0.0
 11
898924.693
 21
7274232.753
 31
0.0
  0
LINE
  8
6
  6
CONTINUOUS
 62
     7
  5
269
 10
899067.261
 20
7274764.429
 30
0.0
 11
898942.317
 21
7274768.464
 31
0.0
  0
ARC
  8
6
  6
CONTINUOUS
 62
     7
  5
26A
 10
898941.832799
 20
7274753.471762
 30
0.0
 40
15.0
 50
88.1501
 51
178.11375
210
0.0
220
0.0
230
1.0
  0
LINE
  8
7
  6
CONTINUOUS
 62
     7
  5
26B
 10
899058.21
 20
7274489.578
 30
0.0
 11
898918.281
 21
7274494.096
 31
0.0
  0
TEXT
  8
11
  6
CONTINUOUS
 62
     7
  5
26C
 10
898978.94
 20
7274757.276
 30
0.0
 40
8.0
  1
125.01'
 50
358.1501
  7
txt
 72
     1
 11
898999.973417
 21
7274764.600833
 31
0.0
210
0.0
220
0.0
230
1.0
 73
     3
  0
TEXT
  8
11
  6
CONTINUOUS
 62
     7
  5
26D
 10
898932.804
 20
7274608.456
 30
0.0
 40
8.0
  1
260.01'
 50
88.1501
  7
txt
 72
     4
 11
898929.515723
 21
7274630.556668
 31
0.0
210
0.0
220
0.0
230
1.0
  0
TEXT
  8
11
  6
CONTINUOUS
 62
     7
  5
26E
 10
898979.783
 20
7274494.111
 30
0.0
 40
8.0
  1
140'
 50
358.1501
  7
txt
 72
     1
 11
898992.154549
 21
7274493.711423
 31
0.0
210
0.0
220
0.0
230
1.0
  0
LINE
  8
6
  6
CONTINUOUS
 62
     7
  5
26F
 10
899067.261
 20
7274764.429
 30
0.0
 11
899049.618
 21
7274228.719
 31
0.0
  0
TEXT
  8
11
  6
CONTINUOUS
 62
     7
  5
270
 10
899061.558
 20
7274615.412
 30
0.0
 40
8.0
  1
275'
 50
88.1501
  7
txt
 72
     4
 11
899058.001337
 21
7274629.203001
 31
0.0
210
0.0
220
0.0
230
1.0
  0
TEXT
  8
10
  6
CONTINUOUS
 62
   134
  5
271
 10
898980.88
 20
7274621.896
 30
0.0
 40
13.999
  1
25
 50
358.1501
  7
txt
 72
     4
 11
898992.783879
 21
7274628.515178
 31
0.0
210
0.0
220
0.0
230
1.0
  0
TEXT
  8
10
  6
CONTINUOUS
 62
   134
  5
272
 10
898972.793
 20
7274361.27
 30
0.0
 40
13.999
  1
26
 50
358.1501
  7
txt
 72
     4
 11
898984.367051
 21
7274367.899831
 31
0.0
210
0.0
220
0.0
230
1.0
  0
TEXT
  8
11
  6
CONTINUOUS
 62
     7
  5
273
 10
898924.458
 20
7274350.085
 30
0.0
 40
8.0
  1
245.99'
 50
88.1501
  7
txt
 72
     4
 11
898921.217532
 21
7274373.665896
 31
0.0
210
0.0
220
0.0
230
1.0
  0
TEXT
  8
11
  6
CONTINUOUS
 62
     7
  5
274
 10
899052.452
 20
7274355.061
 30
0.0
 40
8.0
  1
261'
 50
88.1501
  7
txt
 72
     4
 11
899048.842428
 21
7274367.213855
 31
0.0
210
0.0
220
0.0
230
1.0
  0
TEXT
  8
11
  6
CONTINUOUS
 62
     7
  5
275
 10
898964.022
 20
7274233.485
 30
0.0
 40
8.0
  1
124.99'
 50
358.1501
  7
txt
 72
     1
 11
898986.05651
 21
7274232.773328
 31
0.0
210
0.0
220
0.0
230
1.0
  0
LINE
  8
6
  6
CONTINUOUS
 62
     7
  5
276
 10
899066.932
 20
7274754.434
 30
0.0
 11
898927.859
 21
7274758.926
 31
0.0
  0
POLYLINE
  8
21
  6
DASHDOT
 62
     7
  5
278
 66
     1
 10
0.0
 20
0.0
 30
0.0
  0
VERTEX
  8
21
  6
DASHDOT
 62
     7
  5
279
 10
898927.859
 20
7274758.926
 30
0.0
  0
VERTEX
  8
21
  6
DASHDOT
 62
     7
  5
27A
 10
899066.932
 20
7274754.434
 30
0.0
  0
VERTEX
  8
21
  6
DASHDOT
 62
     7
  5
27B
 10
899067.261
 20
7274764.429
 30
0.0
  0
VERTEX
  8
21
  6
DASHDOT
 62
     7
  5
27C
 10
898942.317
 20
7274768.464
 30
0.0
  0
VERTEX
  8
21
  6
DASHDOT
 62
     7
  5
27D
 10
898942.316531
 20
7274768.46396
 30
0.0
 42
0.317836
  0
VERTEX
  8
21
  6
DASHDOT
 62
     7
  5
27E
 10
898927.858971
 20
7274758.92574
 30
0.0
  0
SEQEND
  8
21
  6
DASHDOT
 62
     7
  5
27F
  0
POLYLINE
  8
21
  6
DASHDOT
 62
     7
  5
280
 66
     1
 10
0.0
 20
0.0
 30
0.0
 70
     1
  0
VERTEX
  8
21
  6
DASHDOT
 62
     7
  5
281
 10
899087.251
 20
7274763.783
 30
0.0
  0
VERTEX
  8
21
  6
DASHDOT
 62
     7
  5
282
 10
899327.126
 20
7274756.036
 30
0.0
  0
VERTEX
  8
21
  6
DASHDOT
 62
     7
  5
283
 10
899326.797
 20
7274746.04
 30
0.0
  0
VERTEX
  8
21
  6
DASHDOT
 62
     7
  5
284
 10
899086.922
 20
7274753.789
 30
0.0
  0
SEQEND
  8
21
  6
DASHDOT
 62
     7
  5
285
  0
TEXT
  8
22
  6
CONTINUOUS
 62
     3
  5
287
 10
899171.008
 20
7274743.689
 30
0.0
 40
6.0
  1
10' GAS LINE ESMT
 50
358.1501
  7
txt
 72
     4
 11
899214.968971
 21
7274745.27071
 31
0.0
210
0.0
220
0.0
230
1.0
  0
TEXT
  8
22
  6
CONTINUOUS
 62
     3
  5
288
 10
898953.635
 20
7274750.711
 30
0.0
 40
6.0
  1
10' GAS LINE ESMT
 50
358.1501
  7
txt
 72
     4
 11
898997.595971
 21
7274752.29271
 31
0.0
210
0.0
220
0.0
230
1.0
  0
TEXT
  8
13
  6
CONTINUOUS
 62
    14
  5
289
 10
898975.238
 20
7274743.374
 30
0.0
 40
6.0
  1
V1151 P57
 50
358.1501
  7
txt
 72
     4
 11
898997.385346
 21
7274745.660248
 31
0.0
210
0.0
220
0.0
230
1.0
  0
TEXT
  8
13
  6
CONTINUOUS
 62
    14
  5
28A
 10
899190.169
 20
7274736.432
 30
0.0
 40
6.0
  1
V1151 P57
 50
358.1501
  7
txt
 72
     4
 11
899212.316346
 21
7274738.718248
 31
0.0
210
0.0
220
0.0
230
1.0
  0
LINE
  8
6
  6
CONTINUOUS
 62
     7
  5
28B
 10
898851.878
 20
7274756.368
 30
0.0
 11
898835.224
 21
7274250.641
 31
0.0
  0
LINE
  8
7
  6
CONTINUOUS
 62
     7
  5
28C
 10
898641.448
 20
7274576.076
 30
0.0
 11
898845.724
 21
7274569.478
 31
0.0
  0
LINE
  8
7
  6
CONTINUOUS
 62
     7
  5
28D
 10
898634.77
 20
7274374.187
 30
0.0
 11
898839.075
 21
7274367.588
 31
0.0
  0
TEXT
  8
11
  6
CONTINUOUS
 62
     7
  5
28E
 10
898725.69
 20
7274765.456
 30
0.0
 40
8.0
  1
189.34'
 50
358.1501
  7
txt
 72
     1
 11
898748.172661
 21
7274772.734025
 31
0.0
210
0.0
220
0.0
230
1.0
 73
     3
  0
TEXT
  8
11
  6
CONTINUOUS
 62
     7
  5
28F
 10
898845.013
 20
7274656.747
 30
0.0
 40
8.0
  1
186.99'
 50
88.1501
  7
txt
 72
     4
 11
898841.714555
 21
7274678.532832
 31
0.0
210
0.0
220
0.0
230
1.0
  0
TEXT
  8
10
  6
CONTINUOUS
 62
   134
  5
290
 10
898743.48
 20
7274664.925
 30
0.0
 40
13.999
  1
1
 50
358.1501
  7
txt
 72
     4
 11
898745.90882
 21
7274671.850204
 31
0.0
210
0.0
220
0.0
230
1.0
  0
TEXT
  8
11
  6
CONTINUOUS
 62
     7
  5
291
 10
898654.772
 20
7274669.736
 30
0.0
 40
8.0
  1
202'
 50
88.1501
  7
txt
 72
     4
 11
898651.213303
 21
7274683.464034
 31
0.0
210
0.0
220
0.0
230
1.0
  0
TEXT
  8
10
  6
CONTINUOUS
 62
   134
  5
292
 10
898734.494
 20
7274463.545
 30
0.0
 40
13.999
  1
2
 50
358.1501
  7
txt
 72
     4
 11
898739.401527
 21
7274470.390146
 31
0.0
210
0.0
220
0.0
230
1.0
  0
TEXT
  8
11
  6
CONTINUOUS
 62
     7
  5
293
 10
898717.596
 20
7274563.611
 30
0.0
 40
8.0
  1
204.38'
 50
358.1501
  7
txt
 72
     1
 11
898741.651841
 21
7274570.838214
 31
0.0
210
0.0
220
0.0
230
1.0
 73
     3
  0
TEXT
  8
11
  6
CONTINUOUS
 62
     7
  5
294
 10
898841.102
 20
7274462.051
 30
0.0
 40
8.0
  1
202'
 50
88.1501
  7
txt
 72
     4
 11
898837.543303
 21
7274475.779034
 31
0.0
210
0.0
220
0.0
230
1.0
  0
TEXT
  8
11
  6
CONTINUOUS
 62
     7
  5
295
 10
898709.862
 20
7274361.756
 30
0.0
 40
8.0
  1
204.41'
 50
358.1501
  7
txt
 72
     1
 11
898732.690481
 21
7274369.022856
 31
0.0
210
0.0
220
0.0
230
1.0
 73
     3
  0
TEXT
  8
11
  6
CONTINUOUS
 62
     7
  5
296
 10
898643.971
 20
7274297.473
 30
0.0
 40
8.0
  1
132'
 50
88.1501
  7
txt
 72
     4
 11
898640.367561
 21
7274309.815756
 31
0.0
210
0.0
220
0.0
230
1.0
  0
TEXT
  8
11
  6
CONTINUOUS
 62
     7
  5
297
 10
898703.704
 20
7274241.893
 30
0.0
 40
8.0
  1
189.44'
 50
358.1501
  7
txt
 72
     1
 11
898726.116313
 21
7274241.169126
 31
0.0
210
0.0
220
0.0
230
1.0
  0
TEXT
  8
11
  6
CONTINUOUS
 62
     7
  5
298
 10
898832.981
 20
7274284.184
 30
0.0
 40
8.0
  1
117.01'
 50
88.1501
  7
txt
 72
     4
 11
898829.609341
 21
7274303.703014
 31
0.0
210
0.0
220
0.0
230
1.0
  0
TEXT
  8
10
  6
CONTINUOUS
 62
   134
  5
299
 10
898729.17
 20
7274298.714
 30
0.0
 40
13.999
  1
3
 50
358.1501
  7
txt
 72
     4
 11
898734.077527
 21
7274305.559146
 31
0.0
210
0.0
220
0.0
230
1.0
  0
POLYLINE
  8
21
  6
DASHDOT
 62
     7
  5
29A
 66
     1
 10
0.0
 20
0.0
 30
0.0
  0
VERTEX
  8
21
  6
DASHDOT
 62
     7
  5
29B
 10
898851.184
 20
7274761.402
 30
0.0
  0
VERTEX
  8
21
  6
DASHDOT
 62
     7
  5
29C
 10
898647.797
 20
7274767.971
 30
0.0
  0
VERTEX
  8
21
  6
DASHDOT
 62
     7
  5
29D
 10
898648.128
 20
7274777.966
 30
0.0
  0
VERTEX
  8
21
  6
DASHDOT
 62
     7
  5
29E
 10
898837.372
 20
7274771.854
 30
0.0
  0
VERTEX
  8
21
  6
DASHDOT
 62
     7
  5
29F
 10
898837.371255
 20
7274771.85349
 30
0.0
 42
-0.317836
  0
VERTEX
  8
21
  6
DASHDOT
 62
     7
  5
2A0
 10
898851.183194
 20
7274761.40222
 30
0.0
  0
SEQEND
  8
21
  6
DASHDOT
 62
     7
  5
2A1
  0
TEXT
  8
22
  6
CONTINUOUS
 62
     3
  5
2A2
 10
898708.312
 20
7274758.633
 30
0.0
 40
6.0
  1
10' GAS LINE ESMT
 50
358.1501
  7
txt
 72
     4
 11
898752.272971
 21
7274760.21471
 31
0.0
210
0.0
220
0.0
230
1.0
  0
LINE
  8
6
  6
CONTINUOUS
 62
     7
  5
2A3
 10
898582.995
 20
7272809.041
 30
0.0
 11
898791.528
 21
7272802.305
 31
0.0
  0
LINE
  8
6
  6
CONTINUOUS
 62
     7
  5
2A4
 10
898628.422
 20
7274182.292
 30
0.0
 11
898582.995
 21
7272809.041
 31
0.0
  0
LINE
  8
6
  6
CONTINUOUS
 62
     7
  5
2A5
 10
899304.744
 20
7272800.727
 30
0.0
 11
899348.983
 21
7274144.001
 31
0.0
  0
ARC
  8
6
  6
CONTINUOUS
 62
     7
  5
2A6
 10
899333.991633
 20
7274144.495007
 30
0.0
 40
15.0
 50
358.113714
 51
88.1501
210
0.0
220
0.0
230
1.0
  0
LINE
  8
6
  6
CONTINUOUS
 62
     7
  5
2A7
 10
899334.476
 20
7274159.488
 30
0.0
 11
899140.587
 21
7274165.75
 31
0.0
  0
LINE
  8
6
  6
CONTINUOUS
 62
     7
  5
2A8
 10
899289.268
 20
7272786.229
 30
0.0
 11
899095.361
 21
7272792.491
 31
0.0
  0
LINE
  8
6
  6
CONTINUOUS
 62
     7
  5
2A9
 10
899095.361
 20
7272792.491
 30
0.0
 11
899140.587
 21
7274165.75
 31
0.0
  0
ARC
  8
6
  6
CONTINUOUS
 62
     7
  5
2AA
 10
899289.752538
 20
7272801.221019
 30
0.0
 40
15.0
 50
268.1501
 51
358.113733
210
0.0
220
0.0
230
1.0
  0
LINE
  8
7
  6
CONTINUOUS
 62
     7
  5
2AB
 10
899311.065
 20
7272992.632
 30
0.0
 11
899102.173
 21
7272999.38
 31
0.0
  0
LINE
  8
7
  6
CONTINUOUS
 62
     7
  5
2AC
 10
899317.385
 20
7273184.528
 30
0.0
 11
899108.493
 21
7273191.275
 31
0.0
  0
LINE
  8
7
  6
CONTINUOUS
 62
     7
  5
2AD
 10
899323.704
 20
7273376.425
 30
0.0
 11
899114.814
 21
7273383.172
 31
0.0
  0
LINE
  8
7
  6
CONTINUOUS
 62
     7
  5
2AE
 10
899330.023
 20
7273568.321
 30
0.0
 11
899121.134
 21
7273575.067
 31
0.0
  0
LINE
  8
7
  6
CONTINUOUS
 62
     7
  5
2AF
 10
899336.344
 20
7273760.218
 30
0.0
 11
899127.454
 21
7273766.964
 31
0.0
  0
LINE
  8
7
  6
CONTINUOUS
 62
     7
  5
2B0
 10
899342.663
 20
7273952.113
 30
0.0
 11
899133.773
 21
7273958.86
 31
0.0
  0
TEXT
  8
11
  6
CONTINUOUS
 62
     7
  5
2B1
 10
899223.962
 20
7274153.051
 30
0.0
 40
8.0
  1
193.99'
 50
358.1501
  7
txt
 72
     1
 11
899245.876957
 21
7274160.347361
 31
0.0
210
0.0
220
0.0
230
1.0
 73
     3
  0
TEXT
  8
11
  6
CONTINUOUS
 62
     7
  5
2B2
 10
899147.66
 20
7274055.854
 30
0.0
 40
8.0
  1
207'
 50
88.1501
  7
txt
 72
     4
 11
899144.102304
 21
7274069.613018
 31
0.0
210
0.0
220
0.0
230
1.0
  0
TEXT
  8
11
  6
CONTINUOUS
 62
     7
  5
2B3
 10
899344.382
 20
7274042.883
 30
0.0
 40
8.0
  1
191.99'
 50
88.1501
  7
txt
 72
     4
 11
899341.03778
 21
7274063.251571
 31
0.0
210
0.0
220
0.0
230
1.0
  0
TEXT
  8
11
  6
CONTINUOUS
 62
     7
  5
2B4
 10
899226.189
 20
7273957.876
 30
0.0
 40
8.0
  1
209'
 50
358.1501
  7
txt
 72
     1
 11
899239.598008
 21
7273957.442915
 31
0.0
210
0.0
220
0.0
230
1.0
  0
TEXT
  8
11
  6
CONTINUOUS
 62
     7
  5
2B5
 10
899338.114
 20
7273848.834
 30
0.0
 40
8.0
  1
192'
 50
88.1501
  7
txt
 72
     4
 11
899334.504428
 21
7273860.986855
 31
0.0
210
0.0
220
0.0
230
1.0
  0
TEXT
  8
11
  6
CONTINUOUS
 62
     7
  5
2B6
 10
899331.927
 20
7273657.242
 30
0.0
 40
8.0
  1
192'
 50
88.1501
  7
txt
 72
     4
 11
899328.317428
 21
7273669.394855
 31
0.0
210
0.0
220
0.0
230
1.0
  0
TEXT
  8
11
  6
CONTINUOUS
 62
     7
  5
2B7
 10
899325.438
 20
7273456.345
 30
0.0
 40
8.0
  1
192'
 50
88.1501
  7
txt
 72
     4
 11
899321.828428
 21
7273468.497855
 31
0.0
210
0.0
220
0.0
230
1.0
  0
TEXT
  8
11
  6
CONTINUOUS
 62
     7
  5
2B8
 10
899319.285
 20
7273265.849
 30
0.0
 40
8.0
  1
192'
 50
88.1501
  7
txt
 72
     4
 11
899315.675428
 21
7273278.001855
 31
0.0
210
0.0
220
0.0
230
1.0
  0
TEXT
  8
11
  6
CONTINUOUS
 62
     7
  5
2B9
 10
899313.133
 20
7273075.353
 30
0.0
 40
8.0
  1
192'
 50
88.1501
  7
txt
 72
     4
 11
899309.523428
 21
7273087.505855
 31
0.0
210
0.0
220
0.0
230
1.0
  0
TEXT
  8
11
  6
CONTINUOUS
 62
     7
  5
2BA
 10
899306.907
 20
7272882.591
 30
0.0
 40
8.0
  1
192.01'
 50
88.1501
  7
txt
 72
     4
 11
899303.573981
 21
7272903.30639
 31
0.0
210
0.0
220
0.0
230
1.0
  0
TEXT
  8
11
  6
CONTINUOUS
 62
     7
  5
2BB
 10
899108.555
 20
7272895.96
 30
0.0
 40
8.0
  1
207'
 50
88.1501
  7
txt
 72
     4
 11
899104.997304
 21
7272909.719018
 31
0.0
210
0.0
220
0.0
230
1.0
  0
TEXT
  8
11
  6
CONTINUOUS
 62
     7
  5
2BC
 10
899187.154
 20
7272986.629
 30
0.0
 40
8.0
  1
209'
 50
358.1501
  7
txt
 72
     1
 11
899200.821258
 21
7272994.191746
 31
0.0
210
0.0
220
0.0
230
1.0
 73
     3
  0
TEXT
  8
11
  6
CONTINUOUS
 62
     7
  5
2BD
 10
899178.69
 20
7272791.802
 30
0.0
 40
8.0
  1
194.01'
 50
358.1501
  7
txt
 72
     1
 11
899199.465167
 21
7272791.131002
 31
0.0
210
0.0
220
0.0
230
1.0
  0
LINE
  8
6
  6
CONTINUOUS
 62
     7
  5
2BE
 10
899075.372
 20
7272793.137
 30
0.0
 11
899120.597
 21
7274166.394
 31
0.0
  0
LINE
  8
6
  6
CONTINUOUS
 62
     7
  5
2BF
 10
899075.372
 20
7272793.137
 30
0.0
 11
898881.482
 21
7272799.4
 31
0.0
  0
LINE
  8
6
  6
CONTINUOUS
 62
     7
  5
2C0
 10
899120.597
 20
7274166.394
 30
0.0
 11
898926.687
 21
7274172.658
 31
0.0
  0
LINE
  8
6
  6
CONTINUOUS
 62
     7
  5
2C1
 10
898866.974
 20
7272814.886
 30
0.0
 11
898911.212
 21
7274158.159
 31
0.0
  0
ARC
  8
6
  6
CONTINUOUS
 62
     7
  5
2C2
 10
898926.204213
 20
7274157.665753
 30
0.0
 40
15.0
 50
88.1501
 51
178.113742
210
0.0
220
0.0
230
1.0
  0
ARC
  8
6
  6
CONTINUOUS
 62
     7
  5
2C3
 10
898881.965728
 20
7272814.391745
 30
0.0
 40
15.0
 50
178.113758
 51
268.1501
210
0.0
220
0.0
230
1.0
  0
LINE
  8
7
  6
CONTINUOUS
 62
     7
  5
2C4
 10
899082.184
 20
7273000.026
 30
0.0
 11
898873.294
 21
7273006.772
 31
0.0
  0
LINE
  8
7
  6
CONTINUOUS
 62
     7
  5
2C5
 10
899088.504
 20
7273191.921
 30
0.0
 11
898879.613
 21
7273198.668
 31
0.0
  0
LINE
  8
7
  6
CONTINUOUS
 62
     7
  5
2C6
 10
899094.825
 20
7273383.817
 30
0.0
 11
898885.933
 21
7273390.563
 31
0.0
  0
LINE
  8
7
  6
CONTINUOUS
 62
     7
  5
2C7
 10
899101.144
 20
7273575.713
 30
0.0
 11
898892.253
 21
7273582.46
 31
0.0
  0
LINE
  8
7
  6
CONTINUOUS
 62
     7
  5
2C8
 10
899107.463
 20
7273767.609
 30
0.0
 11
898898.573
 21
7273774.355
 31
0.0
  0
LINE
  8
7
  6
CONTINUOUS
 62
     7
  5
2C9
 10
899113.783
 20
7273959.505
 30
0.0
 11
898904.892
 21
7273966.252
 31
0.0
  0
TEXT
  8
11
  6
CONTINUOUS
 62
     7
  5
2CA
 10
898917.813
 20
7274052.513
 30
0.0
 40
8.0
  1
192.01'
 50
88.1501
  7
txt
 72
     4
 11
898914.479981
 21
7274073.22839
 31
0.0
210
0.0
220
0.0
230
1.0
  0
TEXT
  8
11
  6
CONTINUOUS
 62
     7
  5
2CB
 10
898995.599
 20
7273965.323
 30
0.0
 40
8.0
  1
209'
 50
358.1501
  7
txt
 72
     1
 11
899009.008008
 21
7273964.889915
 31
0.0
210
0.0
220
0.0
230
1.0
  0
TEXT
  8
11
  6
CONTINUOUS
 62
     7
  5
2CC
 10
898998.904
 20
7274160.32
 30
0.0
 40
8.0
  1
194.01'
 50
358.1501
  7
txt
 72
     1
 11
899019.937417
 21
7274167.644833
 31
0.0
210
0.0
220
0.0
230
1.0
 73
     3
  0
TEXT
  8
11
  6
CONTINUOUS
 62
     7
  5
2CD
 10
899115.529
 20
7274053.09
 30
0.0
 40
8.0
  1
207'
 50
88.1501
  7
txt
 72
     4
 11
899111.971304
 21
7274066.849018
 31
0.0
210
0.0
220
0.0
230
1.0
  0
TEXT
  8
11
  6
CONTINUOUS
 62
     7
  5
2CE
 10
898911.777
 20
7273865.644
 30
0.0
 40
8.0
  1
192'
 50
88.1501
  7
txt
 72
     4
 11
898908.167428
 21
7273877.796855
 31
0.0
210
0.0
220
0.0
230
1.0
  0
TEXT
  8
11
  6
CONTINUOUS
 62
     7
  5
2CF
 10
898905.455
 20
7273669.939
 30
0.0
 40
8.0
  1
192'
 50
88.1501
  7
txt
 72
     4
 11
898901.845428
 21
7273682.091855
 31
0.0
210
0.0
220
0.0
230
1.0
  0
TEXT
  8
11
  6
CONTINUOUS
 62
     7
  5
2D0
 10
898899.444
 20
7273483.813
 30
0.0
 40
8.0
  1
192'
 50
88.1501
  7
txt
 72
     4
 11
898895.834428
 21
7273495.965855
 31
0.0
210
0.0
220
0.0
230
1.0
  0
TEXT
  8
11
  6
CONTINUOUS
 62
     7
  5
2D1
 10
898893.22
 20
7273291.116
 30
0.0
 40
8.0
  1
192'
 50
88.1501
  7
txt
 72
     4
 11
898889.610428
 21
7273303.268855
 31
0.0
210
0.0
220
0.0
230
1.0
  0
TEXT
  8
11
  6
CONTINUOUS
 62
     7
  5
2D2
 10
898886.855
 20
7273094.043
 30
0.0
 40
8.0
  1
192'
 50
88.1501
  7
txt
 72
     4
 11
898883.245428
 21
7273106.195855
 31
0.0
210
0.0
220
0.0
230
1.0
  0
TEXT
  8
11
  6
CONTINUOUS
 62
     7
  5
2D3
 10
898878.788
 20
7272895.102
 30
0.0
 40
8.0
  1
191.99'
 50
88.1501
  7
txt
 72
     4
 11
898875.44378
 21
7272915.470571
 31
0.0
210
0.0
220
0.0
230
1.0
  0
TEXT
  8
11
  6
CONTINUOUS
 62
     7
  5
2D4
 10
898966.685
 20
7272993.751
 30
0.0
 40
8.0
  1
209'
 50
358.1501
  7
txt
 72
     1
 11
898980.352258
 21
7273001.313746
 31
0.0
210
0.0
220
0.0
230
1.0
 73
     3
  0
LINE
  8
6
  6
CONTINUOUS
 62
     7
  5
2D5
 10
898807.005
 20
7272816.803
 30
0.0
 11
898851.241
 21
7274160.076
 31
0.0
  0
ARC
  8
6
  6
CONTINUOUS
 62
     7
  5
2D6
 10
898792.012622
 20
7272817.297057
 30
0.0
 40
15.0
 50
268.1501
 51
358.113781
210
0.0
220
0.0
230
1.0
  0
ARC
  8
6
  6
CONTINUOUS
 62
     7
  5
2D7
 10
898836.250213
 20
7274160.571094
 30
0.0
 40
15.0
 50
358.1138
 51
88.1501
210
0.0
220
0.0
230
1.0
  0
LINE
  8
7
  6
CONTINUOUS
 62
     7
  5
2D8
 10
898589.839
 20
7273015.926
 30
0.0
 11
898813.325
 21
7273008.709
 31
0.0
  0
LINE
  8
7
  6
CONTINUOUS
 62
     7
  5
2D9
 10
898596.187
 20
7273207.822
 30
0.0
 11
898819.644
 21
7273200.605
 31
0.0
  0
LINE
  8
7
  6
CONTINUOUS
 62
     7
  5
2DA
 10
898602.534
 20
7273399.717
 30
0.0
 11
898825.964
 21
7273392.501
 31
0.0
  0
LINE
  8
7
  6
CONTINUOUS
 62
     7
  5
2DB
 10
898608.882
 20
7273591.613
 30
0.0
 11
898832.283
 21
7273584.397
 31
0.0
  0
LINE
  8
7
  6
CONTINUOUS
 62
     7
  5
2DC
 10
898615.231
 20
7273783.508
 30
0.0
 11
898838.604
 21
7273776.293
 31
0.0
  0
LINE
  8
7
  6
CONTINUOUS
 62
     7
  5
2DD
 10
898621.578
 20
7273975.402
 30
0.0
 11
898844.922
 21
7273968.189
 31
0.0
  0
TEXT
  8
11
  6
CONTINUOUS
 62
     7
  5
2DE
 10
898704.015
 20
7274169.845
 30
0.0
 40
8.0
  1
208.43'
 50
358.1501
  7
txt
 72
     1
 11
898728.070841
 21
7274177.072214
 31
0.0
210
0.0
220
0.0
230
1.0
 73
     3
  0
TEXT
  8
11
  6
CONTINUOUS
 62
     7
  5
2DF
 10
898700.94
 20
7273974.84
 30
0.0
 40
8.0
  1
223.47'
 50
358.1501
  7
txt
 72
     1
 11
898724.801557
 21
7273974.069318
 31
0.0
210
0.0
220
0.0
230
1.0
  0
TEXT
  8
11
  6
CONTINUOUS
 62
     7
  5
2E0
 10
898635.339
 20
7274073.155
 30
0.0
 40
8.0
  1
207'
 50
88.1501
  7
txt
 72
     4
 11
898631.781304
 21
7274086.914018
 31
0.0
210
0.0
220
0.0
230
1.0
  0
TEXT
  8
11
  6
CONTINUOUS
 62
     7
  5
2E1
 10
898846.305
 20
7274059.726
 30
0.0
 40
8.0
  1
191.99'
 50
88.1501
  7
txt
 72
     4
 11
898842.96078
 21
7274080.094571
 31
0.0
210
0.0
220
0.0
230
1.0
  0
TEXT
  8
11
  6
CONTINUOUS
 62
     7
  5
2E2
 10
898840.161
 20
7273869.487
 30
0.0
 40
8.0
  1
192'
 50
88.1501
  7
txt
 72
     4
 11
898836.551428
 21
7273881.639855
 31
0.0
210
0.0
220
0.0
230
1.0
  0
TEXT
  8
11
  6
CONTINUOUS
 62
     7
  5
2E3
 10
898833.724
 20
7273670.213
 30
0.0
 40
8.0
  1
192'
 50
88.1501
  7
txt
 72
     4
 11
898830.114428
 21
7273682.365855
 31
0.0
210
0.0
220
0.0
230
1.0
  0
TEXT
  8
11
  6
CONTINUOUS
 62
     7
  5
2E4
 10
898698.412
 20
7273782.822
 30
0.0
 40
8.0
  1
223.5'
 50
358.1501
  7
txt
 72
     1
 11
898718.055757
 21
7273782.187545
 31
0.0
210
0.0
220
0.0
230
1.0
  0
TEXT
  8
11
  6
CONTINUOUS
 62
     7
  5
2E5
 10
898827.855
 20
7273488.457
 30
0.0
 40
8.0
  1
192'
 50
88.1501
  7
txt
 72
     4
 11
898824.245428
 21
7273500.609855
 31
0.0
210
0.0
220
0.0
230
1.0
  0
TEXT
  8
11
  6
CONTINUOUS
 62
     7
  5
2E6
 10
898821.631
 20
7273295.753
 30
0.0
 40
8.0
  1
192'
 50
88.1501
  7
txt
 72
     4
 11
898818.021428
 21
7273307.905855
 31
0.0
210
0.0
220
0.0
230
1.0
  0
TEXT
  8
11
  6
CONTINUOUS
 62
     7
  5
2E7
 10
898837.078
 20
7273095.77
 30
0.0
 40
8.0
  1
192'
 50
88.1501
  7
txt
 72
     4
 11
898833.468428
 21
7273107.922855
 31
0.0
210
0.0
220
0.0
230
1.0
  0
TEXT
  8
11
  6
CONTINUOUS
 62
     7
  5
2E8
 10
898808.562
 20
7272899.599
 30
0.0
 40
8.0
  1
192.01'
 50
88.1501
  7
txt
 72
     4
 11
898805.228981
 21
7272920.31439
 31
0.0
210
0.0
220
0.0
230
1.0
  0
TEXT
  8
11
  6
CONTINUOUS
 62
     7
  5
2E9
 10
898598.659
 20
7272912.429
 30
0.0
 40
8.0
  1
207'
 50
88.1501
  7
txt
 72
     4
 11
898595.101304
 21
7272926.188018
 31
0.0
210
0.0
220
0.0
230
1.0
  0
TEXT
  8
11
  6
CONTINUOUS
 62
     7
  5
2EA
 10
898669.011
 20
7272808.263
 30
0.0
 40
8.0
  1
209.66'
 50
358.1501
  7
txt
 72
     1
 11
898692.051985
 21
7272807.518821
 31
0.0
210
0.0
220
0.0
230
1.0
  0
TEXT
  8
11
  6
CONTINUOUS
 62
     7
  5
2EB
 10
898689.312
 20
7273591.016
 30
0.0
 40
8.0
  1
223.53'
 50
358.1501
  7
txt
 72
     1
 11
898712.953672
 21
7273590.25242
 31
0.0
210
0.0
220
0.0
230
1.0
  0
TEXT
  8
11
  6
CONTINUOUS
 62
     7
  5
2EC
 10
898680.02
 20
7273399.215
 30
0.0
 40
8.0
  1
223.56'
 50
358.1501
  7
txt
 72
     1
 11
898703.471771
 21
7273398.457553
 31
0.0
210
0.0
220
0.0
230
1.0
  0
TEXT
  8
11
  6
CONTINUOUS
 62
     7
  5
2ED
 10
898680.386
 20
7273207.104
 30
0.0
 40
8.0
  1
223.59'
 50
358.1501
  7
txt
 72
     1
 11
898703.837771
 21
7273206.346553
 31
0.0
210
0.0
220
0.0
230
1.0
  0
TEXT
  8
11
  6
CONTINUOUS
 62
     7
  5
2EE
 10
898671.291
 20
7273003.292
 30
0.0
 40
8.0
  1
223.62
 50
358.1501
  7
txt
 72
     1
 11
898692.041564
 21
7273010.625968
 31
0.0
210
0.0
220
0.0
230
1.0
 73
     3
  0
TEXT
  8
10
  6
CONTINUOUS
 62
   134
  5
2EF
 10
898728.304
 20
7274068.298
 30
0.0
 40
13.999
  1
4
 50
358.1501
  7
txt
 72
     4
 11
898733.542355
 21
7274075.132461
 31
0.0
210
0.0
220
0.0
230
1.0
  0
TEXT
  8
10
  6
CONTINUOUS
 62
   134
  5
2F0
 10
898722.269
 20
7273871.204
 30
0.0
 40
13.999
  1
5
 50
358.1501
  7
txt
 72
     4
 11
898727.176527
 21
7273878.049146
 31
0.0
210
0.0
220
0.0
230
1.0
  0
TEXT
  8
10
  6
CONTINUOUS
 62
   134
  5
2F1
 10
898716.234
 20
7273674.108
 30
0.0
 40
13.999
  1
6
 50
358.1501
  7
txt
 72
     4
 11
898720.811699
 21
7273680.963799
 31
0.0
210
0.0
220
0.0
230
1.0
  0
TEXT
  8
10
  6
CONTINUOUS
 62
   134
  5
2F2
 10
898709.766
 20
7273485.797
 30
0.0
 40
13.999
  1
7
 50
358.1501
  7
txt
 72
     4
 11
898714.728499
 21
7273492.640371
 31
0.0
210
0.0
220
0.0
230
1.0
  0
TEXT
  8
10
  6
CONTINUOUS
 62
   134
  5
2F3
 10
898703.314
 20
7273284.331
 30
0.0
 40
13.999
  1
8
 50
358.1501
  7
txt
 72
     4
 11
898708.221527
 21
7273291.176146
 31
0.0
210
0.0
220
0.0
230
1.0
  0
TEXT
  8
10
  6
CONTINUOUS
 62
   134
  5
2F4
 10
898697.562
 20
7273095.996
 30
0.0
 40
13.999
  1
9
 50
358.1501
  7
txt
 72
     4
 11
898702.139699
 21
7273102.851799
 31
0.0
210
0.0
220
0.0
230
1.0
  0
TEXT
  8
10
  6
CONTINUOUS
 62
   134
  5
2F5
 10
898686.83
 20
7272912.205
 30
0.0
 40
13.999
  1
10
 50
358.1501
  7
txt
 72
     4
 11
898696.199201
 21
7272918.906043
 31
0.0
210
0.0
220
0.0
230
1.0
  0
TEXT
  8
10
  6
CONTINUOUS
 62
   134
  5
2F6
 10
899232.68
 20
7274055.296
 30
0.0
 40
13.999
  1
27
 50
358.1501
  7
txt
 72
     4
 11
899244.637851
 21
7274061.913435
 31
0.0
210
0.0
220
0.0
230
1.0
  0
TEXT
  8
10
  6
CONTINUOUS
 62
   134
  5
2F7
 10
899226.369
 20
7273858.21
 30
0.0
 40
13.999
  1
28
 50
358.1501
  7
txt
 72
     4
 11
899238.272879
 21
7273864.829178
 31
0.0
210
0.0
220
0.0
230
1.0
  0
TEXT
  8
10
  6
CONTINUOUS
 62
   134
  5
2F8
 10
899220.616
 20
7273669.875
 30
0.0
 40
13.999
  1
29
 50
358.1501
  7
txt
 72
     4
 11
899232.190051
 21
7273676.504831
 31
0.0
210
0.0
220
0.0
230
1.0
  0
TEXT
  8
10
  6
CONTINUOUS
 62
   134
  5
2F9
 10
899213.694
 20
7273464.04
 30
0.0
 40
13.999
  1
30
 50
358.1501
  7
txt
 72
     4
 11
899225.541908
 21
7273470.660986
 31
0.0
210
0.0
220
0.0
230
1.0
  0
TEXT
  8
10
  6
CONTINUOUS
 62
   134
  5
2FA
 10
899210.176
 20
7273280.017
 30
0.0
 40
13.999
  1
31
 50
358.1501
  7
txt
 72
     4
 11
899219.601172
 21
7273286.716235
 31
0.0
210
0.0
220
0.0
230
1.0
  0
TEXT
  8
10
  6
CONTINUOUS
 62
   134
  5
2FB
 10
899201.757
 20
7273096.152
 30
0.0
 40
13.999
  1
32
 50
358.1501
  7
txt
 72
     4
 11
899213.660879
 21
7273102.771178
 31
0.0
210
0.0
220
0.0
230
1.0
  0
TEXT
  8
10
  6
CONTINUOUS
 62
   134
  5
2FC
 10
899195.533
 20
7272903.447
 30
0.0
 40
13.999
  1
33
 50
358.1501
  7
txt
 72
     4
 11
899207.436879
 21
7272910.066178
 31
0.0
210
0.0
220
0.0
230
1.0
  0
TEXT
  8
10
  6
CONTINUOUS
 62
   134
  5
2FD
 10
898967.609
 20
7272910.808
 30
0.0
 40
13.999
  1
34
 50
358.1501
  7
txt
 72
     4
 11
898979.842707
 21
7272917.416525
 31
0.0
210
0.0
220
0.0
230
1.0
  0
TEXT
  8
10
  6
CONTINUOUS
 62
   134
  5
2FE
 10
898974.023
 20
7273099.123
 30
0.0
 40
13.999
  1
35
 50
358.1501
  7
txt
 72
     4
 11
898985.926879
 21
7273105.742178
 31
0.0
210
0.0
220
0.0
230
1.0
  0
TEXT
  8
10
  6
CONTINUOUS
 62
   134
  5
2FF
 10
898980.435
 20
7273287.439
 30
0.0
 40
13.999
  1
36
 50
358.1501
  7
txt
 72
     4
 11
898992.009051
 21
7273294.068831
 31
0.0
210
0.0
220
0.0
230
1.0
  0
TEXT
  8
10
  6
CONTINUOUS
 62
   134
  5
300
 10
898986.274
 20
7273480.157
 30
0.0
 40
13.999
  1
37
 50
358.1501
  7
txt
 72
     4
 11
898998.231851
 21
7273486.774435
 31
0.0
210
0.0
220
0.0
230
1.0
  0
TEXT
  8
10
  6
CONTINUOUS
 62
   134
  5
301
 10
898992.554
 20
7273672.859
 30
0.0
 40
13.999
  1
38
 50
358.1501
  7
txt
 72
     4
 11
899004.457879
 21
7273679.478178
 31
0.0
210
0.0
220
0.0
230
1.0
  0
TEXT
  8
10
  6
CONTINUOUS
 62
   134
  5
302
 10
898999.106
 20
7273865.555
 30
0.0
 40
13.999
  1
39
 50
358.1501
  7
txt
 72
     4
 11
899010.680051
 21
7273872.184831
 31
0.0
210
0.0
220
0.0
230
1.0
  0
TEXT
  8
10
  6
CONTINUOUS
 62
   134
  5
303
 10
899004.868
 20
7274062.66
 30
0.0
 40
13.999
  1
40
 50
358.1501
  7
txt
 72
     4
 11
899017.046736
 21
7274069.2703
 31
0.0
210
0.0
220
0.0
230
1.0
  0
LINE
  8
6
  6
CONTINUOUS
 62
     7
  5
304
 10
899809.751
 20
7272709.386
 30
0.0
 11
898581.015
 21
7272749.073
 31
0.0
  0
LINE
  8
6
  6
CONTINUOUS
 62
     7
  5
305
 10
898628.135
 20
7274778.611
 30
0.0
 11
898537.607
 21
7272041.913
 31
0.0
  0
LINE
  8
6
  6
CONTINUOUS
 62
     7
  5
306
 10
898995.595
 20
7272735.683
 30
0.0
 11
899202.886
 21
7272728.988
 31
0.0
  0
LINE
  8
6
  6
CONTINUOUS
 62
     7
  5
307
 10
898581.015
 20
7272749.073
 30
0.0
 11
898575.063
 21
7272569.171
 31
0.0
  0
LINE
  8
6
  6
CONTINUOUS
 62
     7
  5
308
 10
899818.498
 20
7272519.005
 30
0.0
 11
898584.727
 21
7272558.854
 31
0.0
  0
LINE
  8
6
  6
CONTINUOUS
 62
     7
  5
309
 10
898575.063
 20
7272569.171
 30
0.0
 11
898584.727
 21
7272558.854
 31
0.0
  0
LINE
  8
6
  6
CONTINUOUS
 62
     7
  5
30A
 10
899824.258
 20
7272693.9
 30
0.0
 11
899818.498
 21
7272519.005
 31
0.0
  0
LINE
  8
7
  6
CONTINUOUS
 62
     7
  5
30B
 10
898788.303
 20
7272742.378
 30
0.0
 11
898782.17
 21
7272552.477
 31
0.0
  0
LINE
  8
7
  6
CONTINUOUS
 62
     7
  5
30C
 10
898995.595
 20
7272735.683
 30
0.0
 11
898989.461
 21
7272545.781
 31
0.0
  0
LINE
  8
7
  6
CONTINUOUS
 62
     7
  5
30D
 10
899202.886
 20
7272728.988
 30
0.0
 11
899196.753
 21
7272539.086
 31
0.0
  0
LINE
  8
7
  6
CONTINUOUS
 62
     7
  5
30E
 10
899410.178
 20
7272722.292
 30
0.0
 11
899404.045
 21
7272532.392
 31
0.0
  0
LINE
  8
7
  6
CONTINUOUS
 62
     7
  5
30F
 10
899617.471
 20
7272715.597
 30
0.0
 11
899611.337
 21
7272525.696
 31
0.0
  0
TEXT
  8
11
  6
CONTINUOUS
 62
     7
  5
310
 10
898664.627
 20
7272736.367
 30
0.0
 40
8.0
  1
207.4'
 50
358.1501
  7
txt
 72
     1
 11
898684.716909
 21
7272743.722306
 31
0.0
210
0.0
220
0.0
230
1.0
 73
     3
  0
TEXT
  8
11
  6
CONTINUOUS
 62
     7
  5
311
 10
898878.826
 20
7272729.602
 30
0.0
 40
8.0
  1
207.4'
 50
358.1501
  7
txt
 72
     1
 11
898898.915909
 21
7272736.957306
 31
0.0
210
0.0
220
0.0
230
1.0
 73
     3
  0
TEXT
  8
11
  6
CONTINUOUS
 62
     7
  5
312
 10
899082.924
 20
7272722.856
 30
0.0
 40
8.0
  1
207.4'
 50
358.1501
  7
txt
 72
     1
 11
899103.013909
 21
7272730.211306
 31
0.0
210
0.0
220
0.0
230
1.0
 73
     3
  0
TEXT
  8
11
  6
CONTINUOUS
 62
     7
  5
313
 10
899285.957
 20
7272716.299
 30
0.0
 40
8.0
  1
207.4'
 50
358.1501
  7
txt
 72
     1
 11
899306.046909
 21
7272723.654306
 31
0.0
210
0.0
220
0.0
230
1.0
 73
     3
  0
TEXT
  8
11
  6
CONTINUOUS
 62
     7
  5
314
 10
899496.33
 20
7272709.505
 30
0.0
 40
8.0
  1
207.4'
 50
358.1501
  7
txt
 72
     1
 11
899516.419909
 21
7272716.860306
 31
0.0
210
0.0
220
0.0
230
1.0
 73
     3
  0
TEXT
  8
11
  6
CONTINUOUS
 62
     7
  5
315
 10
898587.408
 20
7272649.186
 30
0.0
 40
8.0
  1
180'
 50
88.1501
  7
txt
 72
     4
 11
898583.803528
 21
7272661.496773
 31
0.0
210
0.0
220
0.0
230
1.0
  0
TEXT
  8
11
  6
CONTINUOUS
 62
     7
  5
316
 10
898569.571
 20
7272577.96
 30
0.0
 40
8.0
  1
14.14'
 50
313.127172
  7
txt
 72
     1
 11
898581.326529
 21
7272565.409703
 31
0.0
210
0.0
220
0.0
230
1.0
  0
TEXT
  8
11
  6
CONTINUOUS
 62
     7
  5
317
 10
898784.334
 20
7272643.015
 30
0.0
 40
8.0
  1
190'
 50
88.1501
  7
txt
 72
     4
 11
898780.723427
 21
7272655.136871
 31
0.0
210
0.0
220
0.0
230
1.0
  0
TEXT
  8
11
  6
CONTINUOUS
 62
     7
  5
318
 10
899625.211
 20
7272615.856
 30
0.0
 40
8.0
  1
190'
 50
88.1501
  7
txt
 72
     4
 11
899621.600427
 21
7272627.977871
 31
0.0
210
0.0
220
0.0
230
1.0
  0
TEXT
  8
11
  6
CONTINUOUS
 62
     7
  5
319
 10
898658.174
 20
7272558.483
 30
0.0
 40
8.0
  1
197.55'
 50
358.1501
  7
txt
 72
     1
 11
898680.240493
 21
7272557.770295
 31
0.0
210
0.0
220
0.0
230
1.0
  0
TEXT
  8
11
  6
CONTINUOUS
 62
     7
  5
31A
 10
899691.351
 20
7272703.206
 30
0.0
 40
8.0
  1
192.38'
 50
358.1501
  7
txt
 72
     1
 11
899713.64376
 21
7272710.490158
 31
0.0
210
0.0
220
0.0
230
1.0
 73
     3
  0
TEXT
  8
11
  6
CONTINUOUS
 62
     7
  5
31B
 10
899691.308
 20
7272525.114
 30
0.0
 40
8.0
  1
207.27'
 50
358.1501
  7
txt
 72
     1
 11
899714.979656
 21
7272524.349451
 31
0.0
210
0.0
220
0.0
230
1.0
  0
TEXT
  8
11
  6
CONTINUOUS
 62
     7
  5
31C
 10
899820.048
 20
7272601.931
 30
0.0
 40
8.0
  1
174.99'
 50
88.1501
  7
txt
 72
     4
 11
899816.762758
 21
7272624.125619
 31
0.0
210
0.0
220
0.0
230
1.0
  0
TEXT
  8
11
  6
CONTINUOUS
 62
     7
  5
31D
 10
899811.249
 20
7272329.481
 30
0.0
 40
8.0
  1
335'
 50
88.1501
  7
txt
 72
     4
 11
899807.691336
 21
7272343.241017
 31
0.0
210
0.0
220
0.0
230
1.0
  0
TEXT
  8
11
  6
CONTINUOUS
 62
     7
  5
31E
 10
898561.858
 20
7272369.833
 30
0.0
 40
8.0
  1
335'
 50
88.1501
  7
txt
 72
     4
 11
898558.300336
 21
7272383.593017
 31
0.0
210
0.0
220
0.0
230
1.0
  0
TEXT
  8
11
  6
CONTINUOUS
 62
     7
  5
31F
 10
899170.167
 20
7272509.931
 30
0.0
 40
8.0
  1
1264.42'
 50
358.1501
  7
txt
 72
     1
 11
899196.835478
 21
7272517.073831
 31
0.0
210
0.0
220
0.0
230
1.0
 73
     3
  0
TEXT
  8
11
  6
CONTINUOUS
 62
     7
  5
320
 10
899163.707
 20
7272186.972
 30
0.0
 40
8.0
  1
164.47'
 50
358.1501
  7
txt
 72
     1
 11
899186.151296
 21
7272186.247093
 31
0.0
210
0.0
220
0.0
230
1.0
  0
TEXT
  8
10
  6
CONTINUOUS
 62
   134
  5
321
 10
898663.08
 20
7272651.321
 30
0.0
 40
13.999
  1
11-A
 50
358.1501
  7
txt
 72
     4
 11
898683.465457
 21
7272657.666239
 31
0.0
210
0.0
220
0.0
230
1.0
  0
TEXT
  8
10
  6
CONTINUOUS
 62
   134
  5
322
 10
898879.061
 20
7272644.345
 30
0.0
 40
13.999
  1
11-B
 50
358.1501
  7
txt
 72
     4
 11
898898.73083
 21
7272650.713353
 31
0.0
210
0.0
220
0.0
230
1.0
  0
TEXT
  8
10
  6
CONTINUOUS
 62
   134
  5
323
 10
899079.317
 20
7272637.876
 30
0.0
 40
13.999
  1
11-C
 50
358.1501
  7
txt
 72
     4
 11
899099.317657
 21
7272644.233668
 31
0.0
210
0.0
220
0.0
230
1.0
  0
TEXT
  8
10
  6
CONTINUOUS
 62
   134
  5
324
 10
899285.128
 20
7272631.23
 30
0.0
 40
13.999
  1
11-D
 50
358.1501
  7
txt
 72
     4
 11
899304.79783
 21
7272637.598353
 31
0.0
210
0.0
220
0.0
230
1.0
  0
TEXT
  8
10
  6
CONTINUOUS
 62
   134
  5
325
 10
899498.278
 20
7272624.345
 30
0.0
 40
13.999
  1
11-E
 50
358.1501
  7
txt
 72
     4
 11
899517.618002
 21
7272630.724005
 31
0.0
210
0.0
220
0.0
230
1.0
  0
TEXT
  8
10
  6
CONTINUOUS
 62
   134
  5
326
 10
899708.65
 20
7272617.55
 30
0.0
 40
13.999
  1
11-F
 50
358.1501
  7
txt
 72
     4
 11
899727.990002
 21
7272623.929005
 31
0.0
210
0.0
220
0.0
230
1.0
  0
TEXT
  8
10
  6
CONTINUOUS
 62
   134
  5
327
 10
899180.542
 20
7272360.168
 30
0.0
 40
13.999
  1
11-G
 50
358.1501
  7
txt
 72
     4
 11
899200.542657
 21
7272366.525668
 31
0.0
210
0.0
220
0.0
230
1.0
  0
LINE
  8
6
  6
CONTINUOUS
 62
     7
  5
328
 10
897231.05
 20
7272413.629
 30
0.0
 11
897135.45
 21
7269648.722
 31
0.0
  0
LINE
  8
6
  6
CONTINUOUS
 62
     7
  5
329
 10
899347.115
 20
7274755.377
 30
0.0
 11
899341.19
 21
7274575.488
 31
0.0
  0
LINE
  8
6
  6
CONTINUOUS
 62
     7
  5
32A
 10
898554.079
 20
7272539.836
 30
0.0
 11
899817.839
 21
7272499.019
 31
0.0
  0
LINE
  8
6
  6
CONTINUOUS
 62
     7
  5
32B
 10
899806.813
 20
7272164.2
 30
0.0
 11
899817.839
 21
7272499.019
 31
0.0
  0
LINE
  8
6
  6
CONTINUOUS
 62
     7
  5
32C
 10
898543.003
 20
7272205.018
 30
0.0
 11
899823.45
 21
7272163.663
 31
0.0
  0
ARC
  8
6
  6
CONTINUOUS
 62
     7
  5
32D
 10
899809.26632
 20
7272694.394796
 30
0.0
 40
15.0
 50
358.113725
 51
88.1501
210
0.0
220
0.0
230
1.0
  0
LINE
  8
6
  6
CONTINUOUS
 62
     7
  5
32E
 10
899820.431
 20
7272070.216
 30
0.0
 11
899823.45
 21
7272163.663
 31
0.0
  0
LINE
  8
6
  6
CONTINUOUS
 62
     7
  5
32F
 10
899763.808
 20
7270324.363
 30
0.0
 11
897591.929
 21
7270394.396
 31
0.0
  0
LINE
  8
6
  6
CONTINUOUS
 62
     7
  5
330
 10
899763.808
 20
7270324.363
 30
0.0
 11
899801.791
 21
7271491.928
 31
0.0
  0
LINE
  8
6
  6
CONTINUOUS
 62
     7
  5
331
 10
899805.112
 20
7271595.842
 30
0.0
 11
899812.684
 21
7271830.341
 31
0.0
  0
LINE
  8
6
  6
CONTINUOUS
 62
     7
  5
332
 10
897592.905
 20
7270424.379
 30
0.0
 11
897591.929
 21
7270394.396
 31
0.0
  0
ARC
  8
6
  6
CONTINUOUS
 62
     7
  5
333
 10
898836.886996
 20
7274756.861309
 30
0.0
 40
15.0
 50
358.113753
 51
88.1501
210
0.0
220
0.0
230
1.0
  0
LINE
  8
6
  6
CONTINUOUS
 62
     7
  5
334
 10
898648.128
 20
7274777.966
 30
0.0
 11
898630.405
 21
7274242.259
 31
0.0
  0
ARC
  8
6
  6
CONTINUOUS
 62
     7
  5
335
 10
898820.231858
 20
7274251.135386
 30
0.0
 40
15.0
 50
268.1501
 51
358.113747
210
0.0
220
0.0
230
1.0
  0
LINE
  8
6
  6
CONTINUOUS
 62
     7
  5
336
 10
898630.405
 20
7274242.259
 30
0.0
 11
898819.748
 21
7274236.144
 31
0.0
  0
LINE
  8
6
  6
CONTINUOUS
 62
     7
  5
337
 10
898628.422
 20
7274182.292
 30
0.0
 11
898836.734
 21
7274175.563
 31
0.0
  0
LINE
  8
6
  6
CONTINUOUS
 62
     7
  5
338
 10
898648.128
 20
7274777.966
 30
0.0
 11
898837.372
 21
7274771.854
 31
0.0
  0
TEXT
  8
15
  6
CONTINUOUS
 62
    30
  5
339
 10
899093.021
 20
7274352.848
 30
0.0
 40
50.0
  1
ENERGY
 50
28.1501
  7
ROMANC
 11
899069.431848
 21
7274396.933734
 31
0.0
210
0.0
220
0.0
230
1.0
 73
     3
  0
TEXT
  8
15
  6
CONTINUOUS
 62
    30
  5
33A
 10
899128.404
 20
7274286.72
 30
0.0
 40
50.0
  1
CIRCLE
 50
28.1501
  7
ROMANC
 11
899104.814848
 21
7274330.805734
 31
0.0
210
0.0
220
0.0
230
1.0
 73
     3
  0
TEXT
  8
15
  6
CONTINUOUS
 62
    30
  5
33B
 10
898888.785
 20
7272882.0
 30
0.0
 40
50.0
  1
ENERGY
 50
28.1501
  7
ROMANC
 11
898865.195848
 21
7272926.085734
 31
0.0
210
0.0
220
0.0
230
1.0
 73
     3
  0
TEXT
  8
15
  6
CONTINUOUS
 62
    30
  5
33C
 10
898924.169
 20
7272815.872
 30
0.0
 40
50.0
  1
CIRCLE
 50
28.1501
  7
ROMANC
 11
898900.579848
 21
7272859.957734
 31
0.0
210
0.0
220
0.0
230
1.0
 73
     3
  0
TEXT
  8
11
  6
CONTINUOUS
 62
     7
  5
33D
 10
899838.184
 20
7272153.8
 30
0.0
 40
8.0
  1
40'
 50
358.1501
  7
txt
 72
     4
 11
899848.10302
 21
7272157.481721
 31
0.0
210
0.0
220
0.0
230
1.0
  0
TEXT
  8
11
  6
CONTINUOUS
 62
     7
  5
33E
 10
899823.51
 20
7271808.107
 30
0.0
 40
8.0
  1
40'
 50
358.1501
  7
txt
 72
     4
 11
899833.42902
 21
7271811.788721
 31
0.0
210
0.0
220
0.0
230
1.0
  0
LINE
  8
6
  6
CONTINUOUS
 62
     7
  5
33F
 10
894662.453
 20
7273333.432
 30
0.0
 11
894544.761
 21
7269732.263
 31
0.0
  0
LINE
  8
6
  6
CONTINUOUS
 62
     7
  5
340
 10
894544.761
 20
7269732.263
 30
0.0
 11
897135.45
 21
7269648.722
 31
0.0
  0
TEXT
  8
28
  6
CONTINUOUS
 62
    32
  5
342
 10
894876.564
 20
7273316.635
 30
0.0
 40
24.0
  1
SOUTHERN PACIFIC AND SANTA FE RR
 50
340.6184
  7
txt
 72
     4
 11
895227.081139
 21
7273206.045843
 31
0.0
210
0.0
220
0.0
230
1.0
  0
TEXT
  8
28
  6
CONTINUOUS
 62
    32
  5
343
 10
898830.026
 20
7271892.656
 30
0.0
 40
24.0
  1
SOUTHERN PACIFIC AND SANTA FE RR
 50
340.6501
  7
txt
 72
     4
 11
899180.604271
 21
7271782.260791
 31
0.0
210
0.0
220
0.0
230
1.0
  0
ENDSEC
  0
EOF
