  0
SECTION
  2
HEADER
  9
$ACADVER
  1
AC1009
  9
$INSBASE
 10
0.0
 20
0.0
 30
0.0
  9
$EXTMIN
 10
953743.985
 20
7309910.496
 30
0.0
  9
$EXTMAX
 10
959202.864
 20
7315343.196
 30
0.0
  9
$LIMMIN
 10
0.0
 20
0.0
  9
$LIMMAX
 10
12.0
 20
9.0
  9
$ORTHOMODE
 70
     0
  9
$REGENMODE
 70
     1
  9
$FILLMODE
 70
     1
  9
$QTEXTMODE
 70
     0
  9
$MIRRTEXT
 70
     1
  9
$DRAGMODE
 70
     2
  9
$LTSCALE
 40
1.0
  9
$OSMODE
 70
     0
  9
$ATTMODE
 70
     1
  9
$TEXTSIZE
 40
0.2
  9
$TRACEWID
 40
0.05
  9
$TEXTSTYLE
  7
STANDARD
  9
$CLAYER
  8
0
  9
$CELTYPE
  6
CONTINUOUS
  9
$CECOLOR
 62
   256
  9
$DIMSCALE
 40
1.0
  9
$DIMASZ
 40
0.18
  9
$DIMEXO
 40
0.0625
  9
$DIMDLI
 40
0.38
  9
$DIMRND
 40
0.0
  9
$DIMDLE
 40
0.0
  9
$DIMEXE
 40
0.18
  9
$DIMTP
 40
0.0
  9
$DIMTM
 40
0.0
  9
$DIMTXT
 40
0.18
  9
$DIMCEN
 40
0.09
  9
$DIMTSZ
 40
0.0
  9
$DIMTOL
 70
     0
  9
$DIMLIM
 70
     0
  9
$DIMTIH
 70
     1
  9
$DIMTOH
 70
     1
  9
$DIMSE1
 70
     0
  9
$DIMSE2
 70
     0
  9
$DIMTAD
 70
     0
  9
$DIMZIN
 70
     0
  9
$DIMBLK
  1

  9
$DIMASO
 70
     1
  9
$DIMSHO
 70
     1
  9
$DIMPOST
  1

  9
$DIMAPOST
  1

  9
$DIMALT
 70
     0
  9
$DIMALTD
 70
     2
  9
$DIMALTF
 40
25.4
  9
$DIMLFAC
 40
1.0
  9
$DIMTOFL
 70
     0
  9
$DIMTVP
 40
0.0
  9
$DIMTIX
 70
     0
  9
$DIMSOXD
 70
     0
  9
$DIMSAH
 70
     0
  9
$DIMBLK1
  1

  9
$DIMBLK2
  1

  9
$DIMSTYLE
  2
STANDARD
  9
$DIMCLRD
 70
     0
  9
$DIMCLRE
 70
     0
  9
$DIMCLRT
 70
     0
  9
$DIMTFAC
 40
1.0
  9
$DIMGAP
 40
0.09
  9
$LUNITS
 70
     2
  9
$LUPREC
 70
     4
  9
$AXISMODE
 70
     0
  9
$AXISUNIT
 10
0.0
 20
0.0
  9
$SKETCHINC
 40
0.1
  9
$FILLETRAD
 40
0.0
  9
$AUNITS
 70
     0
  9
$AUPREC
 70
     0
  9
$MENU
  1
acad
  9
$ELEVATION
 40
0.0
  9
$PELEVATION
 40
0.0
  9
$THICKNESS
 40
0.0
  9
$LIMCHECK
 70
     0
  9
$BLIPMODE
 70
     1
  9
$CHAMFERA
 40
0.0
  9
$CHAMFERB
 40
0.0
  9
$SKPOLY
 70
     0
  9
$TDCREATE
 40
2453013.904965278
  9
$TDUPDATE
 40
2453013.904965278
  9
$TDINDWG
 40
0.0000000000
  9
$TDUSRTIMER
 40
0.0000000000
  9
$USRTIMER
 70
     1
  9
$ANGBASE
 50
0.0
  9
$ANGDIR
 70
     0
  9
$PDMODE
 70
     0
  9
$PDSIZE
 40
0.0
  9
$PLINEWID
 40
0.0
  9
$COORDS
 70
     0
  9
$SPLFRAME
 70
     0
  9
$SPLINETYPE
 70
     6
  9
$SPLINESEGS
 70
    10
  9
$ATTDIA
 70
     0
  9
$ATTREQ
 70
     1
  9
$HANDLING
 70
     1
  9
$HANDSEED
  5
1E2
  9
$SURFTAB1
 70
     6
  9
$SURFTAB2
 70
     6
  9
$SURFTYPE
 70
     6
  9
$SURFU
 70
     6
  9
$SURFV
 70
     6
  9
$UCSNAME
  2

  9
$UCSORG
 10
0.0
 20
0.0
 30
0.0
  9
$UCSXDIR
 10
1.0
 20
0.0
 30
0.0
  9
$UCSYDIR
 10
0.0
 20
1.0
 30
0.0
  9
$PUCSNAME
  2

  9
$PUCSORG
 10
0.0
 20
0.0
 30
0.0
  9
$PUCSXDIR
 10
1.0
 20
0.0
 30
0.0
  9
$PUCSYDIR
 10
0.0
 20
1.0
 30
0.0
  9
$USERI1
 70
     0
  9
$USERI2
 70
     0
  9
$USERI3
 70
     0
  9
$USERI4
 70
     0
  9
$USERI5
 70
     0
  9
$USERR1
 40
0.0
  9
$USERR2
 40
0.0
  9
$USERR3
 40
0.0
  9
$USERR4
 40
0.0
  9
$USERR5
 40
0.0
  9
$WORLDVIEW
 70
     1
  9
$SHADEDGE
 70
     3
  9
$SHADEDIF
 70
    70
  9
$TILEMODE
 70
     1
  9
$MAXACTVP
 70
    16
  9
$PINSBASE
 10
0.0
 20
0.0
 30
0.0
  9
$PLIMCHECK
 70
     0
  9
$PEXTMIN
 10
-1.000000E+20
 20
-1.000000E+20
 30
-1.000000E+20
  9
$PEXTMAX
 10
-1.000000E+20
 20
-1.000000E+20
 30
-1.000000E+20
  9
$PLIMMIN
 10
0.0
 20
0.0
  9
$PLIMMAX
 10
12.0
 20
9.0
  9
$UNITMODE
 70
     0
  9
$VISRETAIN
 70
     0
  9
$PLINEGEN
 70
     1
  9
$PSLTSCALE
 70
     0
  9
$TREEDEPTH
 70
  3020
  9
$DWGCODEPAGE
  3
ansi_1252
  0
ENDSEC
  0
SECTION
  2
TABLES
  0
TABLE
  2
VPORT
 70
     1
  0
VPORT
  2
*ACTIVE
 70
     0
 10
0.0
 20
0.0
 11
1.0
 21
1.0
 12
0.0
 22
0.0
 13
0.0
 23
0.0
 14
0.0
 24
0.0
 15
0.0
 25
0.0
 16
0.0
 26
0.0
 36
1.0
 17
954518.1465
 27
7310776.924962
 37
0.0
 40
1791.479925
 41
1.466029
 42
50.0
 43
0.004
 44
0.0
 50
0.0
 51
0.0
 71
     0
 72
   100
 73
     1
 74
     0
 75
     0
 76
     0
 77
     0
 78
     0
  0
ENDTAB
  0
TABLE
  2
LTYPE
 70
     7
  0
LTYPE
  2
CONTINUOUS
 70
     0
  3
Solid line
 72
    65
 73
     0
 40
0.0
  0
LTYPE
  2
DOT
 70
    64
  3
. . . . . . . . . . . . . . . . . . . . . . . . . . . . . . . . .
 72
    65
 73
     2
 40
0.25
 49
0.0
 49
-0.25
  0
LTYPE
  2
HIDDEN
 70
    64
  3
__ __ __ __ __ __ __ __ __ __ __ __ __ __ __ __ __ __ __ __ __ 
 72
    65
 73
     2
 40
0.375
 49
0.25
 49
-0.125
  0
LTYPE
  2
DASHED
 70
    64
  3
__ __ __ __ __ __ __ __ __ __ __ __ __ __ __ __ __ __ __ __ __
 72
    65
 73
     2
 40
0.75
 49
0.5
 49
-0.25
  0
LTYPE
  2
DASHDOT
 70
    64
  3
__ . __ . __ . __ . __ . __ . __ . __ . __ . __ . __ . __ . _
 72
    65
 73
     4
 40
1.0
 49
0.5
 49
-0.25
 49
0.0
 49
-0.25
  0
LTYPE
  2
DIVIDE
 70
    64
  3
____ . . ____ . . ____ . . ____ . . ____ . . ____ . . ____ . .
 72
    65
 73
     6
 40
1.25
 49
0.5
 49
-0.25
 49
0.0
 49
-0.25
 49
0.0
 49
-0.25
  0
LTYPE
  2
CENTER
 70
    64
  3
____ _ ____ _ ____ _ ____ _ ____ _ ____ _ ____ _ ____ _ ____ _
 72
    65
 73
     4
 40
2.0
 49
1.25
 49
-0.25
 49
0.25
 49
-0.25
  0
ENDTAB
  0
TABLE
  2
LAYER
 70
    19
  0
LAYER
  2
0
 70
    64
 62
     7
  6
CONTINUOUS
  0
LAYER
  2
CONSTRUCTION_CLASS
 70
     1
 62
     7
  6
CONTINUOUS
  0
LAYER
  2
PATTERN_CLASS
 70
     0
 62
     7
  6
CONTINUOUS
  0
LAYER
  2
10
 70
    64
 62
     7
  6
CONTINUOUS
  0
LAYER
  2
25
 70
    64
 62
     7
  6
CONTINUOUS
  0
LAYER
  2
14
 70
    64
 62
     7
  6
CONTINUOUS
  0
LAYER
  2
13
 70
    64
 62
     7
  6
CONTINUOUS
  0
LAYER
  2
9
 70
    64
 62
     7
  6
CONTINUOUS
  0
LAYER
  2
16
 70
    64
 62
     7
  6
CONTINUOUS
  0
LAYER
  2
7
 70
    64
 62
     7
  6
CONTINUOUS
  0
LAYER
  2
15
 70
    64
 62
     7
  6
CONTINUOUS
  0
LAYER
  2
11
 70
    64
 62
     7
  6
CONTINUOUS
  0
LAYER
  2
DEFPOINTS
 70
    64
 62
     7
  6
CONTINUOUS
  0
LAYER
  2
1
 70
    64
 62
     7
  6
CONTINUOUS
  0
LAYER
  2
6
 70
    64
 62
     7
  6
CONTINUOUS
  0
LAYER
  2
19
 70
    64
 62
     7
  6
CONTINUOUS
  0
LAYER
  2
22
 70
    64
 62
     7
  6
CONTINUOUS
  0
LAYER
  2
21
 70
    64
 62
     7
  6
CONTINUOUS
  0
LAYER
  2
58
 70
    64
 62
     7
  6
CONTINUOUS
  0
ENDTAB
  0
TABLE
  2
STYLE
 70
     5
  0
STYLE
  2
STANDARD
 70
     0
 40
0.0
 41
1.0
 50
0.0
 71
     0
 42
0.0
  3
txt
  4

  0
STYLE
  2
MONOTXT
 70
     0
 40
0.2
 41
1.0
 50
0.0
 71
     0
 42
0.2
  3
MONOTXT
  4

  0
STYLE
  2
ROMANS
 70
     0
 40
0.2
 41
1.0
 50
0.0
 71
     0
 42
0.2
  3
ROMANS
  4

  0
STYLE
  2
ROMANC
 70
     0
 40
0.2
 41
1.0
 50
0.0
 71
     0
 42
0.2
  3
ROMANC
  4

  0
STYLE
  2
txt
 70
     0
 40
0.2
 41
1.0
 50
0.0
 71
     0
 42
0.2
  3
TXT
  4

  0
ENDTAB
  0
TABLE
  2
VIEW
 70
     0
  0
ENDTAB
  0
TABLE
  2
UCS
 70
     0
  0
ENDTAB
  0
TABLE
  2
APPID
 70
     1
  0
APPID
  2
ACAD
 70
     0
  0
ENDTAB
  0
TABLE
  2
DIMSTYLE
 70
     2
  0
DIMSTYLE
  2
STANDARD
 70
     0
  3

  4

  5

  6

  7

 40
1.0
 41
0.18
 42
0.0625
 43
0.38
 44
0.18
 45
0.0
 46
0.0
 47
0.0
 48
0.0
140
0.18
141
0.09
142
0.0
143
25.4
144
1.0
145
0.0
146
1.0
147
0.09
 71
     0
 72
     0
 73
     1
 74
     1
 75
     0
 76
     0
 77
     0
 78
     0
170
     0
171
     2
172
     0
173
     0
174
     0
175
     0
176
     0
177
     0
178
     0
  0
DIMSTYLE
  2
MSADIM
 70
     0
  3

  4

  5

  6

  7

 40
1.0
 41
8.0
 42
4.0
 43
0.0
 44
4.0
 45
0.0
 46
0.0
 47
0.0
 48
0.0
140
8.0
141
4.0
142
0.0
143
25.4
144
1.0
145
4.0
146
1.0
147
4.0
 71
     0
 72
     0
 73
     1
 74
     1
 75
     1
 76
     1
 77
     0
 78
     2
170
     0
171
     2
172
     0
173
     1
174
     0
175
     0
176
     0
177
     0
178
     0
  0
ENDTAB
  0
ENDSEC
  0
SECTION
  2
BLOCKS
  0
BLOCK
  8
11
  6
CONTINUOUS
 62
     7
  5
133
  2
*D0
 70
     1
 10
0.0
 20
0.0
 30
0.0
  3
*N0
  0
POLYLINE
  8
11
  6
CONTINUOUS
 62
     7
  5
134
 66
     1
 10
0.0
 20
0.0
 30
0.0
  0
VERTEX
  8
11
  6
CONTINUOUS
 62
     7
  5
135
 10
954047.76
 20
7315256.68
 30
0.0
  0
VERTEX
  8
11
  6
CONTINUOUS
 62
     7
  5
136
 10
954042.868
 20
7315263.318
 30
0.0
  0
VERTEX
  8
11
  6
CONTINUOUS
 62
     7
  5
137
 10
954050.308
 20
7315259.763
 30
0.0
  0
SEQEND
  8
11
  6
CONTINUOUS
 62
     7
  5
138
  0
LINE
  8
11
  6
CONTINUOUS
 62
     7
  5
139
 10
954042.868
 20
7315263.318
 30
0.0
 11
954073.904
 21
7315237.665
 31
0.0
  0
LINE
  8
11
  6
CONTINUOUS
 62
     7
  5
13A
 10
954073.904
 20
7315237.665
 30
0.0
 11
954089.904
 21
7315237.665
 31
0.0
  0
TEXT
  8
11
  6
CONTINUOUS
 62
     7
  5
13B
 10
954093.904
 20
7315233.665
 30
0.0
 40
8.0
  1
62.18' s38%%d14'30"w
  7
ROMANS
 11
954093.904
 21
7315237.665
 31
0.0
210
0.0
220
0.0
230
1.0
 73
     2
  0
ENDBLK
  8
11
  6
CONTINUOUS
 62
     7
  5
13C
  0
BLOCK
  8
11
  6
CONTINUOUS
 62
     7
  5
146
  2
*D1
 70
     1
 10
0.0
 20
0.0
 30
0.0
  3
*N1
  0
POLYLINE
  8
11
  6
CONTINUOUS
 62
     7
  5
147
 66
     1
 10
0.0
 20
0.0
 30
0.0
  0
VERTEX
  8
11
  6
CONTINUOUS
 62
     7
  5
148
 10
956319.258
 20
7310738.453
 30
0.0
  0
VERTEX
  8
11
  6
CONTINUOUS
 62
     7
  5
149
 10
956317.024
 20
7310730.515
 30
0.0
  0
VERTEX
  8
11
  6
CONTINUOUS
 62
     7
  5
14A
 10
956315.26
 20
7310738.57
 30
0.0
  0
SEQEND
  8
11
  6
CONTINUOUS
 62
     7
  5
14B
  0
LINE
  8
11
  6
CONTINUOUS
 62
     7
  5
14C
 10
956317.024
 20
7310730.515
 30
0.0
 11
956319.598
 21
7310818.202
 31
0.0
  0
LINE
  8
11
  6
CONTINUOUS
 62
     7
  5
14D
 10
956319.598
 20
7310818.202
 30
0.0
 11
956335.598
 21
7310818.202
 31
0.0
  0
TEXT
  8
11
  6
CONTINUOUS
 62
     7
  5
14E
 10
956339.598
 20
7310814.202
 30
0.0
 40
8.0
  1
90'
  7
ROMANS
 11
956339.598
 21
7310818.202
 31
0.0
210
0.0
220
0.0
230
1.0
 73
     2
  0
ENDBLK
  8
11
  6
CONTINUOUS
 62
     7
  5
14F
  0
BLOCK
  8
11
  6
CONTINUOUS
 62
     7
  5
152
  2
*D2
 70
     1
 10
0.0
 20
0.0
 30
0.0
  3
*N2
  0
POLYLINE
  8
11
  6
CONTINUOUS
 62
     7
  5
153
 66
     1
 10
0.0
 20
0.0
 30
0.0
  0
VERTEX
  8
11
  6
CONTINUOUS
 62
     7
  5
154
 10
956313.9
 20
7310631.26
 30
0.0
  0
VERTEX
  8
11
  6
CONTINUOUS
 62
     7
  5
155
 10
956316.134
 20
7310639.198
 30
0.0
  0
VERTEX
  8
11
  6
CONTINUOUS
 62
     7
  5
156
 10
956317.898
 20
7310631.143
 30
0.0
  0
SEQEND
  8
11
  6
CONTINUOUS
 62
     7
  5
157
  0
LINE
  8
11
  6
CONTINUOUS
 62
     7
  5
158
 10
956316.134
 20
7310639.198
 30
0.0
 11
956314.19
 21
7310572.987
 31
0.0
  0
ENDBLK
  8
11
  6
CONTINUOUS
 62
     7
  5
159
  0
BLOCK
  8
11
  6
CONTINUOUS
 62
     7
  5
15C
  2
*D3
 70
     1
 10
0.0
 20
0.0
 30
0.0
  3
*N3
  0
POLYLINE
  8
11
  6
CONTINUOUS
 62
     7
  5
15D
 66
     1
 10
0.0
 20
0.0
 30
0.0
  0
VERTEX
  8
11
  6
CONTINUOUS
 62
     7
  5
15E
 10
956323.932
 20
7310973.056
 30
0.0
  0
VERTEX
  8
11
  6
CONTINUOUS
 62
     7
  5
15F
 10
956326.166
 20
7310980.994
 30
0.0
  0
VERTEX
  8
11
  6
CONTINUOUS
 62
     7
  5
160
 10
956327.93
 20
7310972.939
 30
0.0
  0
SEQEND
  8
11
  6
CONTINUOUS
 62
     7
  5
161
  0
LINE
  8
11
  6
CONTINUOUS
 62
     7
  5
162
 10
956326.166
 20
7310980.994
 30
0.0
 11
956324.275
 21
7310916.572
 31
0.0
  0
ENDBLK
  8
11
  6
CONTINUOUS
 62
     7
  5
163
  0
BLOCK
  8
11
  6
CONTINUOUS
 62
     7
  5
166
  2
*D4
 70
     1
 10
0.0
 20
0.0
 30
0.0
  3
*N4
  0
POLYLINE
  8
11
  6
CONTINUOUS
 62
     7
  5
167
 66
     1
 10
0.0
 20
0.0
 30
0.0
  0
VERTEX
  8
11
  6
CONTINUOUS
 62
     7
  5
168
 10
956329.238
 20
7311078.46
 30
0.0
  0
VERTEX
  8
11
  6
CONTINUOUS
 62
     7
  5
169
 10
956327.004
 20
7311070.522
 30
0.0
  0
VERTEX
  8
11
  6
CONTINUOUS
 62
     7
  5
16A
 10
956325.24
 20
7311078.577
 30
0.0
  0
SEQEND
  8
11
  6
CONTINUOUS
 62
     7
  5
16B
  0
LINE
  8
11
  6
CONTINUOUS
 62
     7
  5
16C
 10
956327.004
 20
7311070.522
 30
0.0
 11
956328.842
 21
7311133.155
 31
0.0
  0
LINE
  8
11
  6
CONTINUOUS
 62
     7
  5
16D
 10
956328.842
 20
7311133.155
 30
0.0
 11
956344.842
 21
7311133.155
 31
0.0
  0
TEXT
  8
11
  6
CONTINUOUS
 62
     7
  5
16E
 10
956348.842
 20
7311129.155
 30
0.0
 40
8.0
  1
90'
  7
ROMANS
 11
956348.842
 21
7311133.155
 31
0.0
210
0.0
220
0.0
230
1.0
 73
     2
  0
ENDBLK
  8
11
  6
CONTINUOUS
 62
     7
  5
16F
  0
ENDSEC
  0
SECTION
  2
ENTITIES
  0
LINE
  8
0
  6
CONTINUOUS
 62
     2
  5
28
 10
955894.563
 20
7311062.953
 30
0.0
 11
956044.42
 21
7311058.554
 31
0.0
  0
LINE
  8
0
  6
CONTINUOUS
 62
     2
  5
29
 10
956166.806
 20
7310964.978
 30
0.0
 11
956255.158
 21
7310962.384
 31
0.0
  0
LINE
  8
0
  6
CONTINUOUS
 62
     2
  5
2A
 10
956084.503
 20
7310717.27
 30
0.0
 11
956247.417
 21
7310712.488
 31
0.0
  0
LINE
  8
0
  6
CONTINUOUS
 62
     2
  5
2B
 10
956156.831
 20
7310625.101
 30
0.0
 11
956244.777
 21
7310622.52
 31
0.0
  0
LINE
  8
0
  6
CONTINUOUS
 62
     2
  5
2C
 10
956035.914
 20
7310768.734
 30
0.0
 11
956038.112
 21
7310843.622
 31
0.0
  0
LINE
  8
0
  6
CONTINUOUS
 62
     2
  5
2D
 10
956012.638
 20
7309975.73
 30
0.0
 11
956028.138
 21
7310503.813
 31
0.0
  0
LINE
  8
0
  6
CONTINUOUS
 62
     2
  5
2E
 10
956500.011
 20
7309961.425
 30
0.0
 11
956516.319
 21
7310517.032
 31
0.0
  0
LINE
  8
0
  6
CENTER
 62
     7
  5
2F
 10
955918.257
 20
7310677.093
 30
0.0
 11
956573.861
 21
7310657.85
 31
0.0
  0
LINE
  8
0
  6
CONTINUOUS
 62
     2
  5
30
 10
956574.906
 20
7309959.227
 30
0.0
 11
956601.188
 21
7310854.649
 31
0.0
  0
LINE
  8
0
  6
CONTINUOUS
 62
     2
  5
31
 10
955862.781
 20
7309980.128
 30
0.0
 11
955894.563
 21
7311062.953
 31
0.0
  0
ARC
  8
0
  6
CONTINUOUS
 62
     2
  5
32
 10
956163.127297
 20
7310839.984295
 30
0.0
 40
125.000411
 50
88.3188
 51
178.3188
210
0.0
220
0.0
230
1.0
  0
ARC
  8
0
  6
CONTINUOUS
 62
     2
  5
33
 10
956413.827308
 20
7310860.137957
 30
0.0
 40
97.500321
 50
358.3188
 51
88.3188
210
0.0
220
0.0
230
1.0
  0
LINE
  8
0
  6
CONTINUOUS
 62
     2
  5
34
 10
956511.287
 20
7310857.288
 30
0.0
 11
956514.299
 21
7310757.658
 31
0.0
  0
ARC
  8
0
  6
CONTINUOUS
 62
     2
  5
35
 10
956464.357328
 20
7310756.110377
 30
0.0
 40
50.000164
 50
268.3188
 51
1.752431
210
0.0
220
0.0
230
1.0
  0
ARC
  8
0
  6
CONTINUOUS
 62
     2
  5
36
 10
956418.845858
 20
7310519.843121
 30
0.0
 40
97.500321
 50
358.3188
 51
88.3188
210
0.0
220
0.0
230
1.0
  0
ARC
  8
0
  6
CONTINUOUS
 62
     2
  5
37
 10
956413.827308
 20
7310860.137957
 30
0.0
 40
187.500616
 50
358.3188
 51
88.3188
210
0.0
220
0.0
230
1.0
  0
ARC
  8
0
  6
CENTER
 62
     7
  5
38
 10
956413.607271
 20
7310852.641161
 30
0.0
 40
150.000493
 50
358.3188
 51
88.3188
210
0.0
220
0.0
230
1.0
  0
ARC
  8
0
  6
CONTINUOUS
 62
     2
  5
39
 10
956085.958958
 20
7310767.21671
 30
0.0
 40
50.000164
 50
178.3188
 51
268.3188
210
0.0
220
0.0
230
1.0
  0
ARC
  8
0
  6
CONTINUOUS
 62
     2
  5
3A
 10
956153.152254
 20
7310500.129534
 30
0.0
 40
125.000411
 50
88.3188
 51
178.3188
210
0.0
220
0.0
230
1.0
  0
LINE
  8
0
  6
CONTINUOUS
 62
     2
  5
3B
 10
955900.432
 20
7311262.934
 30
0.0
 11
956050.29
 21
7311258.535
 31
0.0
  0
LINE
  8
0
  6
CONTINUOUS
 62
     2
  5
3C
 10
956050.29
 20
7311258.535
 30
0.0
 11
956044.42
 21
7311058.554
 31
0.0
  0
LINE
  8
0
  6
CONTINUOUS
 62
     2
  5
3D
 10
955894.563
 20
7311062.953
 30
0.0
 11
955900.432
 21
7311262.934
 31
0.0
  0
LINE
  8
0
  6
CONTINUOUS
 62
     7
  5
3E
 10
955261.868
 20
7311100.0
 30
0.0
 11
955231.408
 21
7309980.172
 31
0.0
  0
LINE
  8
0
  6
CONTINUOUS
 62
     7
  5
3F
 10
955242.271
 20
7311100.176
 30
0.0
 11
955214.555
 21
7310073.805
 31
0.0
  0
TEXT
  8
10
  6
CONTINUOUS
 62
     2
  5
42
 10
956048.46
 20
7310918.42
 30
0.0
 40
80.0
  1
17
 50
178.3188
  7
MONOTXT
 72
     1
 11
955998.72142
 21
7310919.879872
 31
0.0
210
0.0
220
0.0
230
1.0
  0
TEXT
  8
10
  6
CONTINUOUS
 62
     2
  5
43
 10
956026.912
 20
7311049.234
 30
0.0
 40
80.0
  1
R
 50
178.3188
  7
MONOTXT
 72
     1
 11
956000.151524
 21
7311050.019444
 31
0.0
210
0.0
220
0.0
230
1.0
  0
LINE
  8
0
  6
CONTINUOUS
 62
     7
  5
44
 10
955920.114
 20
7311061.595
 30
0.0
 11
955895.295
 21
7311087.914
 31
0.0
  0
LINE
  8
0
  6
CONTINUOUS
 62
     7
  5
45
 10
956018.901
 20
7311058.695
 30
0.0
 11
956045.153
 21
7311083.516
 31
0.0
  0
LINE
  8
0
  6
CONTINUOUS
 62
     7
  5
46
 10
955969.525
 20
7311060.753
 30
0.0
 11
955896.763
 21
7311137.909
 31
0.0
  0
LINE
  8
0
  6
CONTINUOUS
 62
     7
  5
47
 10
955969.525
 20
7311060.753
 30
0.0
 11
956046.62
 21
7311133.51
 31
0.0
  0
LINE
  8
0
  6
CONTINUOUS
 62
     7
  5
48
 10
955970.995
 20
7311110.809
 30
0.0
 11
955898.23
 21
7311187.911
 31
0.0
  0
LINE
  8
0
  6
CONTINUOUS
 62
     7
  5
49
 10
955970.995
 20
7311110.809
 30
0.0
 11
956048.088
 21
7311183.513
 31
0.0
  0
LINE
  8
0
  6
CONTINUOUS
 62
     7
  5
4A
 10
955972.46
 20
7311160.744
 30
0.0
 11
955899.695
 21
7311237.832
 31
0.0
  0
LINE
  8
0
  6
CONTINUOUS
 62
     7
  5
4B
 10
955972.46
 20
7311160.744
 30
0.0
 11
956049.553
 21
7311233.433
 31
0.0
  0
LINE
  8
0
  6
CONTINUOUS
 62
     7
  5
4C
 10
955973.928
 20
7311210.739
 30
0.0
 11
955925.981
 21
7311261.508
 31
0.0
  0
LINE
  8
0
  6
CONTINUOUS
 62
     7
  5
4D
 10
955973.928
 20
7311210.739
 30
0.0
 11
956024.769
 21
7311258.608
 31
0.0
  0
LINE
  8
0
  6
CONTINUOUS
 62
     7
  5
4E
 10
955558.968
 20
7311256.969
 30
0.0
 11
955412.469
 21
7311267.52
 31
0.0
  0
LINE
  8
0
  6
CONTINUOUS
 62
     7
  5
4F
 10
955559.94
 20
7311276.473
 30
0.0
 11
955413.44
 21
7311287.025
 31
0.0
  0
LINE
  8
0
  6
CONTINUOUS
 62
     7
  5
50
 10
955713.491
 20
7311416.646
 30
0.0
 11
955742.873
 21
7312535.172
 31
0.0
  0
LINE
  8
0
  6
CONTINUOUS
 62
     7
  5
51
 10
955733.087
 20
7311416.477
 30
0.0
 11
955761.883
 21
7312515.02
 31
0.0
  0
LINE
  8
0
  6
CONTINUOUS
 62
     7
  5
52
 10
956066.419
 20
7312556.119
 30
0.0
 11
955813.339
 21
7312563.547
 31
0.0
  0
LINE
  8
0
  6
CONTINUOUS
 62
     7
  5
53
 10
956069.619
 20
7312575.687
 30
0.0
 11
955993.785
 21
7312577.913
 31
0.0
  0
LINE
  8
0
  6
CONTINUOUS
 62
     7
  5
54
 10
956279.018
 20
7311678.632
 30
0.0
 11
956299.19
 21
7312416.676
 31
0.0
  0
LINE
  8
0
  6
CONTINUOUS
 62
     7
  5
55
 10
956253.595
 20
7311679.81
 30
0.0
 11
956279.612
 21
7312417.459
 31
0.0
  0
LINE
  8
0
  6
CONTINUOUS
 62
     7
  5
56
 10
956208.432
 20
7312516.261
 30
0.0
 11
956085.725
 21
7312552.994
 31
0.0
  0
LINE
  8
0
  6
CONTINUOUS
 62
     7
  5
57
 10
956213.698
 20
7312535.167
 30
0.0
 11
956088.856
 21
7312572.496
 31
0.0
  0
ARC
  8
0
  6
CONTINUOUS
 62
     7
  5
58
 10
956179.702695
 20
7312420.458177
 30
0.0
 40
100.000329
 50
358.3188
 51
73.3188
210
0.0
220
0.0
230
1.0
  0
ARC
  8
0
  6
CONTINUOUS
 62
     7
  5
59
 10
956064.198152
 20
7312481.168282
 30
0.0
 40
75.000247
 50
73.3188
 51
88.3188
210
0.0
220
0.0
230
1.0
  0
ARC
  8
0
  6
CONTINUOUS
 62
     7
  5
5A
 10
956067.352471
 20
7312500.684205
 30
0.0
 40
75.000247
 50
73.3188
 51
88.3188
210
0.0
220
0.0
230
1.0
  0
ARC
  8
0
  6
CONTINUOUS
 62
     7
  5
5B
 10
955811.875323
 20
7312513.585032
 30
0.0
 40
50.000164
 50
88.3188
 51
178.3188
210
0.0
220
0.0
230
1.0
  0
ARC
  8
0
  6
CONTINUOUS
 62
     7
  5
5C
 10
955792.858728
 20
7312533.751692
 30
0.0
 40
50.000164
 50
88.3188
 51
178.3188
210
0.0
220
0.0
230
1.0
  0
ARC
  8
0
  6
CONTINUOUS
 62
     7
  5
5D
 10
956179.293861
 20
7312420.163113
 30
0.0
 40
120.000395
 50
358.3188
 51
73.3188
210
0.0
220
0.0
230
1.0
  0
POLYLINE
  8
0
  6
CONTINUOUS
 62
     7
  5
5E
 66
     1
 10
0.0
 20
0.0
 30
0.0
210
0.0
220
0.0
230
1.0
  0
VERTEX
  8
0
  6
CONTINUOUS
 62
     7
  5
5F
 10
955559.9415
 20
7311276.519508
 30
0.0
 42
0.047538
  0
VERTEX
  8
0
  6
CONTINUOUS
 62
     7
  5
60
 10
955589.128091
 20
7311278.465716
 30
0.0
 42
0.047735
  0
VERTEX
  8
0
  6
CONTINUOUS
 62
     7
  5
61
 10
955617.361318
 20
7311285.881921
 30
0.0
 42
0.048137
  0
VERTEX
  8
0
  6
CONTINUOUS
 62
     7
  5
62
 10
955643.556192
 20
7311298.483123
 30
0.0
 42
0.048693
  0
VERTEX
  8
0
  6
CONTINUOUS
 62
     7
  5
63
 10
955666.70606
 20
7311315.785064
 30
0.0
 42
0.049325
  0
VERTEX
  8
0
  6
CONTINUOUS
 62
     7
  5
64
 10
955685.921285
 20
7311337.122841
 30
0.0
 42
0.049938
  0
VERTEX
  8
0
  6
CONTINUOUS
 62
     7
  5
65
 10
955700.463438
 20
7311361.676455
 30
0.0
 42
0.050433
  0
VERTEX
  8
0
  6
CONTINUOUS
 62
     7
  5
66
 10
955709.77367
 20
7311388.502324
 30
0.0
 42
0.050727
  0
VERTEX
  8
0
  6
CONTINUOUS
 62
     7
  5
67
 10
955713.494196
 20
7311416.569545
 30
0.0
 42
0.050727
  0
SEQEND
  8
0
  6
CONTINUOUS
 62
     7
  5
68
  0
POLYLINE
  8
0
  6
CONTINUOUS
 62
     7
  5
69
 66
     1
 10
0.0
 20
0.0
 30
0.0
210
0.0
220
0.0
230
1.0
  0
VERTEX
  8
0
  6
CONTINUOUS
 62
     7
  5
6A
 10
955558.96614
 20
7311256.939627
 30
0.0
 42
0.047726
  0
VERTEX
  8
0
  6
CONTINUOUS
 62
     7
  5
6B
 10
955592.064145
 20
7311259.155492
 30
0.0
 42
0.0479
  0
VERTEX
  8
0
  6
CONTINUOUS
 62
     7
  5
6C
 10
955624.081022
 20
7311267.599253
 30
0.0
 42
0.048256
  0
VERTEX
  8
0
  6
CONTINUOUS
 62
     7
  5
6D
 10
955653.786378
 20
7311281.946419
 30
0.0
 42
0.048747
  0
VERTEX
  8
0
  6
CONTINUOUS
 62
     7
  5
6E
 10
955680.038654
 20
7311301.645638
 30
0.0
 42
0.049304
  0
VERTEX
  8
0
  6
CONTINUOUS
 62
     7
  5
6F
 10
955701.82899
 20
7311325.939879
 30
0.0
 42
0.049842
  0
VERTEX
  8
0
  6
CONTINUOUS
 62
     7
  5
70
 10
955718.319996
 20
7311353.895529
 30
0.0
 42
0.050276
  0
VERTEX
  8
0
  6
CONTINUOUS
 62
     7
  5
71
 10
955728.877931
 20
7311384.438267
 30
0.0
 42
0.050533
  0
VERTEX
  8
0
  6
CONTINUOUS
 62
     7
  5
72
 10
955733.097059
 20
7311416.394353
 30
0.0
 42
0.050533
  0
SEQEND
  8
0
  6
CONTINUOUS
 62
     7
  5
73
  0
LINE
  8
0
  6
CONTINUOUS
 62
     7
  5
74
 10
955974.2
 20
7312578.488
 30
0.0
 11
955794.338
 21
7312583.767
 31
0.0
  0
LINE
  8
0
  6
CONTINUOUS
 62
     7
  5
75
 10
956758.012
 20
7310894.961
 30
0.0
 11
956731.173
 21
7309956.032
 31
0.0
  0
LINE
  8
0
  6
CONTINUOUS
 62
     7
  5
76
 10
956731.512
 20
7310894.737
 30
0.0
 11
956711.589
 21
7309956.607
 31
0.0
  0
ARC
  8
0
  6
CONTINUOUS
 62
     7
  5
77
 10
954251.183549
 20
7314542.190969
 30
0.0
 40
15.000049
 50
4.561292
 51
29.065319
210
0.0
220
0.0
230
1.0
  0
ARC
  8
0
  6
CONTINUOUS
 62
     7
  5
78
 10
954116.464327
 20
7315264.211498
 30
0.0
 40
11.64808
 50
86.851931
 51
193.026503
210
0.0
220
0.0
230
1.0
  0
POLYLINE
  8
25
  6
DIVIDE
 62
     5
  5
7A
 66
     1
 10
0.0
 20
0.0
 30
0.0
  0
VERTEX
  8
25
  6
DIVIDE
 62
     5
  5
7B
 10
953973.047
 20
7311458.311
 30
0.0
  0
VERTEX
  8
25
  6
DIVIDE
 62
     5
  5
7C
 10
954008.252
 20
7312697.348
 30
0.0
  0
VERTEX
  8
25
  6
DIVIDE
 62
     5
  5
7D
 10
955826.351
 20
7312643.986
 30
0.0
  0
VERTEX
  8
25
  6
DIVIDE
 62
     5
  5
7E
 10
955894.466
 20
7314817.848
 30
0.0
  0
VERTEX
  8
25
  6
DIVIDE
 62
     5
  5
7F
 10
956294.299
 20
7314806.113
 30
0.0
  0
VERTEX
  8
25
  6
DIVIDE
 62
     5
  5
80
 10
956226.116
 20
7312632.252
 30
0.0
  0
VERTEX
  8
25
  6
DIVIDE
 62
     5
  5
81
 10
956810.998
 20
7312615.085
 30
0.0
  0
VERTEX
  8
25
  6
DIVIDE
 62
     5
  5
82
 10
956733.52
 20
7309975.383
 30
0.0
  0
SEQEND
  8
25
  6
DIVIDE
 62
     5
  5
83
  0
LINE
  8
25
  6
DIVIDE
 62
     5
  5
84
 10
956733.52
 20
7309975.383
 30
0.0
 11
958944.256
 21
7309910.496
 31
0.0
  0
TEXT
  8
10
  6
CONTINUOUS
 62
     6
  5
85
 10
953974.257
 20
7311074.532
 30
0.0
 40
30.32
  1
X
 50
271.124408
  7
MONOTXT
210
0.0
220
0.0
230
1.0
  0
TEXT
  8
10
  6
CONTINUOUS
 62
     6
  5
86
 10
953975.409
 20
7311889.979
 30
0.0
 40
30.32
  1
X
 50
268.3188
  7
MONOTXT
210
0.0
220
0.0
230
1.0
  0
TEXT
  8
10
  6
CONTINUOUS
 62
     6
  5
87
 10
953996.967
 20
7312566.041
 30
0.0
 40
30.32
  1
X
 50
268.3188
  7
MONOTXT
210
0.0
220
0.0
230
1.0
  0
TEXT
  8
10
  6
CONTINUOUS
 62
     6
  5
88
 10
956710.288
 20
7310351.863
 30
0.0
 40
30.32
  1
X
 50
268.3188
  7
MONOTXT
210
0.0
220
0.0
230
1.0
  0
TEXT
  8
10
  6
CONTINUOUS
 62
     6
  5
89
 10
956729.799
 20
7311016.617
 30
0.0
 40
30.32
  1
X
 50
268.3188
  7
MONOTXT
210
0.0
220
0.0
230
1.0
  0
TEXT
  8
10
  6
CONTINUOUS
 62
     6
  5
8A
 10
956750.251
 20
7311642.141
 30
0.0
 40
30.32
  1
X
 50
268.3188
  7
MONOTXT
210
0.0
220
0.0
230
1.0
  0
TEXT
  8
10
  6
CONTINUOUS
 62
     6
  5
8B
 10
956770.677
 20
7312198.108
 30
0.0
 40
30.32
  1
X
 50
268.3188
  7
MONOTXT
210
0.0
220
0.0
230
1.0
  0
TEXT
  8
10
  6
CONTINUOUS
 62
     6
  5
8C
 10
953996.656
 20
7310241.802
 30
0.0
 40
30.32
  1
X
 50
271.124408
  7
MONOTXT
210
0.0
220
0.0
230
1.0
  0
TEXT
  8
10
  6
CONTINUOUS
 62
     6
  5
8D
 10
956343.492
 20
7312585.903
 30
0.0
 40
30.32
  1
X
 50
358.3188
  7
MONOTXT
210
0.0
220
0.0
230
1.0
  0
TEXT
  8
10
  6
CONTINUOUS
 62
     6
  5
8E
 10
955789.556
 20
7312604.049
 30
0.0
 40
30.32
  1
X
 50
358.3188
  7
MONOTXT
210
0.0
220
0.0
230
1.0
  0
TEXT
  8
10
  6
CONTINUOUS
 62
     6
  5
8F
 10
955104.745
 20
7312624.149
 30
0.0
 40
30.32
  1
X
 50
358.3188
  7
MONOTXT
210
0.0
220
0.0
230
1.0
  0
TEXT
  8
10
  6
CONTINUOUS
 62
     6
  5
90
 10
954436.055
 20
7312644.926
 30
0.0
 40
30.32
  1
X
 50
358.3188
  7
MONOTXT
210
0.0
220
0.0
230
1.0
  0
LINE
  8
10
  6
CONTINUOUS
 62
     6
  5
91
 10
954011.099
 20
7310251.614
 30
0.0
 11
953989.808
 21
7311043.517
 31
0.0
  0
POLYLINE
  8
10
  6
CONTINUOUS
 62
     6
  5
92
 66
     1
 10
0.0
 20
0.0
 30
0.0
  0
VERTEX
  8
10
  6
CONTINUOUS
 62
     6
  5
93
 10
953993.614
 20
7311089.203
 30
0.0
  0
VERTEX
  8
10
  6
CONTINUOUS
 62
     6
  5
94
 10
953978.388
 20
7311477.915
 30
0.0
  0
VERTEX
  8
10
  6
CONTINUOUS
 62
     6
  5
95
 10
953982.194
 20
7311607.359
 30
0.0
  0
VERTEX
  8
10
  6
CONTINUOUS
 62
     6
  5
96
 10
953989.808
 20
7311860.534
 30
0.0
  0
SEQEND
  8
10
  6
CONTINUOUS
 62
     6
  5
97
  0
LINE
  8
10
  6
CONTINUOUS
 62
     6
  5
98
 10
953991.711
 20
7311906.22
 30
0.0
 11
954007.89
 21
7312537.26
 31
0.0
  0
POLYLINE
  8
10
  6
CONTINUOUS
 62
     6
  5
99
 66
     1
 10
0.0
 20
0.0
 30
0.0
  0
VERTEX
  8
10
  6
CONTINUOUS
 62
     6
  5
9A
 10
954010.745
 20
7312568.669
 30
0.0
  0
VERTEX
  8
10
  6
CONTINUOUS
 62
     6
  5
9B
 10
954012.648
 20
7312688.594
 30
0.0
  0
VERTEX
  8
10
  6
CONTINUOUS
 62
     6
  5
9C
 10
954428.528
 20
7312672.414
 30
0.0
  0
SEQEND
  8
10
  6
CONTINUOUS
 62
     6
  5
9D
  0
LINE
  8
10
  6
CONTINUOUS
 62
     6
  5
9E
 10
954459.532
 20
7312660.055
 30
0.0
 11
955096.154
 21
7312641.369
 31
0.0
  0
LINE
  8
10
  6
CONTINUOUS
 62
     6
  5
9F
 10
955128.925
 20
7312640.407
 30
0.0
 11
955783.59
 21
7312621.192
 31
0.0
  0
LINE
  8
10
  6
CONTINUOUS
 62
     6
  5
A0
 10
955819.728
 20
7312620.132
 30
0.0
 11
956341.691
 21
7312604.812
 31
0.0
  0
POLYLINE
  8
10
  6
CONTINUOUS
 62
     6
  5
A1
 66
     1
 10
0.0
 20
0.0
 30
0.0
  0
VERTEX
  8
10
  6
CONTINUOUS
 62
     6
  5
A2
 10
956374.53
 20
7312603.848
 30
0.0
  0
VERTEX
  8
10
  6
CONTINUOUS
 62
     6
  5
A3
 10
956791.385
 20
7312591.613
 30
0.0
  0
VERTEX
  8
10
  6
CONTINUOUS
 62
     6
  5
A4
 10
956780.234
 20
7312211.702
 30
0.0
  0
SEQEND
  8
10
  6
CONTINUOUS
 62
     6
  5
A5
  0
LINE
  8
10
  6
CONTINUOUS
 62
     6
  5
A6
 10
956779.088
 20
7312172.669
 30
0.0
 11
956763.904
 21
7311655.344
 31
0.0
  0
LINE
  8
10
  6
CONTINUOUS
 62
     6
  5
A7
 10
956762.801
 20
7311617.738
 30
0.0
 11
956745.564
 21
7311030.496
 31
0.0
  0
LINE
  8
10
  6
CONTINUOUS
 62
     6
  5
A8
 10
956744.502
 20
7310994.297
 30
0.0
 11
956725.883
 21
7310359.954
 31
0.0
  0
LINE
  8
10
  6
CONTINUOUS
 62
     6
  5
A9
 10
956724.937
 20
7310327.724
 30
0.0
 11
956714.612
 21
7309975.938
 31
0.0
  0
LINE
  8
0
  6
CENTER
 62
     7
  5
AA
 10
956537.496
 20
7309960.325
 30
0.0
 11
956563.556
 21
7310848.207
 31
0.0
  0
LINE
  8
0
  6
CENTER
 62
     7
  5
AB
 10
955969.091
 20
7311045.95
 30
0.0
 11
955977.078
 21
7311318.066
 31
0.0
  0
LINE
  8
0
  6
CONTINUOUS
 62
     7
  5
AC
 10
956226.506
 20
7310052.824
 30
0.0
 11
956238.381
 21
7309998.533
 31
0.0
  0
LINE
  8
0
  6
CONTINUOUS
 62
     7
  5
AD
 10
956253.286
 20
7310052.038
 30
0.0
 11
956238.381
 21
7309998.533
 31
0.0
  0
LINE
  8
0
  6
CONTINUOUS
 62
     7
  5
AE
 10
956165.069
 20
7310054.628
 30
0.0
 11
956253.286
 21
7310052.038
 31
0.0
  0
POLYLINE
  8
25
  6
DIVIDE
 62
     5
  5
AF
 66
     1
 10
0.0
 20
0.0
 30
0.0
  0
VERTEX
  8
25
  6
DIVIDE
 62
     5
  5
B0
 10
954002.233
 20
7310055.549
 30
0.0
  0
VERTEX
  8
25
  6
DIVIDE
 62
     5
  5
B1
 10
954002.318
 20
7310058.437
 30
0.0
  0
VERTEX
  8
25
  6
DIVIDE
 62
     5
  5
B2
 10
954002.257
 20
7310058.438
 30
0.0
  0
VERTEX
  8
25
  6
DIVIDE
 62
     5
  5
B3
 10
954002.844
 20
7310078.428
 30
0.0
  0
VERTEX
  8
25
  6
DIVIDE
 62
     5
  5
B4
 10
953973.047
 20
7311458.311
 30
0.0
  0
SEQEND
  8
25
  6
DIVIDE
 62
     5
  5
B5
  0
LINE
  8
14
  6
CONTINUOUS
 62
     7
  5
B7
 10
953994.026
 20
7313426.539
 30
0.0
 11
953994.024
 21
7313426.471
 31
0.0
  0
LINE
  8
14
  6
CONTINUOUS
 62
     7
  5
B8
 10
953994.026
 20
7313426.539
 30
0.0
 11
953994.024
 21
7313426.471
 31
0.0
  0
LINE
  8
0
  6
CONTINUOUS
 62
     7
  5
B9
 10
959075.768
 20
7315130.301
 30
0.0
 11
958952.713
 21
7310673.838
 31
0.0
  0
LINE
  8
0
  6
CONTINUOUS
 62
     7
  5
BA
 10
959134.472
 20
7315128.578
 30
0.0
 11
959025.667
 21
7310678.352
 31
0.0
  0
LINE
  8
0
  6
CENTER
 62
     7
  5
BB
 10
955937.743
 20
7309977.928
 30
0.0
 11
955961.728
 21
7310795.088
 31
0.0
  0
LINE
  8
0
  6
CENTER
 62
     7
  5
BC
 10
956248.581
 20
7311052.826
 30
0.0
 11
956248.204
 21
7311039.971
 31
0.0
  0
LINE
  8
0
  6
CENTER
 62
     7
  5
BD
 10
956238.208
 20
7310713.029
 30
0.0
 11
956237.829
 21
7310700.106
 31
0.0
  0
LINE
  8
0
  6
CENTER
 62
     7
  5
BE
 10
956247.825
 20
7311027.054
 30
0.0
 11
956247.451
 21
7311014.335
 31
0.0
  0
LINE
  8
0
  6
CENTER
 62
     7
  5
BF
 10
956247.072
 20
7311001.418
 30
0.0
 11
956246.695
 21
7310988.569
 31
0.0
  0
LINE
  8
0
  6
CENTER
 62
     7
  5
C0
 10
956246.318
 20
7310975.713
 30
0.0
 11
956245.94
 21
7310962.865
 31
0.0
  0
LINE
  8
0
  6
CENTER
 62
     7
  5
C1
 10
956235.945
 20
7310635.917
 30
0.0
 11
956235.566
 21
7310623.0
 31
0.0
  0
LINE
  8
0
  6
CENTER
 62
     7
  5
C2
 10
956236.698
 20
7310661.553
 30
0.0
 11
956236.322
 21
7310648.772
 31
0.0
  0
LINE
  8
0
  6
CENTER
 62
     7
  5
C3
 10
956237.454
 20
7310687.325
 30
0.0
 11
956237.077
 21
7310674.47
 31
0.0
  0
LINE
  8
0
  6
CENTER
 62
     7
  5
C4
 10
955672.603
 20
7311024.479
 30
0.0
 11
956418.041
 21
7311002.6
 31
0.0
  0
ARC
  8
0
  6
CONTINUOUS
 62
     7
  5
C5
 10
955161.059485
 20
7309955.719304
 30
0.0
 40
50.000164
 50
30.331839
 51
88.3188
210
0.0
220
0.0
230
1.0
  0
LINE
  8
0
  6
CENTER
 62
     6
  5
C6
 10
955311.685
 20
7309977.815
 30
0.0
 11
955335.67
 21
7310794.976
 31
0.0
  0
LINE
  8
13
  6
CONTINUOUS
 62
     3
  5
C8
 10
955237.692
 20
7312206.669
 30
0.0
 11
955245.315
 21
7311302.974
 31
0.0
  0
POLYLINE
  8
0
  6
CONTINUOUS
 62
     7
  5
C9
 66
     1
 10
0.0
 20
0.0
 30
0.0
210
0.0
220
0.0
230
1.0
  0
VERTEX
  8
0
  6
CONTINUOUS
 62
     7
  5
CA
 10
955412.405385
 20
7311267.494065
 30
0.0
 42
0.057816
  0
VERTEX
  8
0
  6
CONTINUOUS
 62
     7
  5
CB
 10
955383.7916
 20
7311265.166013
 30
0.0
 42
0.056416
  0
VERTEX
  8
0
  6
CONTINUOUS
 62
     7
  5
CC
 10
955356.11247
 20
7311256.294757
 30
0.0
 42
0.053773
  0
VERTEX
  8
0
  6
CONTINUOUS
 62
     7
  5
CD
 10
955330.431687
 20
7311241.221214
 30
0.0
 42
0.05056
  0
VERTEX
  8
0
  6
CONTINUOUS
 62
     7
  5
CE
 10
955307.736151
 20
7311220.524651
 30
0.0
 42
0.047412
  0
VERTEX
  8
0
  6
CONTINUOUS
 62
     7
  5
CF
 10
955288.898037
 20
7311195.000426
 30
0.0
 42
0.044771
  0
VERTEX
  8
0
  6
CONTINUOUS
 62
     7
  5
D0
 10
955274.641284
 20
7311165.629422
 30
0.0
 42
0.042879
  0
VERTEX
  8
0
  6
CONTINUOUS
 62
     7
  5
D1
 10
955265.513771
 20
7311133.540348
 30
0.0
 42
0.041847
  0
VERTEX
  8
0
  6
CONTINUOUS
 62
     7
  5
D2
 10
955261.866263
 20
7311099.96637
 30
0.0
 42
0.041847
  0
SEQEND
  8
0
  6
CONTINUOUS
 62
     7
  5
D3
  0
POLYLINE
  8
0
  6
CONTINUOUS
 62
     7
  5
D4
 66
     1
 10
0.0
 20
0.0
 30
0.0
210
0.0
220
0.0
230
1.0
  0
VERTEX
  8
0
  6
CONTINUOUS
 62
     7
  5
D5
 10
955413.380102
 20
7311287.073719
 30
0.0
 42
0.056775
  0
VERTEX
  8
0
  6
CONTINUOUS
 62
     7
  5
D6
 10
955380.854903
 20
7311284.47601
 30
0.0
 42
0.055572
  0
VERTEX
  8
0
  6
CONTINUOUS
 62
     7
  5
D7
 10
955349.392123
 20
7311274.577198
 30
0.0
 42
0.053283
  0
VERTEX
  8
0
  6
CONTINUOUS
 62
     7
  5
D8
 10
955320.200858
 20
7311257.75769
 30
0.0
 42
0.050463
  0
VERTEX
  8
0
  6
CONTINUOUS
 62
     7
  5
D9
 10
955294.402913
 20
7311234.66385
 30
0.0
 42
0.047661
  0
VERTEX
  8
0
  6
CONTINUOUS
 62
     7
  5
DA
 10
955272.989689
 20
7311206.183162
 30
0.0
 42
0.045279
  0
VERTEX
  8
0
  6
CONTINUOUS
 62
     7
  5
DB
 10
955256.784083
 20
7311173.410121
 30
0.0
 42
0.043555
  0
VERTEX
  8
0
  6
CONTINUOUS
 62
     7
  5
DC
 10
955246.408867
 20
7311137.604178
 30
0.0
 42
0.042607
  0
VERTEX
  8
0
  6
CONTINUOUS
 62
     7
  5
DD
 10
955242.262757
 20
7311100.141335
 30
0.0
 42
0.042607
  0
SEQEND
  8
0
  6
CONTINUOUS
 62
     7
  5
DE
  0
ARC
  8
0
  6
CONTINUOUS
 62
     7
  5
DF
 10
955164.568353
 20
7310075.268214
 30
0.0
 40
50.000164
 50
268.3188
 51
358.3188
210
0.0
220
0.0
230
1.0
  0
POLYLINE
  8
13
  6
CONTINUOUS
 62
     3
  5
E0
 66
     1
 10
0.0
 20
0.0
 30
0.0
  0
VERTEX
  8
13
  6
CONTINUOUS
 62
     3
  5
E1
 10
956844.102
 20
7312602.391
 30
0.0
  0
VERTEX
  8
13
  6
CONTINUOUS
 62
     3
  5
E2
 10
956937.912
 20
7313754.313
 30
0.0
  0
VERTEX
  8
13
  6
CONTINUOUS
 62
     3
  5
E3
 10
955188.724
 20
7313805.654
 30
0.0
  0
VERTEX
  8
13
  6
CONTINUOUS
 62
     3
  5
E4
 10
955228.944
 20
7312491.33
 30
0.0
  0
SEQEND
  8
13
  6
CONTINUOUS
 62
     3
  5
E5
  0
LINE
  8
13
  6
CONTINUOUS
 62
     3
  5
E6
 10
955245.315
 20
7311302.974
 30
0.0
 11
955207.663
 21
7310020.168
 31
0.0
  0
POLYLINE
  8
13
  6
CONTINUOUS
 62
     3
  5
E7
 66
     1
 10
0.0
 20
0.0
 30
0.0
  0
VERTEX
  8
13
  6
CONTINUOUS
 62
     3
  5
E8
 10
956697.05
 20
7309976.454
 30
0.0
  0
VERTEX
  8
13
  6
CONTINUOUS
 62
     3
  5
E9
 10
956734.701
 20
7311259.259
 30
0.0
  0
VERTEX
  8
13
  6
CONTINUOUS
 62
     3
  5
EA
 10
956827.15
 20
7312394.247
 30
0.0
  0
SEQEND
  8
13
  6
CONTINUOUS
 62
     3
  5
EB
  0
POLYLINE
  8
0
  6
CONTINUOUS
 62
     7
  5
EC
 66
     1
 10
0.0
 20
0.0
 30
0.0
  0
VERTEX
  8
0
  6
CONTINUOUS
 62
     7
  5
ED
 10
956161.446365
 20
7310097.50598
 30
0.0
 42
1.0
  0
VERTEX
  8
0
  6
CONTINUOUS
 62
     7
  5
EE
 10
956160.859598
 20
7310077.514523
 30
0.0
 42
1.0
  0
VERTEX
  8
0
  6
CONTINUOUS
 62
     7
  5
EF
 10
956161.446365
 20
7310097.50598
 30
0.0
  0
SEQEND
  8
0
  6
CONTINUOUS
 62
     7
  5
F0
  0
POLYLINE
  8
9
  6
DASHED
 62
     3
  5
F2
 66
     1
 10
0.0
 20
0.0
 30
0.0
  0
VERTEX
  8
9
  6
DASHED
 62
     3
  5
F3
 10
955188.724
 20
7313805.654
 30
0.0
  0
VERTEX
  8
9
  6
DASHED
 62
     3
  5
F4
 10
956937.912
 20
7313754.313
 30
0.0
  0
VERTEX
  8
9
  6
DASHED
 62
     3
  5
F5
 10
956489.831
 20
7311266.446
 30
0.0
  0
VERTEX
  8
9
  6
DASHED
 62
     3
  5
F6
 10
956114.959
 20
7311277.449
 30
0.0
  0
SEQEND
  8
9
  6
DASHED
 62
     3
  5
F7
  0
POLYLINE
  8
9
  6
DASHED
 62
     3
  5
F8
 66
     1
 10
0.0
 20
0.0
 30
0.0
  0
VERTEX
  8
9
  6
DASHED
 62
     3
  5
F9
 10
955868.215
 20
7311284.691
 30
0.0
  0
VERTEX
  8
9
  6
DASHED
 62
     3
  5
FA
 10
955490.245
 20
7311295.785
 30
0.0
  0
VERTEX
  8
9
  6
DASHED
 62
     3
  5
FB
 10
955188.724
 20
7313805.654
 30
0.0
  0
SEQEND
  8
9
  6
DASHED
 62
     3
  5
FC
  0
LINE
  8
16
  6
CONTINUOUS
 62
     3
  5
FE
 10
956096.93
 20
7311277.978
 30
0.0
 11
956064.903
 21
7311278.918
 31
0.0
  0
LINE
  8
0
  6
CENTER
 62
     7
  5
FF
 10
956256.316
 20
7311052.335
 30
0.0
 11
956253.677
 21
7310962.428
 31
0.0
  0
LINE
  8
0
  6
CENTER
 62
     7
  5
100
 10
956245.936
 20
7310712.531
 30
0.0
 11
956243.295
 21
7310622.563
 31
0.0
  0
LINE
  8
0
  6
CONTINUOUS
 62
     2
  5
101
 10
956035.914
 20
7310768.734
 30
0.0
 11
956038.112
 21
7310843.622
 31
0.0
  0
LINE
  8
0
  6
CONTINUOUS
 62
     2
  5
102
 10
956257.797
 20
7311052.292
 30
0.0
 11
956419.361
 21
7311047.55
 31
0.0
  0
LINE
  8
0
  6
CONTINUOUS
 62
     2
  5
103
 10
956044.42
 20
7311058.554
 30
0.0
 11
956257.797
 21
7311052.292
 31
0.0
  0
LINE
  8
0
  6
CONTINUOUS
 62
     2
  5
104
 10
956247.417
 20
7310712.488
 30
0.0
 11
956462.878
 21
7310706.164
 31
0.0
  0
LINE
  8
0
  6
CONTINUOUS
 62
     2
  5
105
 10
956244.777
 20
7310622.52
 30
0.0
 11
956421.678
 21
7310617.327
 31
0.0
  0
LINE
  8
0
  6
CONTINUOUS
 62
     2
  5
106
 10
956255.158
 20
7310962.384
 30
0.0
 11
956416.722
 21
7310957.642
 31
0.0
  0
LINE
  8
7
  6
CONTINUOUS
 62
     7
  5
108
 10
954717.223
 20
7311967.841
 30
0.0
 11
958957.413
 21
7311843.388
 31
0.0
  0
POLYLINE
  8
0
  6
CONTINUOUS
 62
     6
  5
109
 66
     1
 10
0.0
 20
0.0
 30
0.0
  0
VERTEX
  8
0
  6
CONTINUOUS
 62
     6
  5
10A
 10
955837.686
 20
7309980.865
 30
0.0
  0
VERTEX
  8
0
  6
CONTINUOUS
 62
     6
  5
10B
 10
955869.467
 20
7311063.689
 30
0.0
  0
VERTEX
  8
0
  6
CONTINUOUS
 62
     6
  5
10C
 10
955894.563
 20
7311062.953
 30
0.0
  0
SEQEND
  8
0
  6
CONTINUOUS
 62
     6
  5
10D
  0
LINE
  8
0
  6
CONTINUOUS
 62
     6
  5
10E
 10
956037.733
 20
7309974.993
 30
0.0
 11
956055.433
 21
7310578.04
 31
0.0
  0
POLYLINE
  8
0
  6
CONTINUOUS
 62
     6
  5
10F
 66
     1
 10
0.0
 20
0.0
 30
0.0
  0
VERTEX
  8
0
  6
CONTINUOUS
 62
     6
  5
110
 10
956059.737
 20
7310724.663
 30
0.0
  0
VERTEX
  8
0
  6
CONTINUOUS
 62
     6
  5
111
 10
956063.207
 20
7310842.885
 30
0.0
  0
VERTEX
  8
0
  6
CONTINUOUS
 62
     6
  5
112
 10
956063.210191
 20
7310842.923584
 30
0.0
 42
-0.414214
  0
VERTEX
  8
0
  6
CONTINUOUS
 62
     6
  5
113
 10
956165.072399
 20
7310938.976797
 30
0.0
  0
VERTEX
  8
0
  6
CONTINUOUS
 62
     6
  5
114
 10
956165.096
 20
7310938.97
 30
0.0
  0
VERTEX
  8
0
  6
CONTINUOUS
 62
     6
  5
115
 10
956166.042
 20
7310938.942
 30
0.0
  0
VERTEX
  8
0
  6
CONTINUOUS
 62
     6
  5
116
 10
956252.507
 20
7310936.404
 30
0.0
  0
VERTEX
  8
0
  6
CONTINUOUS
 62
     6
  5
117
 10
956253.271
 20
7310962.44
 30
0.0
  0
SEQEND
  8
0
  6
CONTINUOUS
 62
     6
  5
118
  0
TEXT
  8
10
  6
CONTINUOUS
 62
     4
  5
11A
 10
957634.883
 20
7314332.939
 30
0.0
 40
13.999
  1
UNSUBDIVIDED
 50
358.3188
  7
ROMANS
 11
957635.293706
 21
7314346.931974
 31
0.0
210
0.0
220
0.0
230
1.0
 73
     3
  0
LINE
  8
7
  6
CONTINUOUS
 62
     7
  5
11B
 10
954660.529
 20
7310036.227
 30
0.0
 11
954661.218
 21
7310059.706
 31
0.0
  0
LINE
  8
7
  6
CONTINUOUS
 62
     7
  5
11C
 10
954661.793
 20
7310079.291
 30
0.0
 11
954717.223
 21
7311967.841
 31
0.0
  0
LINE
  8
0
  6
CONTINUOUS
 62
     7
  5
11D
 10
954117.104
 20
7315275.842
 30
0.0
 11
959075.768
 21
7315130.301
 31
0.0
  0
LINE
  8
0
  6
CONTINUOUS
 62
     7
  5
11E
 10
959196.941
 20
7315135.143
 30
0.0
 11
959202.864
 21
7315134.969
 31
0.0
  0
TEXT
  8
15
  6
CONTINUOUS
 62
    30
  5
120
 10
955846.45
 20
7312159.233
 30
0.0
 40
80.0
  1
CLEAR
 50
358.3188
  7
MONOTXT
210
0.0
220
0.0
230
1.0
  0
TEXT
  8
15
  6
CONTINUOUS
 62
    30
  5
121
 10
955843.369
 20
7312054.279
 30
0.0
 40
80.0
  1
ZONE
 50
358.3188
  7
MONOTXT
210
0.0
220
0.0
230
1.0
  0
TEXT
  8
15
  6
CONTINUOUS
 62
    30
  5
122
 10
955256.976
 20
7312299.522
 30
0.0
 40
64.0
  1
BRL
 50
88.3188
  7
MONOTXT
210
0.0
220
0.0
230
1.0
  0
TEXT
  8
15
  6
CONTINUOUS
 62
    30
  5
123
 10
956885.835
 20
7312451.92
 30
0.0
 40
64.0
  1
BRL
 50
88.3188
  7
MONOTXT
210
0.0
220
0.0
230
1.0
  0
TEXT
  8
15
  6
CONTINUOUS
 62
    30
  5
125
 10
954488.538
 20
7312235.958
 30
0.0
 40
50.0
  1
LUBBOCK
 50
358.3188
  7
ROMANC
 72
     4
 11
954679.533521
 21
7312255.362876
 31
0.0
210
0.0
220
0.0
230
1.0
  0
TEXT
  8
15
  6
CONTINUOUS
 62
    30
  5
126
 10
954340.141
 20
7312165.281
 30
0.0
 40
50.0
  1
INTERNATIONAL
 50
358.3188
  7
ROMANC
 72
     4
 11
954677.323567
 21
7312180.395155
 31
0.0
210
0.0
220
0.0
230
1.0
  0
TEXT
  8
15
  6
CONTINUOUS
 62
    30
  5
127
 10
954498.501
 20
7312085.601
 30
0.0
 40
50.0
  1
AIRPORT
 50
358.3188
  7
ROMANC
 72
     4
 11
954675.131707
 21
7312105.427496
 31
0.0
210
0.0
220
0.0
230
1.0
  0
TEXT
  8
11
  6
CONTINUOUS
 62
     7
  5
129
 10
957766.985
 20
7309950.105
 30
0.0
 40
8.0
  1
2186.78'
 50
358.3188
  7
ROMANS
210
0.0
220
0.0
230
1.0
  0
TEXT
  8
11
  6
CONTINUOUS
 62
     7
  5
12A
 10
957796.472
 20
7312590.534
 30
0.0
 40
8.0
  1
2186.78'
 50
358.3188
  7
ROMANS
210
0.0
220
0.0
230
1.0
  0
TEXT
  8
11
  6
CONTINUOUS
 62
     7
  5
12B
 10
956315.385
 20
7315205.372
 30
0.0
 40
8.0
  1
4907'
 50
358.3188
  7
ROMANS
210
0.0
220
0.0
230
1.0
  0
TEXT
  8
11
  6
CONTINUOUS
 62
     7
  5
12C
 10
954194.367
 20
7313342.895
 30
0.0
 40
8.0
  1
400'
 50
358.3188
  7
ROMANS
210
0.0
220
0.0
230
1.0
  0
TEXT
  8
11
  6
CONTINUOUS
 62
     7
  5
12D
 10
954180.475
 20
7312698.524
 30
0.0
 40
8.0
  1
400'
 50
358.3188
  7
ROMANS
210
0.0
220
0.0
230
1.0
  0
TEXT
  8
11
  6
CONTINUOUS
 62
     7
  5
12E
 10
956789.954
 20
7311375.823
 30
0.0
 40
8.0
  1
2640.7'
 50
88.3188
  7
ROMANS
210
0.0
220
0.0
230
1.0
  0
TEXT
  8
11
  6
CONTINUOUS
 62
     7
  5
12F
 10
959040.839
 20
7313810.183
 30
0.0
 40
8.0
  1
2590'
 50
88.3188
  7
ROMANS
210
0.0
220
0.0
230
1.0
  0
INSERT
  8
11
  6
CONTINUOUS
 62
     7
  5
13D
  2
*D0
 10
954042.868
 20
7315263.318
 30
0.0
 70
     0
 71
     0
  0
TEXT
  8
11
  6
CONTINUOUS
 62
     7
  5
13E
 10
954080.11
 20
7314949.422
 30
0.0
 40
8.0
  1
347.29'        s13%%d19'e
 50
281.502206
  7
ROMANS
210
0.0
220
0.0
230
1.0
  0
TEXT
  8
11
  6
CONTINUOUS
 62
     7
  5
13F
 10
954243.775
 20
7314351.556
 30
0.0
 40
8.0
  1
R=1910.08'         CH=883.43'
 50
88.3188
  7
ROMANS
210
0.0
220
0.0
230
1.0
  0
TEXT
  8
11
  6
CONTINUOUS
 62
     7
  5
140
 10
954045.924
 20
7313929.973
 30
0.0
 40
8.0
  1
354.19'  s13%%d11'w
 50
75.135494
  7
ROMANS
210
0.0
220
0.0
230
1.0
  0
TEXT
  8
11
  6
CONTINUOUS
 62
     7
  5
141
 10
953981.035
 20
7313689.785
 30
0.0
 40
8.0
  1
R=1397.69        CH=322.82'
 50
75.135494
  7
ROMANS
210
0.0
220
0.0
230
1.0
  0
TEXT
  8
11
  6
CONTINUOUS
 62
     7
  5
142
 10
954020.171
 20
7313347.097
 30
0.0
 40
8.0
  1
6.29'
 50
88.3188
  7
ROMANS
210
0.0
220
0.0
230
1.0
  0
TEXT
  8
11
  6
CONTINUOUS
 62
     7
  5
143
 10
954412.315
 20
7313007.216
 30
0.0
 40
8.0
  1
660'
 50
88.3188
  7
ROMANS
210
0.0
220
0.0
230
1.0
  0
TEXT
  8
11
  6
CONTINUOUS
 62
     7
  5
144
 10
953986.997
 20
7312174.339
 30
0.0
 40
8.0
  1
1236.22'
 50
88.3188
  7
ROMANS
210
0.0
220
0.0
230
1.0
  0
INSERT
  8
11
  6
CONTINUOUS
 62
     7
  5
150
  2
*D1
 10
956317.024
 20
7310730.515
 30
0.0
 70
     0
 71
     0
  0
INSERT
  8
11
  6
CONTINUOUS
 62
     7
  5
15A
  2
*D2
 10
956316.134
 20
7310639.198
 30
0.0
 70
     0
 71
     0
  0
INSERT
  8
11
  6
CONTINUOUS
 62
     7
  5
164
  2
*D3
 10
956326.166
 20
7310980.994
 30
0.0
 70
     0
 71
     0
  0
INSERT
  8
11
  6
CONTINUOUS
 62
     7
  5
170
  2
*D4
 10
956327.004
 20
7311070.522
 30
0.0
 70
     0
 71
     0
  0
TEXT
  8
11
  6
CONTINUOUS
 62
     7
  5
171
 10
954087.725
 20
7315296.98
 30
0.0
 40
8.0
  1
7.5'
 50
88.3188
  7
ROMANS
 72
     4
 11
954084.117889
 21
7315310.424614
 31
0.0
210
0.0
220
0.0
230
1.0
  0
TEXT
  8
11
  6
CONTINUOUS
 62
     7
  5
172
 10
959024.721
 20
7315147.355
 30
0.0
 40
8.0
  1
7.5'
 50
88.3188
  7
ROMANS
 72
     4
 11
959021.113889
 21
7315160.799614
 31
0.0
210
0.0
220
0.0
230
1.0
  0
TEXT
  8
11
  6
CONTINUOUS
 62
     7
  5
173
 10
959061.67
 20
7315152.371
 30
0.0
 40
8.0
  1
35'
 50
358.3188
  7
ROMANS
 72
     4
 11
959071.116336
 21
7315156.095464
 31
0.0
210
0.0
220
0.0
230
1.0
  0
TEXT
  8
11
  6
CONTINUOUS
 62
     7
  5
174
 10
958912.672
 20
7309924.918
 30
0.0
 40
8.0
  1
35'
 50
358.3188
  7
ROMANS
 72
     4
 11
958922.118336
 21
7309928.642464
 31
0.0
210
0.0
220
0.0
230
1.0
  0
TEXT
  8
11
  6
CONTINUOUS
 62
     7
  5
175
 10
955017.924
 20
7310049.98
 30
0.0
 40
8.0
  1
20'
 50
88.3188
  7
ROMANS
 72
     4
 11
955014.199536
 21
7310059.426336
 31
0.0
210
0.0
220
0.0
230
1.0
  0
POLYLINE
  8
1
  6
HIDDEN
 62
   253
  5
177
 66
     1
 10
0.0
 20
0.0
 30
0.0
 70
     1
  0
VERTEX
  8
1
  6
HIDDEN
 62
   253
  5
178
 10
953762.587
 20
7310088.282
 30
0.0
  0
VERTEX
  8
1
  6
HIDDEN
 62
   253
  5
179
 10
958824.929
 20
7309950.429
 30
0.0
  0
VERTEX
  8
1
  6
HIDDEN
 62
   253
  5
17A
 10
958968.695
 20
7315168.746
 30
0.0
  0
VERTEX
  8
1
  6
HIDDEN
 62
   253
  5
17B
 10
953926.317
 20
7315330.435
 30
0.0
  0
SEQEND
  8
1
  6
HIDDEN
 62
   253
  5
17C
  0
ARC
  8
6
  6
CONTINUOUS
 62
     7
  5
17E
 10
952243.178079
 20
7314509.669305
 30
0.0
 40
1869.779477
 50
344.893522
 51
11.526456
210
0.0
220
0.0
230
1.0
  0
LINE
  8
6
  6
CONTINUOUS
 62
     7
  5
17F
 10
954048.981
 20
7314022.034
 30
0.0
 11
953958.12
 21
7313679.698
 31
0.0
  0
ARC
  8
6
  6
CONTINUOUS
 62
     7
  5
180
 10
955326.096982
 20
7313334.844476
 30
0.0
 40
1410.774602
 50
165.8511
 51
179.114133
210
0.0
220
0.0
230
1.0
  0
POLYLINE
  8
6
  6
CONTINUOUS
 62
     7
  5
181
 66
     1
 10
0.0
 20
0.0
 30
0.0
  0
VERTEX
  8
6
  6
CONTINUOUS
 62
     7
  5
182
 10
953915.491
 20
7313356.656
 30
0.0
  0
VERTEX
  8
6
  6
CONTINUOUS
 62
     7
  5
183
 10
953869.153
 20
7311421.901
 30
0.0
  0
VERTEX
  8
6
  6
CONTINUOUS
 62
     7
  5
184
 10
953924.442
 20
7310127.691
 30
0.0
  0
SEQEND
  8
6
  6
CONTINUOUS
 62
     7
  5
185
  0
LINE
  8
6
  6
CONTINUOUS
 62
     7
  5
186
 10
954073.838
 20
7314882.977
 30
0.0
 11
953994.491
 21
7315270.925
 31
0.0
  0
TEXT
  8
19
  6
CONTINUOUS
 62
     1
  5
188
 10
954230.747
 20
7310096.436
 30
0.0
 40
24.0
  1
E KEUKA ST
 50
358.3188
  7
ROMANC
 72
     4
 11
954363.885875
 21
7310104.533422
 31
0.0
210
0.0
220
0.0
230
1.0
  0
TEXT
  8
19
  6
CONTINUOUS
 62
     1
  5
189
 10
953795.159
 20
7310385.238
 30
0.0
 40
24.0
  1
INTERSTATE 27
 50
88.3188
  7
ROMANC
210
0.0
220
0.0
230
1.0
  0
TEXT
  8
19
  6
CONTINUOUS
 62
     1
  5
18A
 10
953948.846
 20
7314836.006
 30
0.0
 40
24.0
  1
INTERSTATE 27
 50
88.3188
  7
ROMANC
210
0.0
220
0.0
230
1.0
  0
TEXT
  8
19
  6
CONTINUOUS
 62
     1
  5
18B
 10
954134.012
 20
7315294.032
 30
0.0
 40
24.0
  1
FARM RD 1294 (DREW ST)
 50
358.3188
  7
ROMANC
 72
     4
 11
954414.10459
 21
7315297.816198
 31
0.0
210
0.0
220
0.0
230
1.0
  0
TEXT
  8
19
  6
CONTINUOUS
 62
     1
  5
18C
 10
956081.019
 20
7315237.45
 30
0.0
 40
24.0
  1
FARM RD 1294 (DREW ST)
 50
358.3188
  7
ROMANC
 72
     4
 11
956361.11159
 21
7315241.234198
 31
0.0
210
0.0
220
0.0
230
1.0
  0
TEXT
  8
19
  6
CONTINUOUS
 62
     1
  5
18D
 10
958394.059
 20
7315166.942
 30
0.0
 40
24.0
  1
FARM RD 1294 (DREW ST)
 50
358.3188
  7
ROMANC
 72
     4
 11
958674.15159
 21
7315170.726198
 31
0.0
210
0.0
220
0.0
230
1.0
  0
TEXT
  8
19
  6
CONTINUOUS
 62
     1
  5
18E
 10
959019.505
 20
7314330.422
 30
0.0
 40
24.0
  1
N MARTIN LUTHER KING, JR BLVD
 50
88.3188
  7
ROMANC
 72
     4
 11
959018.365148
 21
7314700.608792
 31
0.0
210
0.0
220
0.0
230
1.0
  0
TEXT
  8
19
  6
CONTINUOUS
 62
     1
  5
18F
 10
958985.303
 20
7311814.826
 30
0.0
 40
24.0
  1
N MARTIN LUTHER KING, JR BLVD
 50
88.3188
  7
ROMANC
 72
     4
 11
958984.163148
 21
7312185.012792
 31
0.0
210
0.0
220
0.0
230
1.0
  0
TEXT
  8
19
  6
CONTINUOUS
 62
     1
  5
190
 10
958934.317
 20
7310030.915
 30
0.0
 40
24.0
  1
N MARTIN LUTHER KING, JR BLVD
 50
88.3188
  7
ROMANC
 72
     4
 11
958933.177148
 21
7310401.101792
 31
0.0
210
0.0
220
0.0
230
1.0
  0
TEXT
  8
13
  6
CONTINUOUS
 62
    14
  5
192
 10
955228.763
 20
7314016.355
 30
0.0
 40
8.0
  1
V3005 P055
 50
358.3188
  7
txt
 72
     4
 11
955267.823582
 21
7314019.210259
 31
0.0
210
0.0
220
0.0
230
1.0
  0
TEXT
  8
22
  6
CONTINUOUS
 62
     3
  5
194
 10
955228.428
 20
7314039.673
 30
0.0
 40
6.0
  1
UTILITY EASEMENT
 50
358.3188
  7
txt
 72
     4
 11
955273.376696
 21
7314041.355007
 31
0.0
210
0.0
220
0.0
230
1.0
  0
POLYLINE
  8
21
  6
DASHDOT
 62
     7
  5
196
 66
     1
 10
0.0
 20
0.0
 30
0.0
 70
     1
  0
VERTEX
  8
21
  6
DASHDOT
 62
     7
  5
197
 10
953821.438
 20
7315343.196
 30
0.0
  0
VERTEX
  8
21
  6
DASHDOT
 62
     7
  5
198
 10
956899.112
 20
7315252.864
 30
0.0
  0
VERTEX
  8
21
  6
DASHDOT
 62
     7
  5
199
 10
956821.659
 20
7312614.0
 30
0.0
  0
VERTEX
  8
21
  6
DASHDOT
 62
     7
  5
19A
 10
953743.985
 20
7312704.333
 30
0.0
  0
SEQEND
  8
21
  6
DASHDOT
 62
     7
  5
19B
  0
ARC
  8
0
  6
CONTINUOUS
 62
     2
  5
19C
 10
956458.80554
 20
7310892.440095
 30
0.0
 40
299.217
 50
0.482672
 51
48.199278
210
0.0
220
0.0
230
1.0
  0
ARC
  8
0
  6
CONTINUOUS
 62
     2
  5
19D
 10
956458.80554
 20
7310892.440095
 30
0.0
 40
272.716454
 50
0.482672
 51
48.199278
210
0.0
220
0.0
230
1.0
  0
ARC
  8
0
  6
CONTINUOUS
 62
     2
  5
19E
 10
956752.953589
 20
7311656.675421
 30
0.0
 40
474.444028
 50
177.347508
 51
230.806631
210
0.0
220
0.0
230
1.0
  0
ARC
  8
0
  6
CONTINUOUS
 62
     2
  5
19F
 10
956752.953589
 20
7311656.675421
 30
0.0
 40
499.894361
 50
177.347508
 51
230.806631
210
0.0
220
0.0
230
1.0
  0
LINE
  8
0
  6
CONTINUOUS
 62
     2
  5
1A0
 10
956453.134
 20
7311288.973
 30
0.0
 11
956658.246
 21
7311115.497
 31
0.0
  0
LINE
  8
0
  6
CONTINUOUS
 62
     2
  5
1A1
 10
956437.051
 20
7311269.248
 30
0.0
 11
956640.582
 21
7311095.741
 31
0.0
  0
POLYLINE
  8
10
  6
CONTINUOUS
 62
     6
  5
1A2
 66
     1
 10
0.0
 20
0.0
 30
0.0
  0
VERTEX
  8
10
  6
CONTINUOUS
 62
     6
  5
1A3
 10
954013.24
 20
7310052.141
 30
0.0
  0
VERTEX
  8
10
  6
CONTINUOUS
 62
     6
  5
1A4
 10
954013.954
 20
7310081.646
 30
0.0
  0
VERTEX
  8
10
  6
CONTINUOUS
 62
     6
  5
1A5
 10
954011.574
 20
7310219.253
 30
0.0
  0
SEQEND
  8
10
  6
CONTINUOUS
 62
     6
  5
1A6
  0
POLYLINE
  8
58
  6
DIVIDE
 62
   216
  5
1A8
 66
     1
 10
0.0
 20
0.0
 30
0.0
  0
VERTEX
  8
58
  6
DIVIDE
 62
   216
  5
1A9
 10
953917.746
 20
7313363.225
 30
0.0
  0
VERTEX
  8
58
  6
DIVIDE
 62
   216
  5
1AA
 10
953917.567
 20
7313356.938
 30
0.0
  0
VERTEX
  8
58
  6
DIVIDE
 62
   216
  5
1AB
 10
954317.395
 20
7313345.203
 30
0.0
  0
VERTEX
  8
58
  6
DIVIDE
 62
   216
  5
1AC
 10
954298.393
 20
7312697.814
 30
0.0
  0
SEQEND
  8
58
  6
DIVIDE
 62
   216
  5
1AD
  0
POLYLINE
  8
58
  6
DIVIDE
 62
   216
  5
1AE
 66
     1
 10
0.0
 20
0.0
 30
0.0
  0
VERTEX
  8
58
  6
DIVIDE
 62
   216
  5
1AF
 10
958957.682
 20
7315142.268
 30
0.0
  0
VERTEX
  8
58
  6
DIVIDE
 62
   216
  5
1B0
 10
954052.794
 20
7315286.23
 30
0.0
  0
VERTEX
  8
58
  6
DIVIDE
 62
   216
  5
1B1
 10
954012.89
 20
7315238.544
 30
0.0
  0
VERTEX
  8
58
  6
DIVIDE
 62
   216
  5
1B2
 10
954082.141
 20
7314898.228
 30
0.0
  0
SEQEND
  8
58
  6
DIVIDE
 62
   216
  5
1B3
  0
POLYLINE
  8
58
  6
DIVIDE
 62
   216
  5
1B4
 66
     1
 10
0.0
 20
0.0
 30
0.0
  0
VERTEX
  8
58
  6
DIVIDE
 62
   216
  5
1B5
 10
954298.393
 20
7312697.814
 30
0.0
  0
VERTEX
  8
58
  6
DIVIDE
 62
   216
  5
1B6
 10
953897.651
 20
7312709.576
 30
0.0
  0
VERTEX
  8
58
  6
DIVIDE
 62
   216
  5
1B7
 10
953862.446
 20
7311470.539
 30
0.0
  0
VERTEX
  8
58
  6
DIVIDE
 62
   216
  5
1B8
 10
954044.387
 20
7310074.282
 30
0.0
  0
SEQEND
  8
58
  6
DIVIDE
 62
   216
  5
1B9
  0
LINE
  8
58
  6
DIVIDE
 62
   216
  5
1BA
 10
954054.656
 20
7314018.767
 30
0.0
 11
953963.795
 21
7313676.431
 31
0.0
  0
ARC
  8
58
  6
DIVIDE
 62
   216
  5
1BB
 10
955314.710787
 20
7313317.875431
 30
0.0
 40
1397.689754
 50
165.135458
 51
178.398492
210
0.0
220
0.0
230
1.0
  0
ARC
  8
58
  6
DIVIDE
 62
   216
  5
1BC
 10
952210.592079
 20
7314516.557305
 30
0.0
 40
1910.069876
 50
344.893522
 51
11.526456
210
0.0
220
0.0
230
1.0
  0
POLYLINE
  8
58
  6
DIVIDE
 62
   216
  5
1BD
 66
     1
 10
0.0
 20
0.0
 30
0.0
  0
VERTEX
  8
58
  6
DIVIDE
 62
   216
  5
1BE
 10
956618.383
 20
7309977.975
 30
0.0
  0
VERTEX
  8
58
  6
DIVIDE
 62
   216
  5
1BF
 10
956695.857
 20
7312617.539
 30
0.0
  0
VERTEX
  8
58
  6
DIVIDE
 62
   216
  5
1C0
 10
958881.695
 20
7312553.382
 30
0.0
  0
VERTEX
  8
58
  6
DIVIDE
 62
   216
  5
1C1
 10
958957.682
 20
7315142.268
 30
0.0
  0
SEQEND
  8
58
  6
DIVIDE
 62
   216
  5
1C2
  0
ARC
  8
6
  6
CONTINUOUS
 62
     7
  5
1C3
 10
961850.873516
 20
7309833.487366
 30
0.0
 40
2947.842218
 50
173.015042
 51
178.26435
210
0.0
220
0.0
230
1.0
  0
ARC
  8
6
  6
CONTINUOUS
 62
     7
  5
1C4
 10
951075.580084
 20
7310886.977358
 30
0.0
 40
7880.015949
 50
354.935058
 51
358.415981
210
0.0
220
0.0
230
1.0
  0
ARC
  8
6
  6
CONTINUOUS
 62
     7
  5
1C5
 10
961850.873516
 20
7309833.487366
 30
0.0
 40
2875.075692
 50
173.015042
 51
178.26435
210
0.0
220
0.0
230
1.0
  0
ARC
  8
6
  6
CONTINUOUS
 62
     7
  5
1C6
 10
951075.580084
 20
7310886.977358
 30
0.0
 40
7952.823807
 50
354.935058
 51
358.415981
210
0.0
220
0.0
230
1.0
  0
LINE
  8
6
  6
CONTINUOUS
 62
     7
  5
1C7
 10
953973.047
 20
7311458.311
 30
0.0
 11
953977.013
 21
7311598.044
 31
0.0
  0
LINE
  8
6
  6
CONTINUOUS
 62
     7
  5
1C8
 10
953977.013
 20
7311598.044
 30
0.0
 11
955133.967
 21
7311567.385
 31
0.0
  0
LINE
  8
6
  6
CONTINUOUS
 62
     7
  5
1C9
 10
955133.967
 20
7311567.385
 30
0.0
 11
955083.248
 21
7310055.667
 31
0.0
  0
LINE
  8
6
  6
CONTINUOUS
 62
     7
  5
1CA
 10
955083.248
 20
7310055.667
 30
0.0
 11
954002.717
 21
7310084.301
 31
0.0
  0
LINE
  8
6
  6
CONTINUOUS
 62
     7
  5
1CB
 10
954002.717
 20
7310084.301
 30
0.0
 11
953973.047
 21
7311458.311
 31
0.0
  0
TEXT
  8
11
  6
CONTINUOUS
 62
     7
  5
1CC
 10
953984.654
 20
7311514.759
 30
0.0
 40
8.0
  1
139.79'
 50
88.37435
  7
txt
 72
     1
 11
953977.278164
 21
7311536.865144
 31
0.0
210
0.0
220
0.0
230
1.0
 73
     3
  0
TEXT
  8
11
  6
CONTINUOUS
 62
     7
  5
1CD
 10
953989.281
 20
7310799.149
 30
0.0
 40
8.0
  1
1374.33
 50
271.237011
  7
txt
 72
     1
 11
953989.788216
 21
7310775.659476
 31
0.0
210
0.0
220
0.0
230
1.0
  0
TEXT
  8
11
  6
CONTINUOUS
 62
     7
  5
1CE
 10
954523.045
 20
7310072.513
 30
0.0
 40
8.0
  1
1080.91'
 50
358.482006
  7
txt
 72
     1
 11
954547.602379
 21
7310071.862225
 31
0.0
210
0.0
220
0.0
230
1.0
  0
TEXT
  8
11
  6
CONTINUOUS
 62
     7
  5
1CF
 10
955105.824
 20
7310788.228
 30
0.0
 40
8.0
  1
1512.58'
 50
88.078417
  7
txt
 72
     1
 11
955106.656189
 21
7310813.032044
 31
0.0
210
0.0
220
0.0
230
1.0
  0
TEXT
  8
11
  6
CONTINUOUS
 62
     7
  5
1D0
 10
954555.428
 20
7311572.713
 30
0.0
 40
8.0
  1
1157.36'
 50
358.482031
  7
txt
 72
     1
 11
954580.29127
 21
7311580.056938
 31
0.0
210
0.0
220
0.0
230
1.0
 73
     3
  0
POLYLINE
  8
21
  6
DASHDOT
 62
     7
  5
1D1
 66
     1
 10
0.0
 20
0.0
 30
0.0
 70
     1
  0
VERTEX
  8
21
  6
DASHDOT
 62
     7
  5
1D2
 10
953993.067
 20
7311597.618
 30
0.0
  0
VERTEX
  8
21
  6
DASHDOT
 62
     7
  5
1D3
 10
953988.768
 20
7311446.15
 30
0.0
  0
VERTEX
  8
21
  6
DASHDOT
 62
     7
  5
1D4
 10
954015.556
 20
7310205.837
 30
0.0
  0
VERTEX
  8
21
  6
DASHDOT
 62
     7
  5
1D5
 10
954061.237
 20
7310082.751
 30
0.0
  0
VERTEX
  8
21
  6
DASHDOT
 62
     7
  5
1D6
 10
954088.168
 20
7310082.037
 30
0.0
  0
VERTEX
  8
21
  6
DASHDOT
 62
     7
  5
1D7
 10
954040.458
 20
7310210.589
 30
0.0
  0
VERTEX
  8
21
  6
DASHDOT
 62
     7
  5
1D8
 10
954013.776
 20
7311446.061
 30
0.0
  0
VERTEX
  8
21
  6
DASHDOT
 62
     7
  5
1D9
 10
954018.058
 20
7311596.956
 30
0.0
  0
SEQEND
  8
21
  6
DASHDOT
 62
     7
  5
1DA
  0
TEXT
  8
22
  6
CONTINUOUS
 62
     3
  5
1DB
 10
954003.982
 20
7311280.837
 30
0.0
 40
6.0
  1
25' UUE
 50
271.237189
  7
txt
 72
     1
 11
954010.333015
 21
7311264.648353
 31
0.0
210
0.0
220
0.0
230
1.0
 73
     3
  0
TEXT
  8
22
  6
CONTINUOUS
 62
     3
  5
1DC
 10
954013.962
 20
7310793.57
 30
0.0
 40
6.0
  1
25' UUE
 50
271.237189
  7
txt
 72
     1
 11
954020.313015
 21
7310777.381353
 31
0.0
210
0.0
220
0.0
230
1.0
 73
     3
  0
TEXT
  8
10
  6
CONTINUOUS
 62
   134
  5
1DD
 10
954564.424
 20
7310820.642
 30
0.0
 40
13.999
  1
1
 50
358.482006
  7
txt
 72
     1
 11
954566.998073
 21
7310834.577701
 31
0.0
210
0.0
220
0.0
230
1.0
 73
     3
  0
TEXT
  8
15
  6
CONTINUOUS
 62
    30
  5
1DE
 10
954418.629
 20
7310813.388
 30
0.0
 40
50.0
  1
TYCO
 50
28.318914
  7
ROMANC
 72
     4
 11
954496.181953
 21
7310883.57773
 31
0.0
210
0.0
220
0.0
230
1.0
  0
ENDSEC
  0
EOF
