  0
SECTION
  2
HEADER
  9
$ACADVER
  1
AC1009
  9
$INSBASE
 10
0.0
 20
0.0
 30
0.0
  9
$EXTMIN
 10
899930.14
 20
7274656.914
 30
0.0
  9
$EXTMAX
 10
905393.263
 20
7280062.667
 30
0.0
  9
$LIMMIN
 10
0.0
 20
0.0
  9
$LIMMAX
 10
12.0
 20
9.0
  9
$ORTHOMODE
 70
     0
  9
$REGENMODE
 70
     1
  9
$FILLMODE
 70
     1
  9
$QTEXTMODE
 70
     0
  9
$MIRRTEXT
 70
     1
  9
$DRAGMODE
 70
     2
  9
$LTSCALE
 40
1.0
  9
$OSMODE
 70
     0
  9
$ATTMODE
 70
     1
  9
$TEXTSIZE
 40
0.2
  9
$TRACEWID
 40
0.05
  9
$TEXTSTYLE
  7
STANDARD
  9
$CLAYER
  8
0
  9
$CELTYPE
  6
CONTINUOUS
  9
$CECOLOR
 62
   256
  9
$DIMSCALE
 40
1.0
  9
$DIMASZ
 40
0.18
  9
$DIMEXO
 40
0.0625
  9
$DIMDLI
 40
0.38
  9
$DIMRND
 40
0.0
  9
$DIMDLE
 40
0.0
  9
$DIMEXE
 40
0.18
  9
$DIMTP
 40
0.0
  9
$DIMTM
 40
0.0
  9
$DIMTXT
 40
0.18
  9
$DIMCEN
 40
0.09
  9
$DIMTSZ
 40
0.0
  9
$DIMTOL
 70
     0
  9
$DIMLIM
 70
     0
  9
$DIMTIH
 70
     1
  9
$DIMTOH
 70
     1
  9
$DIMSE1
 70
     0
  9
$DIMSE2
 70
     0
  9
$DIMTAD
 70
     0
  9
$DIMZIN
 70
     0
  9
$DIMBLK
  1

  9
$DIMASO
 70
     1
  9
$DIMSHO
 70
     1
  9
$DIMPOST
  1

  9
$DIMAPOST
  1

  9
$DIMALT
 70
     0
  9
$DIMALTD
 70
     2
  9
$DIMALTF
 40
25.4
  9
$DIMLFAC
 40
1.0
  9
$DIMTOFL
 70
     0
  9
$DIMTVP
 40
0.0
  9
$DIMTIX
 70
     0
  9
$DIMSOXD
 70
     0
  9
$DIMSAH
 70
     0
  9
$DIMBLK1
  1

  9
$DIMBLK2
  1

  9
$DIMSTYLE
  2
STANDARD
  9
$DIMCLRD
 70
     0
  9
$DIMCLRE
 70
     0
  9
$DIMCLRT
 70
     0
  9
$DIMTFAC
 40
1.0
  9
$DIMGAP
 40
0.09
  9
$LUNITS
 70
     2
  9
$LUPREC
 70
     4
  9
$AXISMODE
 70
     0
  9
$AXISUNIT
 10
0.0
 20
0.0
  9
$SKETCHINC
 40
0.1
  9
$FILLETRAD
 40
0.0
  9
$AUNITS
 70
     0
  9
$AUPREC
 70
     0
  9
$MENU
  1
acad
  9
$ELEVATION
 40
0.0
  9
$PELEVATION
 40
0.0
  9
$THICKNESS
 40
0.0
  9
$LIMCHECK
 70
     0
  9
$BLIPMODE
 70
     1
  9
$CHAMFERA
 40
0.0
  9
$CHAMFERB
 40
0.0
  9
$SKPOLY
 70
     0
  9
$TDCREATE
 40
2453013.904849537
  9
$TDUPDATE
 40
2453013.904849537
  9
$TDINDWG
 40
0.0000000000
  9
$TDUSRTIMER
 40
0.0000000000
  9
$USRTIMER
 70
     1
  9
$ANGBASE
 50
0.0
  9
$ANGDIR
 70
     0
  9
$PDMODE
 70
     0
  9
$PDSIZE
 40
0.0
  9
$PLINEWID
 40
0.0
  9
$COORDS
 70
     0
  9
$SPLFRAME
 70
     0
  9
$SPLINETYPE
 70
     6
  9
$SPLINESEGS
 70
    10
  9
$ATTDIA
 70
     0
  9
$ATTREQ
 70
     1
  9
$HANDLING
 70
     1
  9
$HANDSEED
  5
125
  9
$SURFTAB1
 70
     6
  9
$SURFTAB2
 70
     6
  9
$SURFTYPE
 70
     6
  9
$SURFU
 70
     6
  9
$SURFV
 70
     6
  9
$UCSNAME
  2

  9
$UCSORG
 10
0.0
 20
0.0
 30
0.0
  9
$UCSXDIR
 10
1.0
 20
0.0
 30
0.0
  9
$UCSYDIR
 10
0.0
 20
1.0
 30
0.0
  9
$PUCSNAME
  2

  9
$PUCSORG
 10
0.0
 20
0.0
 30
0.0
  9
$PUCSXDIR
 10
1.0
 20
0.0
 30
0.0
  9
$PUCSYDIR
 10
0.0
 20
1.0
 30
0.0
  9
$USERI1
 70
     0
  9
$USERI2
 70
     0
  9
$USERI3
 70
     0
  9
$USERI4
 70
     0
  9
$USERI5
 70
     0
  9
$USERR1
 40
0.0
  9
$USERR2
 40
0.0
  9
$USERR3
 40
0.0
  9
$USERR4
 40
0.0
  9
$USERR5
 40
0.0
  9
$WORLDVIEW
 70
     1
  9
$SHADEDGE
 70
     3
  9
$SHADEDIF
 70
    70
  9
$TILEMODE
 70
     1
  9
$MAXACTVP
 70
    16
  9
$PINSBASE
 10
0.0
 20
0.0
 30
0.0
  9
$PLIMCHECK
 70
     0
  9
$PEXTMIN
 10
-1.000000E+20
 20
-1.000000E+20
 30
-1.000000E+20
  9
$PEXTMAX
 10
-1.000000E+20
 20
-1.000000E+20
 30
-1.000000E+20
  9
$PLIMMIN
 10
0.0
 20
0.0
  9
$PLIMMAX
 10
12.0
 20
9.0
  9
$UNITMODE
 70
     0
  9
$VISRETAIN
 70
     0
  9
$PLINEGEN
 70
     1
  9
$PSLTSCALE
 70
     0
  9
$TREEDEPTH
 70
  3020
  9
$DWGCODEPAGE
  3
ansi_1252
  0
ENDSEC
  0
SECTION
  2
TABLES
  0
TABLE
  2
VPORT
 70
     1
  0
VPORT
  2
*ACTIVE
 70
     0
 10
0.0
 20
0.0
 11
1.0
 21
1.0
 12
0.0
 22
0.0
 13
0.0
 23
0.0
 14
0.0
 24
0.0
 15
0.0
 25
0.0
 16
0.0
 26
0.0
 36
1.0
 17
902661.701
 27
7277441.289492
 37
0.0
 40
5703.894984
 41
1.464938
 42
50.0
 43
0.004
 44
0.0
 50
0.0
 51
0.0
 71
     0
 72
   100
 73
     1
 74
     0
 75
     0
 76
     0
 77
     0
 78
     0
  0
ENDTAB
  0
TABLE
  2
LTYPE
 70
     7
  0
LTYPE
  2
CONTINUOUS
 70
     0
  3
Solid line
 72
    65
 73
     0
 40
0.0
  0
LTYPE
  2
DOT
 70
    64
  3
. . . . . . . . . . . . . . . . . . . . . . . . . . . . . . . . .
 72
    65
 73
     2
 40
0.25
 49
0.0
 49
-0.25
  0
LTYPE
  2
HIDDEN
 70
    64
  3
__ __ __ __ __ __ __ __ __ __ __ __ __ __ __ __ __ __ __ __ __ 
 72
    65
 73
     2
 40
0.375
 49
0.25
 49
-0.125
  0
LTYPE
  2
DASHED
 70
    64
  3
__ __ __ __ __ __ __ __ __ __ __ __ __ __ __ __ __ __ __ __ __
 72
    65
 73
     2
 40
0.75
 49
0.5
 49
-0.25
  0
LTYPE
  2
DASHDOT
 70
    64
  3
__ . __ . __ . __ . __ . __ . __ . __ . __ . __ . __ . __ . _
 72
    65
 73
     4
 40
1.0
 49
0.5
 49
-0.25
 49
0.0
 49
-0.25
  0
LTYPE
  2
DIVIDE
 70
    64
  3
____ . . ____ . . ____ . . ____ . . ____ . . ____ . . ____ . .
 72
    65
 73
     6
 40
1.25
 49
0.5
 49
-0.25
 49
0.0
 49
-0.25
 49
0.0
 49
-0.25
  0
LTYPE
  2
CENTER
 70
    64
  3
____ _ ____ _ ____ _ ____ _ ____ _ ____ _ ____ _ ____ _ ____ _
 72
    65
 73
     4
 40
2.0
 49
1.25
 49
-0.25
 49
0.25
 49
-0.25
  0
ENDTAB
  0
TABLE
  2
LAYER
 70
    14
  0
LAYER
  2
0
 70
     0
 62
     7
  6
CONTINUOUS
  0
LAYER
  2
CONSTRUCTION_CLASS
 70
     1
 62
     7
  6
CONTINUOUS
  0
LAYER
  2
PATTERN_CLASS
 70
     0
 62
     7
  6
CONTINUOUS
  0
LAYER
  2
6
 70
    64
 62
     7
  6
CONTINUOUS
  0
LAYER
  2
7
 70
    64
 62
     7
  6
CONTINUOUS
  0
LAYER
  2
11
 70
    64
 62
     7
  6
CONTINUOUS
  0
LAYER
  2
1
 70
    64
 62
     7
  6
CONTINUOUS
  0
LAYER
  2
21
 70
    64
 62
     7
  6
CONTINUOUS
  0
LAYER
  2
15
 70
    64
 62
     7
  6
CONTINUOUS
  0
LAYER
  2
22
 70
    64
 62
     7
  6
CONTINUOUS
  0
LAYER
  2
13
 70
    64
 62
     7
  6
CONTINUOUS
  0
LAYER
  2
19
 70
    64
 62
     7
  6
CONTINUOUS
  0
LAYER
  2
8
 70
    64
 62
     7
  6
CONTINUOUS
  0
LAYER
  2
10
 70
    64
 62
     7
  6
CONTINUOUS
  0
ENDTAB
  0
TABLE
  2
STYLE
 70
     4
  0
STYLE
  2
STANDARD
 70
     0
 40
0.0
 41
1.0
 50
0.0
 71
     0
 42
0.0
  3
txt
  4

  0
STYLE
  2
txt
 70
     0
 40
0.2
 41
1.0
 50
0.0
 71
     0
 42
0.2
  3
TXT
  4

  0
STYLE
  2
ROMANC
 70
     0
 40
0.2
 41
1.0
 50
0.0
 71
     0
 42
0.2
  3
ROMANC
  4

  0
STYLE
  2
ROMANS
 70
     0
 40
0.2
 41
1.0
 50
0.0
 71
     0
 42
0.2
  3
ROMANS
  4

  0
ENDTAB
  0
TABLE
  2
VIEW
 70
     0
  0
ENDTAB
  0
TABLE
  2
UCS
 70
     0
  0
ENDTAB
  0
TABLE
  2
APPID
 70
     1
  0
APPID
  2
ACAD
 70
     0
  0
ENDTAB
  0
TABLE
  2
DIMSTYLE
 70
     1
  0
DIMSTYLE
  2
STANDARD
 70
     0
  3

  4

  5

  6

  7

 40
1.0
 41
0.18
 42
0.0625
 43
0.38
 44
0.18
 45
0.0
 46
0.0
 47
0.0
 48
0.0
140
0.18
141
0.09
142
0.0
143
25.4
144
1.0
145
0.0
146
1.0
147
0.09
 71
     0
 72
     0
 73
     1
 74
     1
 75
     0
 76
     0
 77
     0
 78
     0
170
     0
171
     2
172
     0
173
     0
174
     0
175
     0
176
     0
177
     0
178
     0
  0
ENDTAB
  0
ENDSEC
  0
SECTION
  2
BLOCKS
  0
ENDSEC
  0
SECTION
  2
ENTITIES
  0
POLYLINE
  8
6
  6
CONTINUOUS
 62
     7
  5
29
 66
     1
 10
0.0
 20
0.0
 30
0.0
  0
VERTEX
  8
6
  6
CONTINUOUS
 62
     7
  5
2A
 10
905198.95
 20
7274703.45
 30
0.0
  0
VERTEX
  8
6
  6
CONTINUOUS
 62
     7
  5
2B
 10
899991.692
 20
7274871.877
 30
0.0
  0
VERTEX
  8
6
  6
CONTINUOUS
 62
     7
  5
2C
 10
900110.374
 20
7278960.346
 30
0.0
  0
SEQEND
  8
6
  6
CONTINUOUS
 62
     7
  5
2D
  0
LINE
  8
6
  6
CONTINUOUS
 62
     7
  5
2E
 10
900342.567
 20
7280013.762
 30
0.0
 11
901018.254
 21
7279993.172
 31
0.0
  0
LINE
  8
6
  6
CONTINUOUS
 62
     7
  5
2F
 10
900143.185
 20
7279544.617
 30
0.0
 11
901003.785
 21
7279518.393
 31
0.0
  0
LINE
  8
6
  6
CONTINUOUS
 62
     7
  5
30
 10
901019.235
 20
7279532.929
 30
0.0
 11
901032.789
 21
7279977.722
 31
0.0
  0
POLYLINE
  8
6
  6
CONTINUOUS
 62
     7
  5
31
 66
     1
 10
0.0
 20
0.0
 30
0.0
  0
VERTEX
  8
6
  6
CONTINUOUS
 62
     7
  5
32
 10
901093.218
 20
7279990.888
 30
0.0
  0
VERTEX
  8
6
  6
CONTINUOUS
 62
     7
  5
33
 10
901522.019
 20
7279977.822
 30
0.0
  0
VERTEX
  8
6
  6
CONTINUOUS
 62
     7
  5
34
 10
901523.542
 20
7280027.798
 30
0.0
  0
SEQEND
  8
6
  6
CONTINUOUS
 62
     7
  5
35
  0
POLYLINE
  8
6
  6
CONTINUOUS
 62
     7
  5
36
 66
     1
 10
0.0
 20
0.0
 30
0.0
  0
VERTEX
  8
6
  6
CONTINUOUS
 62
     7
  5
37
 10
901093.218
 20
7279990.888
 30
0.0
  0
VERTEX
  8
6
  6
CONTINUOUS
 62
     7
  5
38
 10
901054.536
 20
7278721.477
 30
0.0
  0
VERTEX
  8
6
  6
CONTINUOUS
 62
     7
  5
39
 10
900103.978
 20
7278750.443
 30
0.0
  0
SEQEND
  8
6
  6
CONTINUOUS
 62
     7
  5
3A
  0
LINE
  8
6
  6
CONTINUOUS
 62
     7
  5
3B
 10
900128.649
 20
7279560.067
 30
0.0
 11
900139.614
 21
7279919.9
 31
0.0
  0
LINE
  8
6
  6
CONTINUOUS
 62
     7
  5
3C
 10
900342.567
 20
7280013.762
 30
0.0
 11
900139.614
 21
7279919.9
 31
0.0
  0
LINE
  8
7
  6
CONTINUOUS
 62
     7
  5
3E
 10
900926.296
 20
7279995.974
 30
0.0
 11
900918.682
 21
7279746.091
 31
0.0
  0
LINE
  8
7
  6
CONTINUOUS
 62
     7
  5
3F
 10
900819.346
 20
7279999.233
 30
0.0
 11
900811.731
 21
7279749.349
 31
0.0
  0
LINE
  8
7
  6
CONTINUOUS
 62
     7
  5
40
 10
900712.395
 20
7280002.493
 30
0.0
 11
900704.781
 21
7279752.608
 31
0.0
  0
LINE
  8
7
  6
CONTINUOUS
 62
     7
  5
41
 10
900605.445
 20
7280005.751
 30
0.0
 11
900597.831
 21
7279755.868
 31
0.0
  0
LINE
  8
7
  6
CONTINUOUS
 62
     7
  5
42
 10
900498.495
 20
7280009.011
 30
0.0
 11
900490.881
 21
7279759.126
 31
0.0
  0
LINE
  8
7
  6
CONTINUOUS
 62
     7
  5
43
 10
900391.544
 20
7280012.269
 30
0.0
 11
900383.929
 21
7279762.386
 31
0.0
  0
LINE
  8
7
  6
CONTINUOUS
 62
     7
  5
44
 10
901025.632
 20
7279742.831
 30
0.0
 11
900135.045
 21
7279769.97
 31
0.0
  0
LINE
  8
7
  6
CONTINUOUS
 62
     7
  5
45
 10
900919.681
 20
7279746.06
 30
0.0
 11
900912.828
 21
7279521.164
 31
0.0
  0
LINE
  8
7
  6
CONTINUOUS
 62
     7
  5
46
 10
900785.743
 20
7279750.141
 30
0.0
 11
900778.89
 21
7279525.245
 31
0.0
  0
LINE
  8
7
  6
CONTINUOUS
 62
     7
  5
47
 10
900651.805
 20
7279754.223
 30
0.0
 11
900644.953
 21
7279529.327
 31
0.0
  0
LINE
  8
7
  6
CONTINUOUS
 62
     7
  5
48
 10
900517.867
 20
7279758.304
 30
0.0
 11
900511.015
 21
7279533.408
 31
0.0
  0
LINE
  8
7
  6
CONTINUOUS
 62
     7
  5
49
 10
900383.929
 20
7279762.386
 30
0.0
 11
900377.077
 21
7279537.49
 31
0.0
  0
LINE
  8
7
  6
CONTINUOUS
 62
     7
  5
4A
 10
900131.618
 20
7279657.522
 30
0.0
 11
900380.504
 21
7279649.937
 31
0.0
  0
LINE
  8
7
  6
CONTINUOUS
 62
     7
  5
4B
 10
901010.098
 20
7279233.068
 30
0.0
 11
900119.512
 21
7279260.206
 31
0.0
  0
LINE
  8
7
  6
CONTINUOUS
 62
     7
  5
4C
 10
900897.294
 20
7279011.401
 30
0.0
 11
900911.001
 21
7279461.192
 31
0.0
  0
LINE
  8
7
  6
CONTINUOUS
 62
     7
  5
4D
 10
900763.356
 20
7279015.483
 30
0.0
 11
900777.063
 21
7279465.273
 31
0.0
  0
LINE
  8
7
  6
CONTINUOUS
 62
     7
  5
4E
 10
900629.418
 20
7279019.563
 30
0.0
 11
900643.125
 21
7279469.355
 31
0.0
  0
LINE
  8
7
  6
CONTINUOUS
 62
     7
  5
4F
 10
900495.48
 20
7279023.645
 30
0.0
 11
900509.187
 21
7279473.436
 31
0.0
  0
LINE
  8
7
  6
CONTINUOUS
 62
     7
  5
50
 10
900361.542
 20
7279027.726
 30
0.0
 11
900375.249
 21
7279477.518
 31
0.0
  0
LINE
  8
7
  6
CONTINUOUS
 62
     7
  5
51
 10
900122.938
 20
7279372.654
 30
0.0
 11
900371.823
 21
7279365.07
 31
0.0
  0
LINE
  8
7
  6
CONTINUOUS
 62
     7
  5
52
 10
900895.467
 20
7278951.428
 30
0.0
 11
900888.614
 21
7278726.533
 31
0.0
  0
LINE
  8
7
  6
CONTINUOUS
 62
     7
  5
53
 10
900761.529
 20
7278955.51
 30
0.0
 11
900754.676
 21
7278730.615
 31
0.0
  0
LINE
  8
7
  6
CONTINUOUS
 62
     7
  5
54
 10
900627.591
 20
7278959.591
 30
0.0
 11
900620.738
 21
7278734.696
 31
0.0
  0
LINE
  8
7
  6
CONTINUOUS
 62
     7
  5
55
 10
900493.654
 20
7278963.673
 30
0.0
 11
900486.8
 21
7278738.777
 31
0.0
  0
LINE
  8
7
  6
CONTINUOUS
 62
     7
  5
56
 10
900359.716
 20
7278967.754
 30
0.0
 11
900352.862
 21
7278742.859
 31
0.0
  0
LINE
  8
7
  6
CONTINUOUS
 62
     7
  5
57
 10
900364.969
 20
7279140.175
 30
0.0
 11
900116.085
 21
7279147.759
 31
0.0
  0
LINE
  8
7
  6
CONTINUOUS
 62
     7
  5
58
 10
900366.682
 20
7279196.398
 30
0.0
 11
900117.798
 21
7279203.983
 31
0.0
  0
LINE
  8
7
  6
CONTINUOUS
 62
     7
  5
59
 10
900107.405
 20
7278862.89
 30
0.0
 11
900356.289
 21
7278855.307
 31
0.0
  0
ARC
  8
6
  6
CONTINUOUS
 62
     7
  5
5A
 10
900143.642052
 20
7279559.610188
 30
0.0
 40
15.0
 50
178.2546
 51
268.2546
210
0.0
220
0.0
230
1.0
  0
ARC
  8
6
  6
CONTINUOUS
 62
     7
  5
5B
 10
900140.900808
 20
7279469.651945
 30
0.0
 40
15.0
 50
88.2546
 51
178.2546
210
0.0
220
0.0
230
1.0
  0
LINE
  8
6
  6
CONTINUOUS
 62
     7
  5
5C
 10
901001.958
 20
7279458.421
 30
0.0
 11
900141.357
 21
7279484.645
 31
0.0
  0
ARC
  8
6
  6
CONTINUOUS
 62
     7
  5
5D
 10
901001.501338
 20
7279443.427378
 30
0.0
 40
15.0
 50
358.2546
 51
88.2546
210
0.0
220
0.0
230
1.0
  0
ARC
  8
6
  6
CONTINUOUS
 62
     7
  5
5E
 10
901004.242582
 20
7279533.385622
 30
0.0
 40
15.0
 50
268.2546
 51
358.2546
210
0.0
220
0.0
230
1.0
  0
ARC
  8
6
  6
CONTINUOUS
 62
     7
  5
5F
 10
901017.79651
 20
7279978.179159
 30
0.0
 40
15.0
 50
358.2546
 51
88.2546
210
0.0
220
0.0
230
1.0
  0
LINE
  8
6
  6
CONTINUOUS
 62
     7
  5
60
 10
901003.702
 20
7279023.166
 30
0.0
 11
901016.494
 21
7279442.971
 31
0.0
  0
ARC
  8
6
  6
CONTINUOUS
 62
     7
  5
61
 10
900988.708867
 20
7279023.622242
 30
0.0
 40
15.0
 50
268.2546
 51
358.2546
210
0.0
220
0.0
230
1.0
  0
LINE
  8
6
  6
CONTINUOUS
 62
     7
  5
62
 10
900127.652
 20
7279034.853
 30
0.0
 11
900988.252
 21
7279008.629
 31
0.0
  0
LINE
  8
6
  6
CONTINUOUS
 62
     7
  5
63
 10
900125.908
 20
7279470.108
 30
0.0
 11
900113.115
 21
7279050.303
 31
0.0
  0
ARC
  8
6
  6
CONTINUOUS
 62
     7
  5
64
 10
900128.108337
 20
7279049.846808
 30
0.0
 40
15.0
 50
178.2546
 51
268.2546
210
0.0
220
0.0
230
1.0
  0
ARC
  8
6
  6
CONTINUOUS
 62
     7
  5
65
 10
900125.367093
 20
7278959.888565
 30
0.0
 40
15.0
 50
88.2546
 51
178.2546
210
0.0
220
0.0
230
1.0
  0
LINE
  8
6
  6
CONTINUOUS
 62
     7
  5
66
 10
901061.39
 20
7278946.373
 30
0.0
 11
900125.824
 21
7278974.881
 31
0.0
  0
TEXT
  8
11
  6
CONTINUOUS
 62
     7
  5
69
 10
905197.102
 20
7274658.691
 30
0.0
 40
8.0
  1
65'
 50
88.2546
  7
txt
 72
     4
 11
905193.391626
 21
7274668.25645
 31
0.0
210
0.0
220
0.0
230
1.0
  0
TEXT
  8
11
  6
CONTINUOUS
 62
     7
  5
6A
 10
904310.677
 20
7274681.624
 30
0.0
 40
8.0
  1
65'
 50
88.2546
  7
txt
 72
     4
 11
904306.966626
 21
7274691.18945
 31
0.0
210
0.0
220
0.0
230
1.0
  0
TEXT
  8
11
  6
CONTINUOUS
 62
     7
  5
6B
 10
903481.6
 20
7274710.967
 30
0.0
 40
8.0
  1
65'
 50
88.2546
  7
txt
 72
     4
 11
903477.889626
 21
7274720.53245
 31
0.0
210
0.0
220
0.0
230
1.0
  0
TEXT
  8
11
  6
CONTINUOUS
 62
     7
  5
6C
 10
902281.807
 20
7274754.081
 30
0.0
 40
8.0
  1
65'
 50
88.2546
  7
txt
 72
     4
 11
902278.096626
 21
7274763.64645
 31
0.0
210
0.0
220
0.0
230
1.0
  0
TEXT
  8
11
  6
CONTINUOUS
 62
     7
  5
6D
 10
901489.727
 20
7274778.217
 30
0.0
 40
8.0
  1
65'
 50
88.2546
  7
txt
 72
     4
 11
901486.016626
 21
7274787.78245
 31
0.0
210
0.0
220
0.0
230
1.0
  0
TEXT
  8
11
  6
CONTINUOUS
 62
     7
  5
6E
 10
900001.705
 20
7274817.606
 30
0.0
 40
8.0
  1
65'
 50
88.2546
  7
txt
 72
     4
 11
899997.994626
 21
7274827.17145
 31
0.0
210
0.0
220
0.0
230
1.0
  0
TEXT
  8
11
  6
CONTINUOUS
 62
     7
  5
6F
 10
899958.5
 20
7274860.058
 30
0.0
 40
8.0
  1
40'
 50
358.2546
  7
txt
 72
     4
 11
899968.412289
 21
7274863.757805
 31
0.0
210
0.0
220
0.0
230
1.0
  0
TEXT
  8
11
  6
CONTINUOUS
 62
     7
  5
70
 10
900020.356
 20
7276754.248
 30
0.0
 40
8.0
  1
40'
 50
358.2546
  7
txt
 72
     4
 11
900030.268289
 21
7276757.947805
 31
0.0
210
0.0
220
0.0
230
1.0
  0
TEXT
  8
11
  6
CONTINUOUS
 62
     7
  5
71
 10
900082.976
 20
7278949.959
 30
0.0
 40
8.0
  1
40'
 50
358.2546
  7
txt
 72
     4
 11
900092.888289
 21
7278953.658805
 31
0.0
210
0.0
220
0.0
230
1.0
  0
TEXT
  8
11
  6
CONTINUOUS
 62
     7
  5
72
 10
900074.546
 20
7279062.944
 30
0.0
 40
8.0
  1
40'
 50
358.2546
  7
txt
 72
     4
 11
900084.458289
 21
7279066.643805
 31
0.0
210
0.0
220
0.0
230
1.0
  0
TEXT
  8
11
  6
CONTINUOUS
 62
     7
  5
73
 10
900097.802
 20
7279461.896
 30
0.0
 40
8.0
  1
40'
 50
358.2546
  7
txt
 72
     4
 11
900107.714289
 21
7279465.595805
 31
0.0
210
0.0
220
0.0
230
1.0
  0
TEXT
  8
11
  6
CONTINUOUS
 62
     7
  5
74
 10
900100.005
 20
7279559.291
 30
0.0
 40
8.0
  1
40'
 50
358.2546
  7
txt
 72
     4
 11
900109.917289
 21
7279562.990805
 31
0.0
210
0.0
220
0.0
230
1.0
  0
TEXT
  8
11
  6
CONTINUOUS
 62
     7
  5
75
 10
900110.519
 20
7279904.045
 30
0.0
 40
8.0
  1
40'
 50
358.2546
  7
txt
 72
     4
 11
900120.431289
 21
7279907.744805
 31
0.0
210
0.0
220
0.0
230
1.0
  0
TEXT
  8
11
  6
CONTINUOUS
 62
     7
  5
76
 10
901047.786
 20
7279965.283
 30
0.0
 40
8.0
  1
60'
 50
358.2546
  7
txt
 72
     4
 11
901057.319464
 21
7279968.994349
 31
0.0
210
0.0
220
0.0
230
1.0
  0
TEXT
  8
11
  6
CONTINUOUS
 62
     7
  5
77
 10
901039.477
 20
7279431.752
 30
0.0
 40
8.0
  1
60'
 50
358.2546
  7
txt
 72
     4
 11
901049.010464
 21
7279435.463349
 31
0.0
210
0.0
220
0.0
230
1.0
  0
TEXT
  8
11
  6
CONTINUOUS
 62
     7
  5
78
 10
901040.13
 20
7279531.479
 30
0.0
 40
8.0
  1
60'
 50
358.2546
  7
txt
 72
     4
 11
901049.663464
 21
7279535.190349
 31
0.0
210
0.0
220
0.0
230
1.0
  0
TEXT
  8
11
  6
CONTINUOUS
 62
     7
  5
79
 10
901018.215
 20
7279047.24
 30
0.0
 40
8.0
  1
60'
 50
358.2546
  7
txt
 72
     4
 11
901027.748464
 21
7279050.951349
 31
0.0
210
0.0
220
0.0
230
1.0
  0
TEXT
  8
11
  6
CONTINUOUS
 62
     7
  5
7A
 10
900136.222
 20
7278985.706
 30
0.0
 40
8.0
  1
60'
 50
88.2546
  7
txt
 72
     4
 11
900132.510651
 21
7278995.239464
 31
0.0
210
0.0
220
0.0
230
1.0
  0
TEXT
  8
11
  6
CONTINUOUS
 62
     7
  5
7B
 10
900954.754
 20
7278959.175
 30
0.0
 40
8.0
  1
60'
 50
88.2546
  7
txt
 72
     4
 11
900951.042651
 21
7278968.708464
 31
0.0
210
0.0
220
0.0
230
1.0
  0
TEXT
  8
11
  6
CONTINUOUS
 62
     7
  5
7C
 10
901000.249
 20
7279482.338
 30
0.0
 40
8.0
  1
60'
 50
88.2546
  7
txt
 72
     4
 11
900996.537651
 21
7279491.871464
 31
0.0
210
0.0
220
0.0
230
1.0
  0
TEXT
  8
11
  6
CONTINUOUS
 62
     7
  5
7D
 10
900154.743
 20
7279508.104
 30
0.0
 40
8.0
  1
60'
 50
88.2546
  7
txt
 72
     4
 11
900151.031651
 21
7279517.637464
 31
0.0
210
0.0
220
0.0
230
1.0
  0
TEXT
  8
11
  6
CONTINUOUS
 62
     7
  5
7E
 10
900359.066
 20
7280029.733
 30
0.0
 40
8.0
  1
50'
 50
88.2546
  7
txt
 72
     4
 11
900355.360438
 21
7280039.456376
 31
0.0
210
0.0
220
0.0
230
1.0
  0
TEXT
  8
11
  6
CONTINUOUS
 62
     7
  5
7F
 10
901021.301
 20
7280011.975
 30
0.0
 40
8.0
  1
50'
 50
88.2546
  7
txt
 72
     4
 11
901017.595438
 21
7280021.698376
 31
0.0
210
0.0
220
0.0
230
1.0
  0
TEXT
  8
11
  6
CONTINUOUS
 62
     7
  5
80
 10
901115.095
 20
7280007.458
 30
0.0
 40
8.0
  1
50'
 50
88.2546
  7
txt
 72
     4
 11
901111.389438
 21
7280017.181376
 31
0.0
210
0.0
220
0.0
230
1.0
  0
TEXT
  8
11
  6
CONTINUOUS
 62
     7
  5
81
 10
901520.271
 20
7279995.177
 30
0.0
 40
8.0
  1
50'
 50
88.2546
  7
txt
 72
     4
 11
901516.565438
 21
7280004.900376
 31
0.0
210
0.0
220
0.0
230
1.0
  0
TEXT
  8
11
  6
CONTINUOUS
 62
     7
  5
82
 10
900150.7
 20
7279998.575
 30
0.0
 40
8.0
  1
150'
 50
88.2546
  7
txt
 72
     4
 11
900147.073081
 21
7280010.879178
 31
0.0
210
0.0
220
0.0
230
1.0
  0
TEXT
  8
11
  6
CONTINUOUS
 62
     7
  5
83
 10
901081.992
 20
7279224.928
 30
0.0
 40
8.0
  1
1270'
 50
88.2546
  7
txt
 72
     4
 11
901078.487889
 21
7279241.262308
 31
0.0
210
0.0
220
0.0
230
1.0
  0
TEXT
  8
11
  6
CONTINUOUS
 62
     7
  5
84
 10
901055.656
 20
7278831.499
 30
0.0
 40
8.0
  1
225'
 50
88.2546
  7
txt
 72
     4
 11
901052.073246
 21
7278845.252506
 31
0.0
210
0.0
220
0.0
230
1.0
  0
TEXT
  8
11
  6
CONTINUOUS
 62
     7
  5
85
 10
900366.332
 20
7278842.054
 30
0.0
 40
8.0
  1
225'
 50
88.2546
  7
txt
 72
     4
 11
900362.749246
 21
7278855.807506
 31
0.0
210
0.0
220
0.0
230
1.0
  0
TEXT
  8
11
  6
CONTINUOUS
 62
     7
  5
86
 10
900375.096
 20
7279126.814
 30
0.0
 40
8.0
  1
225'
 50
88.2546
  7
txt
 72
     4
 11
900371.513246
 21
7279140.567506
 31
0.0
210
0.0
220
0.0
230
1.0
  0
TEXT
  8
11
  6
CONTINUOUS
 62
     7
  5
87
 10
900381.32
 20
7279351.624
 30
0.0
 40
8.0
  1
225'
 50
88.2546
  7
txt
 72
     4
 11
900377.737246
 21
7279365.377506
 31
0.0
210
0.0
220
0.0
230
1.0
  0
TEXT
  8
11
  6
CONTINUOUS
 62
     7
  5
88
 10
900905.078
 20
7279330.385
 30
0.0
 40
8.0
  1
225'
 50
88.2546
  7
txt
 72
     4
 11
900901.495246
 21
7279344.138506
 31
0.0
210
0.0
220
0.0
230
1.0
  0
TEXT
  8
11
  6
CONTINUOUS
 62
     7
  5
89
 10
900898.116
 20
7279110.412
 30
0.0
 40
8.0
  1
225'
 50
88.2546
  7
txt
 72
     4
 11
900894.533246
 21
7279124.165506
 31
0.0
210
0.0
220
0.0
230
1.0
  0
TEXT
  8
11
  6
CONTINUOUS
 62
     7
  5
8A
 10
901004.05
 20
7279111.728
 30
0.0
 40
8.0
  1
210'
 50
88.2546
  7
txt
 72
     4
 11
901000.423081
 21
7279124.032178
 31
0.0
210
0.0
220
0.0
230
1.0
  0
TEXT
  8
11
  6
CONTINUOUS
 62
     7
  5
8B
 10
901011.261
 20
7279328.01
 30
0.0
 40
8.0
  1
210'
 50
88.2546
  7
txt
 72
     4
 11
901007.634081
 21
7279340.314178
 31
0.0
210
0.0
220
0.0
230
1.0
  0
TEXT
  8
11
  6
CONTINUOUS
 62
     7
  5
8C
 10
900131.088
 20
7279309.726
 30
0.0
 40
8.0
  1
112.5'
 50
88.2546
  7
txt
 72
     4
 11
900127.602103
 21
7279326.65803
 31
0.0
210
0.0
220
0.0
230
1.0
  0
TEXT
  8
11
  6
CONTINUOUS
 62
     7
  5
8D
 10
900115.773
 20
7278789.216
 30
0.0
 40
8.0
  1
112.5'
 50
88.2546
  7
txt
 72
     4
 11
900112.287103
 21
7278806.14803
 31
0.0
210
0.0
220
0.0
230
1.0
  0
TEXT
  8
11
  6
CONTINUOUS
 62
     7
  5
8E
 10
900119.057
 20
7278888.857
 30
0.0
 40
8.0
  1
97.47'
 50
88.2546
  7
txt
 72
     4
 11
900115.659371
 21
7278908.685686
 31
0.0
210
0.0
220
0.0
230
1.0
  0
TEXT
  8
11
  6
CONTINUOUS
 62
     7
  5
8F
 10
900124.091
 20
7279065.655
 30
0.0
 40
8.0
  1
97.47'
 50
88.2546
  7
txt
 72
     4
 11
900120.693371
 21
7279085.483686
 31
0.0
210
0.0
220
0.0
230
1.0
  0
TEXT
  8
11
  6
CONTINUOUS
 62
     7
  5
90
 10
900134.408
 20
7279404.249
 30
0.0
 40
8.0
  1
97.47'
 50
88.2546
  7
txt
 72
     4
 11
900131.010371
 21
7279424.077686
 31
0.0
210
0.0
220
0.0
230
1.0
  0
TEXT
  8
11
  6
CONTINUOUS
 62
     7
  5
91
 10
900127.108
 20
7279158.836
 30
0.0
 40
8.0
  1
56.25'
 50
88.2546
  7
txt
 72
     4
 11
900123.702696
 21
7279178.412803
 31
0.0
210
0.0
220
0.0
230
1.0
  0
TEXT
  8
11
  6
CONTINUOUS
 62
     7
  5
92
 10
900188.258
 20
7278963.137
 30
0.0
 40
8.0
  1
233.97'
 50
358.2546
  7
txt
 72
     4
 11
900211.863932
 21
7278966.419527
 31
0.0
210
0.0
220
0.0
230
1.0
  0
TEXT
  8
11
  6
CONTINUOUS
 62
     7
  5
93
 10
900221.22
 20
7278749.372
 30
0.0
 40
8.0
  1
249'
 50
358.2546
  7
txt
 72
     4
 11
900234.972506
 21
7278752.954785
 31
0.0
210
0.0
220
0.0
230
1.0
  0
TEXT
  8
11
  6
CONTINUOUS
 62
     7
  5
94
 10
900413.869
 20
7278955.917
 30
0.0
 40
8.0
  1
134'
 50
358.2546
  7
txt
 72
     4
 11
900426.394076
 21
7278959.537188
 31
0.0
210
0.0
220
0.0
230
1.0
  0
TEXT
  8
11
  6
CONTINUOUS
 62
     7
  5
95
 10
900551.932
 20
7278951.408
 30
0.0
 40
8.0
  1
134'
 50
358.2546
  7
txt
 72
     4
 11
900564.457076
 21
7278955.028188
 31
0.0
210
0.0
220
0.0
230
1.0
  0
TEXT
  8
11
  6
CONTINUOUS
 62
     7
  5
96
 10
900681.783
 20
7278947.754
 30
0.0
 40
8.0
  1
134'
 50
358.2546
  7
txt
 72
     4
 11
900694.308076
 21
7278951.374188
 31
0.0
210
0.0
220
0.0
230
1.0
  0
TEXT
  8
11
  6
CONTINUOUS
 62
     7
  5
97
 10
900817.876
 20
7278943.614
 30
0.0
 40
8.0
  1
134'
 50
358.2546
  7
txt
 72
     4
 11
900830.401076
 21
7278947.234188
 31
0.0
210
0.0
220
0.0
230
1.0
  0
TEXT
  8
11
  6
CONTINUOUS
 62
     7
  5
98
 10
900976.706
 20
7278937.527
 30
0.0
 40
8.0
  1
166'
 50
358.2546
  7
txt
 72
     4
 11
900988.664339
 21
7278941.164457
 31
0.0
210
0.0
220
0.0
230
1.0
  0
TEXT
  8
11
  6
CONTINUOUS
 62
     7
  5
99
 10
900932.112
 20
7279013.52
 30
0.0
 40
8.0
  1
90.97'
 50
358.2546
  7
txt
 72
     4
 11
900951.498891
 21
7279016.931092
 31
0.0
210
0.0
220
0.0
230
1.0
  0
TEXT
  8
11
  6
CONTINUOUS
 62
     7
  5
9A
 10
900942.691
 20
7279523.025
 30
0.0
 40
8.0
  1
90.97'
 50
358.2546
  7
txt
 72
     4
 11
900962.077891
 21
7279526.436092
 31
0.0
210
0.0
220
0.0
230
1.0
  0
TEXT
  8
11
  6
CONTINUOUS
 62
     7
  5
9B
 10
900944.662
 20
7279237.266
 30
0.0
 40
8.0
  1
106'
 50
358.2546
  7
txt
 72
     4
 11
900956.777266
 21
7279240.898675
 31
0.0
210
0.0
220
0.0
230
1.0
  0
TEXT
  8
11
  6
CONTINUOUS
 62
     7
  5
9C
 10
900836.447
 20
7279453.496
 30
0.0
 40
8.0
  1
134'
 50
358.2546
  7
txt
 72
     4
 11
900848.972076
 21
7279457.116188
 31
0.0
210
0.0
220
0.0
230
1.0
  0
TEXT
  8
11
  6
CONTINUOUS
 62
     7
  5
9D
 10
900699.795
 20
7279457.04
 30
0.0
 40
8.0
  1
134'
 50
358.2546
  7
txt
 72
     4
 11
900712.320076
 21
7279460.660188
 31
0.0
210
0.0
220
0.0
230
1.0
  0
TEXT
  8
11
  6
CONTINUOUS
 62
     7
  5
9E
 10
900556.931
 20
7279462.325
 30
0.0
 40
8.0
  1
134'
 50
358.2546
  7
txt
 72
     4
 11
900569.456076
 21
7279465.945188
 31
0.0
210
0.0
220
0.0
230
1.0
  0
TEXT
  8
11
  6
CONTINUOUS
 62
     7
  5
9F
 10
900426.411
 20
7279466.296
 30
0.0
 40
8.0
  1
134'
 50
358.2546
  7
txt
 72
     4
 11
900438.936076
 21
7279469.916188
 31
0.0
210
0.0
220
0.0
230
1.0
  0
TEXT
  8
11
  6
CONTINUOUS
 62
     7
  5
A0
 10
900415.003
 20
7279027.688
 30
0.0
 40
8.0
  1
134'
 50
358.2546
  7
txt
 72
     4
 11
900427.528076
 21
7279031.308188
 31
0.0
210
0.0
220
0.0
230
1.0
  0
TEXT
  8
11
  6
CONTINUOUS
 62
     7
  5
A1
 10
900554.808
 20
7279025.445
 30
0.0
 40
8.0
  1
134'
 50
358.2546
  7
txt
 72
     4
 11
900567.333076
 21
7279029.065188
 31
0.0
210
0.0
220
0.0
230
1.0
  0
TEXT
  8
11
  6
CONTINUOUS
 62
     7
  5
A2
 10
900685.253
 20
7279020.701
 30
0.0
 40
8.0
  1
134'
 50
358.2546
  7
txt
 72
     4
 11
900697.778076
 21
7279024.321188
 31
0.0
210
0.0
220
0.0
230
1.0
  0
TEXT
  8
11
  6
CONTINUOUS
 62
     7
  5
A3
 10
900818.249
 20
7279016.64
 30
0.0
 40
8.0
  1
134'
 50
358.2546
  7
txt
 72
     4
 11
900830.774076
 21
7279020.260188
 31
0.0
210
0.0
220
0.0
230
1.0
  0
TEXT
  8
11
  6
CONTINUOUS
 62
     7
  5
A4
 10
900947.302
 20
7279450.118
 30
0.0
 40
8.0
  1
91.03'
 50
358.2546
  7
txt
 72
     4
 11
900965.429475
 21
7279453.567469
 31
0.0
210
0.0
220
0.0
230
1.0
  0
TEXT
  8
11
  6
CONTINUOUS
 62
     7
  5
A5
 10
900198.49
 20
7279471.698
 30
0.0
 40
8.0
  1
233.97'
 50
358.2546
  7
txt
 72
     4
 11
900222.095932
 21
7279474.980527
 31
0.0
210
0.0
220
0.0
230
1.0
  0
TEXT
  8
11
  6
CONTINUOUS
 62
     7
  5
A6
 10
900213.778
 20
7279035.628
 30
0.0
 40
8.0
  1
233.97'
 50
358.2546
  7
txt
 72
     4
 11
900237.383932
 21
7279038.910527
 31
0.0
210
0.0
220
0.0
230
1.0
  0
TEXT
  8
11
  6
CONTINUOUS
 62
     7
  5
A7
 10
900232.891
 20
7279371.975
 30
0.0
 40
8.0
  1
249'
 50
358.2546
  7
txt
 72
     4
 11
900246.643506
 21
7279375.557785
 31
0.0
210
0.0
220
0.0
230
1.0
  0
TEXT
  8
11
  6
CONTINUOUS
 62
     7
  5
A8
 10
900214.262
 20
7279147.183
 30
0.0
 40
8.0
  1
249'
 50
358.2546
  7
txt
 72
     4
 11
900228.014506
 21
7279150.765785
 31
0.0
210
0.0
220
0.0
230
1.0
  0
TEXT
  8
11
  6
CONTINUOUS
 62
     7
  5
A9
 10
900356.911
 20
7280004.074
 30
0.0
 40
8.0
  1
49'
 50
358.2546
  7
txt
 72
     4
 11
900366.665362
 21
7280007.778618
 31
0.0
210
0.0
220
0.0
230
1.0
  0
TEXT
  8
11
  6
CONTINUOUS
 62
     7
  5
AA
 10
900425.123
 20
7280001.382
 30
0.0
 40
8.0
  1
107'
 50
358.2546
  7
txt
 72
     4
 11
900437.459163
 21
7280005.007944
 31
0.0
210
0.0
220
0.0
230
1.0
  0
TEXT
  8
11
  6
CONTINUOUS
 62
     7
  5
AB
 10
900542.728
 20
7279997.172
 30
0.0
 40
8.0
  1
107'
 50
358.2546
  7
txt
 72
     4
 11
900555.064163
 21
7280000.797944
 31
0.0
210
0.0
220
0.0
230
1.0
  0
TEXT
  8
11
  6
CONTINUOUS
 62
     7
  5
AC
 10
900652.285
 20
7279993.833
 30
0.0
 40
8.0
  1
107'
 50
358.2546
  7
txt
 72
     4
 11
900664.621163
 21
7279997.458944
 31
0.0
210
0.0
220
0.0
230
1.0
  0
TEXT
  8
11
  6
CONTINUOUS
 62
     7
  5
AD
 10
900757.552
 20
7279990.632
 30
0.0
 40
8.0
  1
107'
 50
358.2546
  7
txt
 72
     4
 11
900769.888163
 21
7279994.257944
 31
0.0
210
0.0
220
0.0
230
1.0
  0
TEXT
  8
11
  6
CONTINUOUS
 62
     7
  5
AE
 10
900860.378
 20
7279987.493
 30
0.0
 40
8.0
  1
107'
 50
358.2546
  7
txt
 72
     4
 11
900872.714163
 21
7279991.118944
 31
0.0
210
0.0
220
0.0
230
1.0
  0
TEXT
  8
11
  6
CONTINUOUS
 62
     7
  5
AF
 10
900950.638
 20
7279747.0
 30
0.0
 40
8.0
  1
107'
 50
358.2546
  7
txt
 72
     4
 11
900962.974163
 21
7279750.625944
 31
0.0
210
0.0
220
0.0
230
1.0
  0
TEXT
  8
11
  6
CONTINUOUS
 62
     7
  5
B0
 10
900959.155
 20
7279734.413
 30
0.0
 40
8.0
  1
106'
 50
358.2546
  7
txt
 72
     4
 11
900971.270266
 21
7279738.045675
 31
0.0
210
0.0
220
0.0
230
1.0
  0
TEXT
  8
11
  6
CONTINUOUS
 62
     7
  5
B1
 10
900956.01
 20
7279984.578
 30
0.0
 40
8.0
  1
92.03'
 50
358.2546
  7
txt
 72
     4
 11
900975.554817
 21
7279987.984279
 31
0.0
210
0.0
220
0.0
230
1.0
  0
TEXT
  8
11
  6
CONTINUOUS
 62
     7
  5
B2
 10
900836.79
 20
7279526.181
 30
0.0
 40
8.0
  1
134'
 50
358.2546
  7
txt
 72
     4
 11
900849.315076
 21
7279529.801188
 31
0.0
210
0.0
220
0.0
230
1.0
  0
TEXT
  8
11
  6
CONTINUOUS
 62
     7
  5
B3
 10
900700.748
 20
7279530.326
 30
0.0
 40
8.0
  1
134'
 50
358.2546
  7
txt
 72
     4
 11
900713.273076
 21
7279533.946188
 31
0.0
210
0.0
220
0.0
230
1.0
  0
TEXT
  8
11
  6
CONTINUOUS
 62
     7
  5
B4
 10
900573.99
 20
7279534.5
 30
0.0
 40
8.0
  1
134'
 50
358.2546
  7
txt
 72
     4
 11
900586.515076
 21
7279538.120188
 31
0.0
210
0.0
220
0.0
230
1.0
  0
TEXT
  8
11
  6
CONTINUOUS
 62
     7
  5
B5
 10
900433.605
 20
7279540.011
 30
0.0
 40
8.0
  1
134'
 50
358.2546
  7
txt
 72
     4
 11
900446.130076
 21
7279543.631188
 31
0.0
210
0.0
220
0.0
230
1.0
  0
TEXT
  8
11
  6
CONTINUOUS
 62
     7
  5
B6
 10
900228.302
 20
7279545.965
 30
0.0
 40
8.0
  1
234.03'
 50
358.2546
  7
txt
 72
     4
 11
900252.222786
 21
7279549.237933
 31
0.0
210
0.0
220
0.0
230
1.0
  0
TEXT
  8
11
  6
CONTINUOUS
 62
     7
  5
B7
 10
900232.098
 20
7279656.378
 30
0.0
 40
8.0
  1
249'
 50
358.2546
  7
txt
 72
     4
 11
900245.850506
 21
7279659.960785
 31
0.0
210
0.0
220
0.0
230
1.0
  0
TEXT
  8
11
  6
CONTINUOUS
 62
     7
  5
B8
 10
900236.295
 20
7279769.578
 30
0.0
 40
8.0
  1
249'
 50
358.2546
  7
txt
 72
     4
 11
900250.047506
 21
7279773.160785
 31
0.0
210
0.0
220
0.0
230
1.0
  0
TEXT
  8
11
  6
CONTINUOUS
 62
     7
  5
B9
 10
900146.988
 20
7279829.726
 30
0.0
 40
8.0
  1
150'
 50
88.2546
  7
txt
 72
     4
 11
900143.361081
 21
7279842.030178
 31
0.0
210
0.0
220
0.0
230
1.0
  0
TEXT
  8
11
  6
CONTINUOUS
 62
     7
  5
BA
 10
900142.634
 20
7279695.9
 30
0.0
 40
8.0
  1
112.5'
 50
88.2546
  7
txt
 72
     4
 11
900139.148103
 21
7279712.83203
 31
0.0
210
0.0
220
0.0
230
1.0
  0
TEXT
  8
11
  6
CONTINUOUS
 62
     7
  5
BB
 10
900139.521
 20
7279581.778
 30
0.0
 40
8.0
  1
97.47'
 50
88.2546
  7
txt
 72
     4
 11
900136.123371
 21
7279601.606686
 31
0.0
210
0.0
220
0.0
230
1.0
  0
TEXT
  8
11
  6
CONTINUOUS
 62
     7
  5
BC
 10
900391.409
 20
7279637.515
 30
0.0
 40
8.0
  1
225'
 50
88.2546
  7
txt
 72
     4
 11
900387.826246
 21
7279651.268506
 31
0.0
210
0.0
220
0.0
230
1.0
  0
TEXT
  8
11
  6
CONTINUOUS
 62
     7
  5
BD
 10
900913.735
 20
7279627.914
 30
0.0
 40
8.0
  1
225'
 50
88.2546
  7
txt
 72
     4
 11
900910.152246
 21
7279641.667506
 31
0.0
210
0.0
220
0.0
230
1.0
  0
TEXT
  8
11
  6
CONTINUOUS
 62
     7
  5
BE
 10
900918.508
 20
7279847.233
 30
0.0
 40
8.0
  1
250'
 50
88.2546
  7
txt
 72
     4
 11
900914.924271
 21
7279860.95452
 31
0.0
210
0.0
220
0.0
230
1.0
  0
TEXT
  8
11
  6
CONTINUOUS
 62
     7
  5
BF
 10
900384.194
 20
7279868.489
 30
0.0
 40
8.0
  1
250'
 50
88.2546
  7
txt
 72
     4
 11
900380.610271
 21
7279882.21052
 31
0.0
210
0.0
220
0.0
230
1.0
  0
POLYLINE
  8
1
  6
HIDDEN
 62
   253
  5
C1
 66
     1
 10
0.0
 20
0.0
 30
0.0
 70
     1
  0
VERTEX
  8
1
  6
HIDDEN
 62
   253
  5
C2
 10
905393.263
 20
7279905.3
 30
0.0
  0
VERTEX
  8
1
  6
HIDDEN
 62
   253
  5
C3
 10
900096.848
 20
7280062.667
 30
0.0
  0
VERTEX
  8
1
  6
HIDDEN
 62
   253
  5
C4
 10
899930.14
 20
7274817.95
 30
0.0
  0
VERTEX
  8
1
  6
HIDDEN
 62
   253
  5
C5
 10
905223.215
 20
7274656.914
 30
0.0
  0
SEQEND
  8
1
  6
HIDDEN
 62
   253
  5
C6
  0
LINE
  8
6
  6
CONTINUOUS
 62
     7
  5
C7
 10
904912.552
 20
7274712.713
 30
0.0
 11
904916.009
 21
7274826.16
 31
0.0
  0
LINE
  8
6
  6
CONTINUOUS
 62
     7
  5
C8
 10
904916.009
 20
7274826.16
 30
0.0
 11
904936.121
 21
7274825.547
 31
0.0
  0
LINE
  8
6
  6
CONTINUOUS
 62
     7
  5
C9
 10
904942.214
 20
7275025.544
 30
0.0
 11
904936.121
 21
7274825.547
 31
0.0
  0
LINE
  8
6
  6
CONTINUOUS
 62
     7
  5
CA
 10
904509.58
 20
7274724.993
 30
0.0
 11
904519.784
 21
7275059.837
 31
0.0
  0
LINE
  8
6
  6
CONTINUOUS
 62
     7
  5
CB
 10
904519.784
 20
7275059.837
 30
0.0
 11
904927.504
 21
7275047.413
 31
0.0
  0
LINE
  8
6
  6
CONTINUOUS
 62
     7
  5
CC
 10
904927.504
 20
7275047.413
 30
0.0
 11
904942.214
 21
7275025.544
 31
0.0
  0
LINE
  8
7
  6
CONTINUOUS
 62
     7
  5
CD
 10
904916.009
 20
7274826.16
 30
0.0
 11
904778.194
 21
7274830.359
 31
0.0
  0
LINE
  8
7
  6
CONTINUOUS
 62
     7
  5
CE
 10
904778.194
 20
7274830.359
 30
0.0
 11
904774.737
 21
7274716.913
 31
0.0
  0
TEXT
  8
11
  6
CONTINUOUS
 62
     7
  5
CF
 10
904716.613
 20
7275043.265
 30
0.0
 40
8.0
  1
407.91'
 50
358.2546
  7
txt
 72
     4
 11
904738.959517
 21
7275046.585905
 31
0.0
210
0.0
220
0.0
230
1.0
  0
TEXT
  8
11
  6
CONTINUOUS
 62
     7
  5
D0
 10
904826.441
 20
7274818.247
 30
0.0
 40
8.0
  1
137.88'
 50
358.2546
  7
txt
 72
     4
 11
904848.819502
 21
7274821.56693
 31
0.0
210
0.0
220
0.0
230
1.0
  0
TEXT
  8
11
  6
CONTINUOUS
 62
     7
  5
D1
 10
904825.453
 20
7274717.82
 30
0.0
 40
8.0
  1
137.88'
 50
358.2546
  7
txt
 72
     4
 11
904847.831502
 21
7274721.13993
 31
0.0
210
0.0
220
0.0
230
1.0
  0
TEXT
  8
11
  6
CONTINUOUS
 62
     7
  5
D2
 10
904838.272
 20
7274831.28
 30
0.0
 40
8.0
  1
158'
 50
358.2546
  7
txt
 72
     4
 11
904850.608163
 21
7274834.905944
 31
0.0
210
0.0
220
0.0
230
1.0
  0
TEXT
  8
11
  6
CONTINUOUS
 62
     7
  5
D3
 10
904592.895
 20
7274726.827
 30
0.0
 40
8.0
  1
265.28'
 50
358.2546
  7
txt
 72
     4
 11
904616.469947
 21
7274730.110471
 31
0.0
210
0.0
220
0.0
230
1.0
  0
TEXT
  8
11
  6
CONTINUOUS
 62
     7
  5
D4
 10
904918.341
 20
7274815.93
 30
0.0
 40
8.0
  1
20.12'
 50
358.2546
  7
txt
 72
     4
 11
904936.658387
 21
7274819.373682
 31
0.0
210
0.0
220
0.0
230
1.0
  0
TEXT
  8
11
  6
CONTINUOUS
 62
     7
  5
D5
 10
904936.875
 20
7274908.17
 30
0.0
 40
8.0
  1
200.09'
 50
88.2546
  7
txt
 72
     4
 11
904933.588605
 21
7274931.648991
 31
0.0
210
0.0
220
0.0
230
1.0
  0
TEXT
  8
11
  6
CONTINUOUS
 62
     7
  5
D6
 10
904910.419
 20
7274751.156
 30
0.0
 40
8.0
  1
113.50'
 50
88.2546
  7
txt
 72
     4
 11
904907.053961
 21
7274772.054189
 31
0.0
210
0.0
220
0.0
230
1.0
  0
TEXT
  8
11
  6
CONTINUOUS
 62
     7
  5
D7
 10
904526.042
 20
7274882.114
 30
0.0
 40
8.0
  1
335'
 50
88.2546
  7
txt
 72
     4
 11
904522.459246
 21
7274895.867506
 31
0.0
210
0.0
220
0.0
230
1.0
  0
TEXT
  8
11
  6
CONTINUOUS
 62
     7
  5
D8
 10
904788.254
 20
7274753.711
 30
0.0
 40
8.0
  1
113.50'
 50
88.2546
  7
txt
 72
     4
 11
904784.888961
 21
7274774.609189
 31
0.0
210
0.0
220
0.0
230
1.0
  0
LINE
  8
21
  6
DASHDOT
 62
     7
  5
DA
 10
904700.071
 20
7274719.188
 30
0.0
 11
904710.275
 21
7275054.033
 31
0.0
  0
LINE
  8
21
  6
DASHDOT
 62
     7
  5
DB
 10
904680.081
 20
7274719.797
 30
0.0
 11
904690.284
 21
7275054.642
 31
0.0
  0
TEXT
  8
15
  6
CONTINUOUS
 62
    30
  5
DE
 10
904559.156
 20
7274899.839
 30
0.0
 40
37.5
  1
STASH
 50
33.2546
  7
ROMANC
 72
     4
 11
904629.612585
 21
7274968.462185
 31
0.0
210
0.0
220
0.0
230
1.0
  0
TEXT
  8
15
  6
CONTINUOUS
 62
    30
  5
DF
 10
904624.414
 20
7274741.446
 30
0.0
 40
37.5
  1
ADDITION
 50
33.2546
  7
ROMANC
 72
     4
 11
904736.350703
 21
7274837.269505
 31
0.0
210
0.0
220
0.0
230
1.0
  0
TEXT
  8
11
  6
CONTINUOUS
 62
     7
  5
E0
 10
905041.91
 20
7274710.553
 30
0.0
 40
8.0
  1
319.17'
 50
358.2546
  7
txt
 72
     4
 11
905062.682248
 21
7274713.921876
 31
0.0
210
0.0
220
0.0
230
1.0
  0
POLYLINE
  8
21
  6
DASHDOT
 62
     7
  5
E1
 66
     1
 10
0.0
 20
0.0
 30
0.0
 70
     1
  0
VERTEX
  8
21
  6
DASHDOT
 62
     7
  5
E2
 10
900063.773
 20
7277431.055
 30
0.0
  0
VERTEX
  8
21
  6
DASHDOT
 62
     7
  5
E3
 10
902662.566
 20
7277351.864
 30
0.0
  0
VERTEX
  8
21
  6
DASHDOT
 62
     7
  5
E4
 10
902663.481
 20
7277381.85
 30
0.0
  0
VERTEX
  8
21
  6
DASHDOT
 62
     7
  5
E5
 10
900064.687
 20
7277461.042
 30
0.0
  0
SEQEND
  8
21
  6
DASHDOT
 62
     7
  5
E6
  0
TEXT
  8
22
  6
CONTINUOUS
 62
     3
  5
E9
 10
900878.583
 20
7277418.231
 30
0.0
 40
6.0
  1
30'SANITARY SEWER LINE AND UNDERGROUND COMMUNICATIONS CABLE EASEMENT
 50
358.2546
  7
ROMANS
 72
     4
 11
901081.580191
 21
7277415.04658
 31
0.0
210
0.0
220
0.0
230
1.0
  0
POLYLINE
  8
21
  6
DASHDOT
 62
     7
  5
EA
 66
     1
 10
0.0
 20
0.0
 30
0.0
 70
     1
  0
VERTEX
  8
21
  6
DASHDOT
 62
     7
  5
EB
 10
902662.566
 20
7277351.864
 30
0.0
  0
VERTEX
  8
21
  6
DASHDOT
 62
     7
  5
EC
 10
905301.341
 20
7277271.454
 30
0.0
  0
VERTEX
  8
21
  6
DASHDOT
 62
     7
  5
ED
 10
905302.256
 20
7277301.44
 30
0.0
  0
VERTEX
  8
21
  6
DASHDOT
 62
     7
  5
EE
 10
902663.481
 20
7277381.85
 30
0.0
  0
SEQEND
  8
21
  6
DASHDOT
 62
     7
  5
EF
  0
TEXT
  8
22
  6
CONTINUOUS
 62
     3
  5
F0
 10
903494.374
 20
7277338.522
 30
0.0
 40
6.0
  1
30'SANITARY SEWER LINE AND UNDERGROUND COMMUNICATIONS CABLE EASEMENT
 50
358.2546
  7
ROMANS
 72
     4
 11
903697.371191
 21
7277335.33758
 31
0.0
210
0.0
220
0.0
230
1.0
  0
TEXT
  8
13
  6
CONTINUOUS
 62
    14
  5
F2
 10
900315.772
 20
7277123.88
 30
0.0
 40
8.0
  1
V1471 P453
 50
358.2546
  7
txt
 72
     4
 11
900351.089496
 21
7277126.805648
 31
0.0
210
0.0
220
0.0
230
1.0
  0
POLYLINE
  8
6
  6
CONTINUOUS
 62
     7
  5
F3
 66
     1
 10
0.0
 20
0.0
 30
0.0
  0
VERTEX
  8
6
  6
CONTINUOUS
 62
     7
  5
F4
 10
900027.514
 20
7277432.161
 30
0.0
  0
VERTEX
  8
6
  6
CONTINUOUS
 62
     7
  5
F5
 10
900687.208
 20
7277412.058
 30
0.0
  0
VERTEX
  8
6
  6
CONTINUOUS
 62
     7
  5
F6
 10
900667.105
 20
7276752.364
 30
0.0
  0
VERTEX
  8
6
  6
CONTINUOUS
 62
     7
  5
F7
 10
900007.411
 20
7276772.467
 30
0.0
  0
VERTEX
  8
6
  6
CONTINUOUS
 62
     7
  5
F8
 10
900027.514
 20
7277432.161
 30
0.0
  0
SEQEND
  8
6
  6
CONTINUOUS
 62
     7
  5
F9
  0
SOLID
  8
21
  6
DASHDOT
 62
     7
  5
FA
 10
900027.514
 20
7277432.161
 30
0.0
 11
900007.411
 21
7276772.467
 31
0.0
 12
900067.495
 22
7277430.942
 32
0.0
 13
900047.392
 23
7276771.248
 33
0.0
  0
TEXT
  8
13
  6
CONTINUOUS
 62
    14
  5
FB
 10
900043.514
 20
7277130.742
 30
0.0
 40
8.0
  1
V1471 P453
 50
88.2546
  7
txt
 72
     4
 11
900040.588352
 21
7277166.059496
 31
0.0
210
0.0
220
0.0
230
1.0
  0
TEXT
  8
13
  6
CONTINUOUS
 62
    14
  5
FC
 10
901435.361
 20
7277400.265
 30
0.0
 40
8.0
  1
V6086 P122
 50
358.2546
  7
ROMANS
 72
     4
 11
901473.798048
 21
7277403.095587
 31
0.0
210
0.0
220
0.0
230
1.0
  0
TEXT
  8
13
  6
CONTINUOUS
 62
    14
  5
FD
 10
904061.422
 20
7277320.242
 30
0.0
 40
8.0
  1
V6145 P254
 50
358.2546
  7
ROMANS
 72
     4
 11
904099.859048
 21
7277323.072587
 31
0.0
210
0.0
220
0.0
230
1.0
  0
TEXT
  8
19
  6
CONTINUOUS
 62
     1
  5
FF
 10
903060.217
 20
7274729.769
 30
0.0
 40
24.0
  1
 19TH ST       STATE HIGHWAY 114
 50
358.2546
  7
ROMANC
 72
     4
 11
903465.631485
 21
7274729.420616
 31
0.0
210
0.0
220
0.0
230
1.0
  0
TEXT
  8
19
  6
CONTINUOUS
 62
     1
  5
100
 10
901150.541
 20
7274787.962
 30
0.0
 40
24.0
  1
19TH ST   STATE HIGHWAY 114
 50
358.2546
  7
ROMANC
 72
     4
 11
901494.097198
 21
7274789.498587
 31
0.0
210
0.0
220
0.0
230
1.0
  0
TEXT
  8
19
  6
CONTINUOUS
 62
     1
  5
101
 10
899970.951
 20
7274973.827
 30
0.0
 40
24.0
  1
INLER AVE
 50
88.2546
  7
ROMANC
 72
     4
 11
899962.392625
 21
7275086.952159
 31
0.0
210
0.0
220
0.0
230
1.0
  0
TEXT
  8
19
  6
CONTINUOUS
 62
     1
  5
102
 10
900041.661
 20
7276959.757
 30
0.0
 40
24.0
  1
INLER AVE
 50
88.2546
  7
ROMANC
 72
     4
 11
900033.102625
 21
7277072.882159
 31
0.0
210
0.0
220
0.0
230
1.0
  0
TEXT
  8
19
  6
CONTINUOUS
 62
     1
  5
103
 10
900107.66
 20
7279208.802
 30
0.0
 40
24.0
  1
INLER AVE
 50
88.2546
  7
ROMANC
 72
     4
 11
900099.101625
 21
7279321.927159
 31
0.0
210
0.0
220
0.0
230
1.0
  0
TEXT
  8
19
  6
CONTINUOUS
 62
     1
  5
104
 10
901227.435
 20
7280001.417
 30
0.0
 40
24.0
  1
4TH ST
 50
358.2546
  7
ROMANC
 72
     4
 11
901304.390948
 21
7280011.077537
 31
0.0
210
0.0
220
0.0
230
1.0
  0
TEXT
  8
19
  6
CONTINUOUS
 62
     1
  5
105
 10
900458.26
 20
7278984.292
 30
0.0
 40
24.0
  1
8TH ST
 50
358.2546
  7
ROMANC
 72
     4
 11
900534.082474
 21
7278993.987077
 31
0.0
210
0.0
220
0.0
230
1.0
  0
TEXT
  8
19
  6
CONTINUOUS
 62
     1
  5
106
 10
901053.47
 20
7279167.112
 30
0.0
 40
24.0
  1
HALL AVE
 50
88.2546
  7
ROMANC
 72
     4
 11
901044.652608
 21
7279271.737104
 31
0.0
210
0.0
220
0.0
230
1.0
  0
CIRCLE
  8
8
  6
CONTINUOUS
 62
     7
  5
108
 10
900128.649012
 20
7279560.067062
 30
0.0
 40
2.0
210
0.0
220
0.0
230
1.0
  0
CIRCLE
  8
8
  6
CONTINUOUS
 62
     7
  5
109
 10
900143.185178
 20
7279544.617148
 30
0.0
 40
2.0
210
0.0
220
0.0
230
1.0
  0
CIRCLE
  8
8
  6
CONTINUOUS
 62
     7
  5
10A
 10
901003.785708
 20
7279518.392581
 30
0.0
 40
2.0
210
0.0
220
0.0
230
1.0
  0
CIRCLE
  8
8
  6
CONTINUOUS
 62
     7
  5
10B
 10
901019.235623
 20
7279532.928748
 30
0.0
 40
2.0
210
0.0
220
0.0
230
1.0
  0
CIRCLE
  8
8
  6
CONTINUOUS
 62
     7
  5
10C
 10
901032.789551
 20
7279977.722285
 30
0.0
 40
2.0
210
0.0
220
0.0
230
1.0
  0
CIRCLE
  8
8
  6
CONTINUOUS
 62
     7
  5
10D
 10
901018.253384
 20
7279993.1722
 30
0.0
 40
2.0
210
0.0
220
0.0
230
1.0
  0
CIRCLE
  8
8
  6
CONTINUOUS
 62
     7
  5
10E
 10
901001.958212
 20
7279458.420419
 30
0.0
 40
2.0
210
0.0
220
0.0
230
1.0
  0
CIRCLE
  8
8
  6
CONTINUOUS
 62
     7
  5
10F
 10
901016.494379
 20
7279442.970504
 30
0.0
 40
2.0
210
0.0
220
0.0
230
1.0
  0
CIRCLE
  8
8
  6
CONTINUOUS
 62
     7
  5
110
 10
901003.701907
 20
7279023.165368
 30
0.0
 40
2.0
210
0.0
220
0.0
230
1.0
  0
CIRCLE
  8
8
  6
CONTINUOUS
 62
     7
  5
111
 10
900988.251993
 20
7279008.629201
 30
0.0
 40
2.0
210
0.0
220
0.0
230
1.0
  0
CIRCLE
  8
8
  6
CONTINUOUS
 62
     7
  5
112
 10
900141.357682
 20
7279484.644985
 30
0.0
 40
2.0
210
0.0
220
0.0
230
1.0
  0
CIRCLE
  8
8
  6
CONTINUOUS
 62
     7
  5
113
 10
900125.907768
 20
7279470.108819
 30
0.0
 40
2.0
210
0.0
220
0.0
230
1.0
  0
CIRCLE
  8
8
  6
CONTINUOUS
 62
     7
  5
114
 10
900113.115296
 20
7279050.303682
 30
0.0
 40
2.0
210
0.0
220
0.0
230
1.0
  0
CIRCLE
  8
8
  6
CONTINUOUS
 62
     7
  5
115
 10
900127.651463
 20
7279034.853768
 30
0.0
 40
2.0
210
0.0
220
0.0
230
1.0
  0
CIRCLE
  8
8
  6
CONTINUOUS
 62
     7
  5
116
 10
900125.823967
 20
7278974.881605
 30
0.0
 40
2.0
210
0.0
220
0.0
230
1.0
  0
CIRCLE
  8
8
  6
CONTINUOUS
 62
     7
  5
117
 10
900110.374052
 20
7278960.345439
 30
0.0
 40
2.0
210
0.0
220
0.0
230
1.0
  0
TEXT
  8
15
  6
CONTINUOUS
 62
    30
  5
118
 10
900494.768
 20
7279324.291
 30
0.0
 40
50.0
  1
WEST
 50
28.2546
  7
ROMANC
 72
     4
 11
900574.827321
 21
7279395.698297
 31
0.0
210
0.0
220
0.0
230
1.0
  0
TEXT
  8
15
  6
CONTINUOUS
 62
    30
  5
119
 10
900429.528
 20
7279204.086
 30
0.0
 40
50.0
  1
 FOURTH 
 50
28.2546
  7
ROMANC
 72
     4
 11
900610.325163
 21
7279329.632116
 31
0.0
210
0.0
220
0.0
230
1.0
  0
TEXT
  8
15
  6
CONTINUOUS
 62
    30
  5
11A
 10
900524.507
 20
7279169.984
 30
0.0
 40
50.0
  1
STREET
 50
28.2546
  7
ROMANC
 72
     4
 11
900645.83251
 21
7279263.56869
 31
0.0
210
0.0
220
0.0
230
1.0
  0
TEXT
  8
15
  6
CONTINUOUS
 62
    30
  5
11B
 10
900433.259
 20
7279035.801
 30
0.0
 40
50.0
  1
 (Unrecorded)
 50
28.2546
  7
ROMANC
 72
     4
 11
900681.851875
 21
7279197.78208
 31
0.0
210
0.0
220
0.0
230
1.0
  0
TEXT
  8
10
  6
CONTINUOUS
 62
   134
  5
11D
 10
904612.367
 20
7274903.836
 30
0.0
 40
13.999
  1
TRACT    "A"
 50
358.2546
  7
ROMANS
 11
904612.793385
 21
7274917.828505
 31
0.0
210
0.0
220
0.0
230
1.0
 73
     3
  0
TEXT
  8
10
  6
CONTINUOUS
 62
   134
  5
11E
 10
904815.027
 20
7274777.784
 30
0.0
 40
13.999
  1
TRACT
 50
358.2546
  7
ROMANS
 11
904815.453385
 21
7274791.776505
 31
0.0
210
0.0
220
0.0
230
1.0
 73
     3
  0
TEXT
  8
10
  6
CONTINUOUS
 62
   134
  5
11F
 10
904829.349
 20
7274749.221
 30
0.0
 40
13.999
  1
"B"
 50
358.2546
  7
ROMANS
 11
904829.775385
 21
7274763.213505
 31
0.0
210
0.0
220
0.0
230
1.0
 73
     3
  0
TEXT
  8
22
  6
CONTINUOUS
 62
     3
  5
120
 10
904697.15
 20
7274789.771
 30
0.0
 40
8.0
  1
20'  DRAINAGE  EASEMENT
 50
88.2546
  7
ROMANS
 72
     4
 11
904695.913385
 21
7274880.516768
 31
0.0
210
0.0
220
0.0
230
1.0
  0
TEXT
  8
19
  6
CONTINUOUS
 62
     1
  5
121
 10
900488.299
 20
7279488.283
 30
0.0
 40
24.0
  1
6TH
 50
358.2546
  7
ROMANC
 72
     4
 11
900524.457885
 21
7279499.186722
 31
0.0
210
0.0
220
0.0
230
1.0
  0
ENDSEC
  0
EOF
