  0
SECTION
  2
HEADER
  9
$ACADVER
  1
AC1009
  9
$INSBASE
 10
0.0
 20
0.0
 30
0.0
  9
$EXTMIN
 10
909296.096
 20
7237261.768
 30
0.0
  9
$EXTMAX
 10
914782.015
 20
7242807.331
 30
0.0
  9
$LIMMIN
 10
0.0
 20
0.0
  9
$LIMMAX
 10
12.0
 20
9.0
  9
$ORTHOMODE
 70
     0
  9
$REGENMODE
 70
     1
  9
$FILLMODE
 70
     1
  9
$QTEXTMODE
 70
     0
  9
$MIRRTEXT
 70
     1
  9
$DRAGMODE
 70
     2
  9
$LTSCALE
 40
1.0
  9
$OSMODE
 70
     0
  9
$ATTMODE
 70
     1
  9
$TEXTSIZE
 40
0.2
  9
$TRACEWID
 40
0.05
  9
$TEXTSTYLE
  7
STANDARD
  9
$CLAYER
  8
0
  9
$CELTYPE
  6
CONTINUOUS
  9
$CECOLOR
 62
   256
  9
$DIMSCALE
 40
1.0
  9
$DIMASZ
 40
0.18
  9
$DIMEXO
 40
0.0625
  9
$DIMDLI
 40
0.38
  9
$DIMRND
 40
0.0
  9
$DIMDLE
 40
0.0
  9
$DIMEXE
 40
0.18
  9
$DIMTP
 40
0.0
  9
$DIMTM
 40
0.0
  9
$DIMTXT
 40
0.18
  9
$DIMCEN
 40
0.09
  9
$DIMTSZ
 40
0.0
  9
$DIMTOL
 70
     0
  9
$DIMLIM
 70
     0
  9
$DIMTIH
 70
     1
  9
$DIMTOH
 70
     1
  9
$DIMSE1
 70
     0
  9
$DIMSE2
 70
     0
  9
$DIMTAD
 70
     0
  9
$DIMZIN
 70
     0
  9
$DIMBLK
  1

  9
$DIMASO
 70
     1
  9
$DIMSHO
 70
     1
  9
$DIMPOST
  1

  9
$DIMAPOST
  1

  9
$DIMALT
 70
     0
  9
$DIMALTD
 70
     2
  9
$DIMALTF
 40
25.4
  9
$DIMLFAC
 40
1.0
  9
$DIMTOFL
 70
     0
  9
$DIMTVP
 40
0.0
  9
$DIMTIX
 70
     0
  9
$DIMSOXD
 70
     0
  9
$DIMSAH
 70
     0
  9
$DIMBLK1
  1

  9
$DIMBLK2
  1

  9
$DIMSTYLE
  2
STANDARD
  9
$DIMCLRD
 70
     0
  9
$DIMCLRE
 70
     0
  9
$DIMCLRT
 70
     0
  9
$DIMTFAC
 40
1.0
  9
$DIMGAP
 40
0.09
  9
$LUNITS
 70
     2
  9
$LUPREC
 70
     4
  9
$AXISMODE
 70
     0
  9
$AXISUNIT
 10
0.0
 20
0.0
  9
$SKETCHINC
 40
0.1
  9
$FILLETRAD
 40
0.0
  9
$AUNITS
 70
     0
  9
$AUPREC
 70
     0
  9
$MENU
  1
acad
  9
$ELEVATION
 40
0.0
  9
$PELEVATION
 40
0.0
  9
$THICKNESS
 40
0.0
  9
$LIMCHECK
 70
     0
  9
$BLIPMODE
 70
     1
  9
$CHAMFERA
 40
0.0
  9
$CHAMFERB
 40
0.0
  9
$SKPOLY
 70
     0
  9
$TDCREATE
 40
2453013.904629630
  9
$TDUPDATE
 40
2453013.904629630
  9
$TDINDWG
 40
0.0000000000
  9
$TDUSRTIMER
 40
0.0000000000
  9
$USRTIMER
 70
     1
  9
$ANGBASE
 50
0.0
  9
$ANGDIR
 70
     0
  9
$PDMODE
 70
     0
  9
$PDSIZE
 40
0.0
  9
$PLINEWID
 40
0.0
  9
$COORDS
 70
     0
  9
$SPLFRAME
 70
     0
  9
$SPLINETYPE
 70
     6
  9
$SPLINESEGS
 70
    10
  9
$ATTDIA
 70
     0
  9
$ATTREQ
 70
     1
  9
$HANDLING
 70
     1
  9
$HANDSEED
  5
9D
  9
$SURFTAB1
 70
     6
  9
$SURFTAB2
 70
     6
  9
$SURFTYPE
 70
     6
  9
$SURFU
 70
     6
  9
$SURFV
 70
     6
  9
$UCSNAME
  2

  9
$UCSORG
 10
0.0
 20
0.0
 30
0.0
  9
$UCSXDIR
 10
1.0
 20
0.0
 30
0.0
  9
$UCSYDIR
 10
0.0
 20
1.0
 30
0.0
  9
$PUCSNAME
  2

  9
$PUCSORG
 10
0.0
 20
0.0
 30
0.0
  9
$PUCSXDIR
 10
1.0
 20
0.0
 30
0.0
  9
$PUCSYDIR
 10
0.0
 20
1.0
 30
0.0
  9
$USERI1
 70
     0
  9
$USERI2
 70
     0
  9
$USERI3
 70
     0
  9
$USERI4
 70
     0
  9
$USERI5
 70
     0
  9
$USERR1
 40
0.0
  9
$USERR2
 40
0.0
  9
$USERR3
 40
0.0
  9
$USERR4
 40
0.0
  9
$USERR5
 40
0.0
  9
$WORLDVIEW
 70
     1
  9
$SHADEDGE
 70
     3
  9
$SHADEDIF
 70
    70
  9
$TILEMODE
 70
     1
  9
$MAXACTVP
 70
    16
  9
$PINSBASE
 10
0.0
 20
0.0
 30
0.0
  9
$PLIMCHECK
 70
     0
  9
$PEXTMIN
 10
-1.000000E+20
 20
-1.000000E+20
 30
-1.000000E+20
  9
$PEXTMAX
 10
-1.000000E+20
 20
-1.000000E+20
 30
-1.000000E+20
  9
$PLIMMIN
 10
0.0
 20
0.0
  9
$PLIMMAX
 10
12.0
 20
9.0
  9
$UNITMODE
 70
     0
  9
$VISRETAIN
 70
     0
  9
$PLINEGEN
 70
     1
  9
$PSLTSCALE
 70
     0
  9
$TREEDEPTH
 70
  3020
  9
$DWGCODEPAGE
  3
ansi_1252
  0
ENDSEC
  0
SECTION
  2
TABLES
  0
TABLE
  2
VPORT
 70
     1
  0
VPORT
  2
*ACTIVE
 70
     0
 10
0.0
 20
0.0
 11
1.0
 21
1.0
 12
0.0
 22
0.0
 13
0.0
 23
0.0
 14
0.0
 24
0.0
 15
0.0
 25
0.0
 16
0.0
 26
0.0
 36
1.0
 17
912039.0555
 27
7240117.867543
 37
0.0
 40
6023.221086
 41
1.439437
 42
50.0
 43
0.004
 44
0.0
 50
0.0
 51
0.0
 71
     0
 72
   100
 73
     1
 74
     0
 75
     0
 76
     0
 77
     0
 78
     0
  0
ENDTAB
  0
TABLE
  2
LTYPE
 70
     7
  0
LTYPE
  2
CONTINUOUS
 70
     0
  3
Solid line
 72
    65
 73
     0
 40
0.0
  0
LTYPE
  2
DOT
 70
    64
  3
. . . . . . . . . . . . . . . . . . . . . . . . . . . . . . . . .
 72
    65
 73
     2
 40
0.25
 49
0.0
 49
-0.25
  0
LTYPE
  2
HIDDEN
 70
    64
  3
__ __ __ __ __ __ __ __ __ __ __ __ __ __ __ __ __ __ __ __ __ 
 72
    65
 73
     2
 40
0.375
 49
0.25
 49
-0.125
  0
LTYPE
  2
DASHED
 70
    64
  3
__ __ __ __ __ __ __ __ __ __ __ __ __ __ __ __ __ __ __ __ __
 72
    65
 73
     2
 40
0.75
 49
0.5
 49
-0.25
  0
LTYPE
  2
DASHDOT
 70
    64
  3
__ . __ . __ . __ . __ . __ . __ . __ . __ . __ . __ . __ . _
 72
    65
 73
     4
 40
1.0
 49
0.5
 49
-0.25
 49
0.0
 49
-0.25
  0
LTYPE
  2
DIVIDE
 70
    64
  3
____ . . ____ . . ____ . . ____ . . ____ . . ____ . . ____ . .
 72
    65
 73
     6
 40
1.25
 49
0.5
 49
-0.25
 49
0.0
 49
-0.25
 49
0.0
 49
-0.25
  0
LTYPE
  2
CENTER
 70
    64
  3
____ _ ____ _ ____ _ ____ _ ____ _ ____ _ ____ _ ____ _ ____ _
 72
    65
 73
     4
 40
2.0
 49
1.25
 49
-0.25
 49
0.25
 49
-0.25
  0
ENDTAB
  0
TABLE
  2
LAYER
 70
    13
  0
LAYER
  2
0
 70
     0
 62
     7
  6
CONTINUOUS
  0
LAYER
  2
CONSTRUCTION_CLASS
 70
     0
 62
     7
  6
CONTINUOUS
  0
LAYER
  2
PATTERN_CLASS
 70
     0
 62
     7
  6
CONTINUOUS
  0
LAYER
  2
1
 70
    64
 62
     7
  6
CONTINUOUS
  0
LAYER
  2
6
 70
    64
 62
     7
  6
CONTINUOUS
  0
LAYER
  2
19
 70
    64
 62
     7
  6
CONTINUOUS
  0
LAYER
  2
11
 70
    64
 62
     7
  6
CONTINUOUS
  0
LAYER
  2
15
 70
    64
 62
     7
  6
CONTINUOUS
  0
LAYER
  2
21
 70
    64
 62
     7
  6
CONTINUOUS
  0
LAYER
  2
22
 70
    64
 62
     7
  6
CONTINUOUS
  0
LAYER
  2
13
 70
    64
 62
     7
  6
CONTINUOUS
  0
LAYER
  2
10
 70
    64
 62
     7
  6
CONTINUOUS
  0
LAYER
  2
58
 70
    64
 62
     7
  6
CONTINUOUS
  0
ENDTAB
  0
TABLE
  2
STYLE
 70
     4
  0
STYLE
  2
STANDARD
 70
     0
 40
0.0
 41
1.0
 50
0.0
 71
     0
 42
0.0
  3
txt
  4

  0
STYLE
  2
ROMANC
 70
     0
 40
0.2
 41
1.0
 50
0.0
 71
     0
 42
0.2
  3
ROMANC
  4

  0
STYLE
  2
ROMANS
 70
     0
 40
0.2
 41
1.0
 50
0.0
 71
     0
 42
0.2
  3
ROMANS
  4

  0
STYLE
  2
txt
 70
     0
 40
0.2
 41
1.0
 50
0.0
 71
     0
 42
0.2
  3
TXT
  4

  0
ENDTAB
  0
TABLE
  2
VIEW
 70
     0
  0
ENDTAB
  0
TABLE
  2
UCS
 70
     0
  0
ENDTAB
  0
TABLE
  2
APPID
 70
     1
  0
APPID
  2
ACAD
 70
     0
  0
ENDTAB
  0
TABLE
  2
DIMSTYLE
 70
     1
  0
DIMSTYLE
  2
STANDARD
 70
     0
  3

  4

  5

  6

  7

 40
1.0
 41
0.18
 42
0.0625
 43
0.38
 44
0.18
 45
0.0
 46
0.0
 47
0.0
 48
0.0
140
0.18
141
0.09
142
0.0
143
25.4
144
1.0
145
0.0
146
1.0
147
0.09
 71
     0
 72
     0
 73
     1
 74
     1
 75
     0
 76
     0
 77
     0
 78
     0
170
     0
171
     2
172
     0
173
     0
174
     0
175
     0
176
     0
177
     0
178
     0
  0
ENDTAB
  0
ENDSEC
  0
SECTION
  2
BLOCKS
  0
ENDSEC
  0
SECTION
  2
ENTITIES
  0
POLYLINE
  8
1
  6
HIDDEN
 62
   253
  5
29
 66
     1
 10
0.0
 20
0.0
 30
0.0
  0
VERTEX
  8
1
  6
HIDDEN
 62
   253
  5
2A
 10
914782.015
 20
7242638.211
 30
0.0
  0
VERTEX
  8
1
  6
HIDDEN
 62
   253
  5
2B
 10
914612.282
 20
7237261.768
 30
0.0
  0
VERTEX
  8
1
  6
HIDDEN
 62
   253
  5
2C
 10
909296.096
 20
7237427.431
 30
0.0
  0
VERTEX
  8
1
  6
HIDDEN
 62
   253
  5
2D
 10
909469.118
 20
7242807.331
 30
0.0
  0
VERTEX
  8
1
  6
HIDDEN
 62
   253
  5
2E
 10
914782.015
 20
7242638.211
 30
0.0
  0
SEQEND
  8
1
  6
HIDDEN
 62
   253
  5
2F
  0
LINE
  8
6
  6
CONTINUOUS
 62
     7
  5
31
 10
909524.154
 20
7242644.801
 30
0.0
 11
914715.897
 21
7242492.044
 31
0.0
  0
LINE
  8
6
  6
CONTINUOUS
 62
     7
  5
32
 10
914715.897
 20
7242492.044
 30
0.0
 11
914639.75
 21
7239898.927
 31
0.0
  0
LINE
  8
6
  6
CONTINUOUS
 62
     7
  5
33
 10
914639.75
 20
7239898.927
 30
0.0
 11
912674.659
 21
7239956.744
 31
0.0
  0
LINE
  8
6
  6
CONTINUOUS
 62
     7
  5
34
 10
912674.659
 20
7239956.744
 30
0.0
 11
912672.058
 21
7239868.322
 31
0.0
  0
LINE
  8
6
  6
CONTINUOUS
 62
     7
  5
35
 10
914639.162
 20
7239878.935
 30
0.0
 11
912783.155
 21
7239933.544
 31
0.0
  0
LINE
  8
6
  6
CONTINUOUS
 62
     7
  5
36
 10
914625.201
 20
7239404.481
 30
0.0
 11
912769.195
 21
7239459.089
 31
0.0
  0
LINE
  8
6
  6
CONTINUOUS
 62
     7
  5
37
 10
914625.201
 20
7239404.481
 30
0.0
 11
912579.767
 21
7239464.662
 31
0.0
  0
LINE
  8
6
  6
CONTINUOUS
 62
     7
  5
38
 10
912579.767
 20
7239464.662
 30
0.0
 11
912582.934
 21
7239572.285
 31
0.0
  0
LINE
  8
6
  6
CONTINUOUS
 62
     7
  5
39
 10
914625.79
 20
7239424.472
 30
0.0
 11
914631.152
 21
7239606.723
 31
0.0
  0
LINE
  8
6
  6
CONTINUOUS
 62
     7
  5
3A
 10
914633.799
 20
7239696.684
 30
0.0
 11
914639.162
 21
7239878.935
 31
0.0
  0
ARC
  8
6
  6
CONTINUOUS
 62
     7
  5
3B
 10
912313.613629
 20
7239875.402058
 30
0.0
 40
358.515073
 50
335.749481
 51
358.868511
210
0.0
220
0.0
230
1.0
  0
LINE
  8
6
  6
CONTINUOUS
 62
     7
  5
3C
 10
912783.155
 20
7239933.544
 30
0.0
 11
912733.176
 21
7239935.014
 31
0.0
  0
LINE
  8
6
  6
CONTINUOUS
 62
     7
  5
3D
 10
912733.176
 20
7239935.014
 30
0.0
 11
912732.046
 21
7239867.138
 31
0.0
  0
LINE
  8
6
  6
CONTINUOUS
 62
     7
  5
3E
 10
914625.79
 20
7239424.472
 30
0.0
 11
912640.005
 21
7239482.898
 31
0.0
  0
LINE
  8
6
  6
CONTINUOUS
 62
     7
  5
3F
 10
912642.401
 20
7239564.309
 30
0.0
 11
912640.005
 21
7239482.898
 31
0.0
  0
LINE
  8
6
  6
CONTINUOUS
 62
     7
  5
40
 10
914616.6
 20
7239622.157
 30
0.0
 11
913048.468
 21
7239668.295
 31
0.0
  0
LINE
  8
6
  6
CONTINUOUS
 62
     7
  5
41
 10
914618.365
 20
7239682.131
 30
0.0
 11
912951.106
 21
7239731.186
 31
0.0
  0
LINE
  8
6
  6
CONTINUOUS
 62
     7
  5
42
 10
913048.468
 20
7239668.295
 30
0.0
 11
912949.241
 21
7239671.215
 31
0.0
  0
LINE
  8
6
  6
CONTINUOUS
 62
     7
  5
43
 10
914625.201
 20
7239404.481
 30
0.0
 11
914563.187
 21
7237293.312
 31
0.0
  0
LINE
  8
6
  6
CONTINUOUS
 62
     7
  5
44
 10
914563.187
 20
7237293.312
 30
0.0
 11
909807.68
 21
7237444.476
 31
0.0
  0
ARC
  8
6
  6
CONTINUOUS
 62
     7
  5
45
 10
910036.401825
 20
7241628.128094
 30
0.0
 40
4189.900036
 50
260.548547
 51
266.870739
210
0.0
220
0.0
230
1.0
  0
TEXT
  8
19
  6
CONTINUOUS
 62
     1
  5
48
 10
912614.757
 20
7239567.482
 30
0.0
 40
24.0
  1
QUINCY
 50
67.314711
  7
ROMANC
 72
     4
 11
912632.326303
 21
7239640.627832
 31
0.0
210
0.0
220
0.0
230
1.0
  0
TEXT
  8
19
  6
CONTINUOUS
 62
     1
  5
49
 10
912713.388
 20
7239812.629
 30
0.0
 40
24.0
  1
AVE
 50
88.314711
  7
ROMANC
 72
     4
 11
912702.493551
 21
7239850.380731
 31
0.0
210
0.0
220
0.0
230
1.0
  0
LINE
  8
6
  6
CONTINUOUS
 62
     7
  5
4A
 10
909524.154
 20
7242644.801
 30
0.0
 11
909348.37
 21
7237495.105
 31
0.0
  0
TEXT
  8
11
  6
CONTINUOUS
 62
     7
  5
4D
 10
912742.011
 20
7239719.524
 30
0.0
 40
8.0
  1
60'
 50
88.314711
  7
ROMANS
 72
     4
 11
912738.28721
 21
7239728.970601
 31
0.0
210
0.0
220
0.0
230
1.0
  0
TEXT
  8
11
  6
CONTINUOUS
 62
     7
  5
4E
 10
914603.481
 20
7239644.226
 30
0.0
 40
8.0
  1
60'
 50
88.314711
  7
ROMANS
 72
     4
 11
914599.75721
 21
7239653.672601
 31
0.0
210
0.0
220
0.0
230
1.0
  0
TEXT
  8
11
  6
CONTINUOUS
 62
     7
  5
4F
 10
912693.314
 20
7239913.344
 30
0.0
 40
8.0
  1
60'
 50
358.314711
  7
ROMANS
 72
     4
 11
912702.760601
 21
7239917.06779
 31
0.0
210
0.0
220
0.0
230
1.0
  0
TEXT
  8
11
  6
CONTINUOUS
 62
     7
  5
50
 10
912601.339
 20
7239500.884
 30
0.0
 40
8.0
  1
60'
 50
358.314711
  7
ROMANS
 72
     4
 11
912610.785601
 21
7239504.60779
 31
0.0
210
0.0
220
0.0
230
1.0
  0
TEXT
  8
11
  6
CONTINUOUS
 62
     7
  5
51
 10
912759.755
 20
7239934.987
 30
0.0
 40
8.0
  1
20'
 50
88.314711
  7
ROMANS
 72
     4
 11
912756.03121
 21
7239944.433601
 31
0.0
210
0.0
220
0.0
230
1.0
  0
TEXT
  8
11
  6
CONTINUOUS
 62
     7
  5
52
 10
914619.571
 20
7239880.989
 30
0.0
 40
8.0
  1
20'
 50
88.314711
  7
ROMANS
 72
     4
 11
914615.84721
 21
7239890.435601
 31
0.0
210
0.0
220
0.0
230
1.0
  0
TEXT
  8
11
  6
CONTINUOUS
 62
     7
  5
53
 10
914603.344
 20
7239406.991
 30
0.0
 40
8.0
  1
20'
 50
88.314711
  7
ROMANS
 72
     4
 11
914599.62021
 21
7239416.437601
 31
0.0
210
0.0
220
0.0
230
1.0
  0
TEXT
  8
11
  6
CONTINUOUS
 62
     7
  5
54
 10
912663.02
 20
7239462.838
 30
0.0
 40
8.0
  1
20'
 50
88.314711
  7
ROMANS
 72
     4
 11
912659.29621
 21
7239472.284601
 31
0.0
210
0.0
220
0.0
230
1.0
  0
TEXT
  8
19
  6
CONTINUOUS
 62
     1
  5
55
 10
911771.732
 20
7237353.272
 30
0.0
 40
24.0
  1
FARM RD 1585
 50
358.314711
  7
ROMANC
 72
     4
 11
911926.689011
 21
7237360.717997
 31
0.0
210
0.0
220
0.0
230
1.0
  0
TEXT
  8
19
  6
CONTINUOUS
 62
     1
  5
56
 10
912006.679
 20
7242587.542
 30
0.0
 40
24.0
  1
114th ST
 50
358.314711
  7
ROMANC
 72
     4
 11
912097.414803
 21
7242596.877535
 31
0.0
210
0.0
220
0.0
230
1.0
  0
TEXT
  8
19
  6
CONTINUOUS
 62
     1
  5
57
 10
913574.087
 20
7239670.813
 30
0.0
 40
24.0
  1
122ND ST
 50
358.314711
  7
ROMANC
 72
     4
 11
913669.826637
 21
7239680.00131
 31
0.0
210
0.0
220
0.0
230
1.0
  0
TEXT
  8
19
  6
CONTINUOUS
 62
     1
  5
58
 10
914671.559
 20
7239730.041
 30
0.0
 40
24.0
  1
MILWAUKEE AVE
 50
88.314711
  7
ROMANC
 72
     4
 11
914664.67702
 21
7239904.167716
 31
0.0
210
0.0
220
0.0
230
1.0
  0
ARC
  8
6
  6
CONTINUOUS
 62
     7
  5
59
 10
912959.526654
 20
7239521.774872
 30
0.0
 40
379.965023
 50
147.10215
 51
172.360767
210
0.0
220
0.0
230
1.0
  0
ARC
  8
6
  6
CONTINUOUS
 62
     7
  5
5A
 10
912313.613629
 20
7239875.402058
 30
0.0
 40
418.515073
 50
347.221608
 51
358.868511
210
0.0
220
0.0
230
1.0
  0
ARC
  8
6
  6
CONTINUOUS
 62
     7
  5
5B
 10
912735.875385
 20
7239777.750985
 30
0.0
 40
15.0
 50
160.189172
 51
249.919053
210
0.0
220
0.0
230
1.0
  0
ARC
  8
6
  6
CONTINUOUS
 62
     7
  5
5C
 10
912920.624475
 20
7240288.319433
 30
0.0
 40
557.966187
 50
249.625983
 51
273.13165
210
0.0
220
0.0
230
1.0
  0
ARC
  8
6
  6
CONTINUOUS
 62
     7
  5
5D
 10
912908.870606
 20
7240227.718949
 30
0.0
 40
557.966
 50
248.476569
 51
274.149222
210
0.0
220
0.0
230
1.0
  0
ARC
  8
6
  6
CONTINUOUS
 62
     7
  5
5E
 10
913241.775617
 20
7239421.840551
 30
0.0
 40
616.073729
 50
153.138325
 51
166.629144
210
0.0
220
0.0
230
1.0
  0
ARC
  8
6
  6
CONTINUOUS
 62
     7
  5
5F
 10
912705.711674
 20
7239693.741396
 30
0.0
 40
15.0
 50
95.925639
 51
154.470136
210
0.0
220
0.0
230
1.0
  0
ARC
  8
6
  6
CONTINUOUS
 62
     7
  5
60
 10
914618.806034
 20
7239697.125377
 30
0.0
 40
15.0
 50
268.314711
 51
358.314711
210
0.0
220
0.0
230
1.0
  0
ARC
  8
6
  6
CONTINUOUS
 62
     7
  5
61
 10
914616.15917
 20
7239607.164307
 30
0.0
 40
15.0
 50
358.314711
 51
88.314711
210
0.0
220
0.0
230
1.0
  0
TEXT
  8
15
  6
CONTINUOUS
 62
    30
  5
63
 10
912880.469
 20
7239543.577
 30
0.0
 40
50.0
  1
HAPPY ACRES
 50
28.314711
  7
ROMANC
 72
     4
 11
913138.940176
 21
7239711.232622
 31
0.0
210
0.0
220
0.0
230
1.0
  0
POLYLINE
  8
21
  6
DASHDOT
 62
     7
  5
65
 66
     1
 10
0.0
 20
0.0
 30
0.0
 70
     1
  0
VERTEX
  8
21
  6
DASHDOT
 62
     7
  5
66
 10
912126.676
 20
7242568.366
 30
0.0
  0
VERTEX
  8
21
  6
DASHDOT
 62
     7
  5
67
 10
911915.867
 20
7242574.568
 30
0.0
  0
VERTEX
  8
21
  6
DASHDOT
 62
     7
  5
68
 10
911915.426
 20
7242559.575
 30
0.0
  0
VERTEX
  8
21
  6
DASHDOT
 62
     7
  5
69
 10
912126.235
 20
7242553.372
 30
0.0
  0
SEQEND
  8
21
  6
DASHDOT
 62
     7
  5
6A
  0
TEXT
  8
22
  6
CONTINUOUS
 62
     3
  5
6D
 10
912012.083
 20
7242573.738
 30
0.0
 40
6.0
  1
210.9
 50
358.314711
  7
txt
 72
     1
 11
912023.368116
 21
7242573.405966
 31
0.0
210
0.0
220
0.0
230
1.0
  0
TEXT
  8
13
  6
CONTINUOUS
 62
    14
  5
6F
 10
912024.403
 20
7242557.889
 30
0.0
 40
8.0
  1
V7033 P322 T1
 50
358.314711
  7
txt
 72
     4
 11
912074.136168
 21
7242560.427466
 31
0.0
210
0.0
220
0.0
230
1.0
  0
TEXT
  8
22
  6
CONTINUOUS
 62
     3
  5
70
 10
911958.025
 20
7242550.39
 30
0.0
 40
6.0
  1
15' WATER LINE EASEMENT
 50
358.314711
  7
txt
 72
     4
 11
912020.137388
 21
7242551.563807
 31
0.0
210
0.0
220
0.0
230
1.0
  0
POLYLINE
  8
21
  6
DASHDOT
 62
     7
  5
71
 66
     1
 10
0.0
 20
0.0
 30
0.0
 70
     1
  0
VERTEX
  8
21
  6
DASHDOT
 62
     7
  5
72
 10
914715.897
 20
7242492.044
 30
0.0
  0
VERTEX
  8
21
  6
DASHDOT
 62
     7
  5
73
 10
912127.017
 20
7242568.216
 30
0.0
  0
VERTEX
  8
21
  6
DASHDOT
 62
     7
  5
74
 10
912126.576
 20
7242553.222
 30
0.0
  0
VERTEX
  8
21
  6
DASHDOT
 62
     7
  5
75
 10
914715.456
 20
7242477.051
 30
0.0
  0
SEQEND
  8
21
  6
DASHDOT
 62
     7
  5
76
  0
POLYLINE
  8
21
  6
DASHDOT
 62
     7
  5
77
 66
     1
 10
0.0
 20
0.0
 30
0.0
 70
     1
  0
VERTEX
  8
21
  6
DASHDOT
 62
     7
  5
78
 10
914715.897
 20
7242492.044
 30
0.0
  0
VERTEX
  8
21
  6
DASHDOT
 62
     7
  5
79
 10
914700.904
 20
7242492.485
 30
0.0
  0
VERTEX
  8
21
  6
DASHDOT
 62
     7
  5
7A
 10
914682.964
 20
7241882.749
 30
0.0
  0
VERTEX
  8
21
  6
DASHDOT
 62
     7
  5
7B
 10
914697.957
 20
7241882.308
 30
0.0
  0
SEQEND
  8
21
  6
DASHDOT
 62
     7
  5
7C
  0
TEXT
  8
22
  6
CONTINUOUS
 62
     3
  5
7D
 10
914697.604
 20
7241996.311
 30
0.0
 40
6.0
  1
15' WATER LINE ESMT
 50
88.314711
  7
txt
 72
     4
 11
914696.089835
 21
7242046.855394
 31
0.0
210
0.0
220
0.0
230
1.0
  0
TEXT
  8
22
  6
CONTINUOUS
 62
     3
  5
7E
 10
914690.039
 20
7242164.884
 30
0.0
 40
6.0
  1
610'
 50
88.314711
  7
txt
 72
     4
 11
914687.304984
 21
7242173.968336
 31
0.0
210
0.0
220
0.0
230
1.0
  0
TEXT
  8
13
  6
CONTINUOUS
 62
    14
  5
7F
 10
914704.238
 20
7242179.134
 30
0.0
 40
8.0
  1
V7175 P147 T2
 50
88.314711
  7
txt
 72
     4
 11
914701.667096
 21
7242227.764645
 31
0.0
210
0.0
220
0.0
230
1.0
  0
TEXT
  8
22
  6
CONTINUOUS
 62
     3
  5
80
 10
913358.097
 20
7242534.136
 30
0.0
 40
6.0
  1
2590'
 50
358.314711
  7
txt
 72
     1
 11
913371.15335
 21
7242533.751852
 31
0.0
210
0.0
220
0.0
230
1.0
  0
TEXT
  8
13
  6
CONTINUOUS
 62
    14
  5
81
 10
913382.598
 20
7242518.167
 30
0.0
 40
8.0
  1
V7175 P147 T1
 50
358.314711
  7
txt
 72
     1
 11
913429.928896
 21
7242524.777877
 31
0.0
210
0.0
220
0.0
230
1.0
 73
     3
  0
TEXT
  8
22
  6
CONTINUOUS
 62
     3
  5
82
 10
913489.577
 20
7242504.749
 30
0.0
 40
6.0
  1
15' WATER LINE ESMT
 50
358.314711
  7
txt
 72
     1
 11
913540.209623
 21
7242509.261867
 31
0.0
210
0.0
220
0.0
230
1.0
 73
     3
  0
TEXT
  8
22
  6
CONTINUOUS
 62
     3
  5
83
 10
910572.97
 20
7242591.142
 30
0.0
 40
6.0
  1
15' WATER LINE EASEMENT
 50
358.314711
  7
txt
 72
     4
 11
910635.082388
 21
7242592.315807
 31
0.0
210
0.0
220
0.0
230
1.0
  0
POLYLINE
  8
21
  6
DASHDOT
 62
     7
  5
84
 66
     1
 10
0.0
 20
0.0
 30
0.0
 70
     1
  0
VERTEX
  8
21
  6
DASHDOT
 62
     7
  5
85
 10
911686.576
 20
7242581.168
 30
0.0
  0
VERTEX
  8
21
  6
DASHDOT
 62
     7
  5
86
 10
909467.137
 20
7242646.469
 30
0.0
  0
VERTEX
  8
21
  6
DASHDOT
 62
     7
  5
87
 10
909466.696
 20
7242631.475
 30
0.0
  0
VERTEX
  8
21
  6
DASHDOT
 62
     7
  5
88
 10
911686.135
 20
7242566.174
 30
0.0
  0
SEQEND
  8
21
  6
DASHDOT
 62
     7
  5
89
  0
TEXT
  8
22
  6
CONTINUOUS
 62
     3
  5
8A
 10
910606.347
 20
7242615.097
 30
0.0
 40
6.0
  1
2220.4'
 50
358.314711
  7
txt
 72
     1
 11
910624.197275
 21
7242614.571803
 31
0.0
210
0.0
220
0.0
230
1.0
  0
TEXT
  8
13
  6
CONTINUOUS
 62
    14
  5
8B
 10
910668.393
 20
7242598.91
 30
0.0
 40
8.0
  1
V7033 P322 T2
 50
358.314711
  7
txt
 72
     4
 11
910719.542555
 21
7242601.406792
 31
0.0
210
0.0
220
0.0
230
1.0
  0
POLYLINE
  8
21
  6
DASHDOT
 62
     7
  5
8C
 66
     1
 10
0.0
 20
0.0
 30
0.0
  0
VERTEX
  8
21
  6
DASHDOT
 62
     7
  5
8D
 10
909537.797
 20
7242644.537
 30
0.0
  0
VERTEX
  8
21
  6
DASHDOT
 62
     7
  5
8E
 10
909552.79
 20
7242644.096
 30
0.0
  0
VERTEX
  8
21
  6
DASHDOT
 62
     7
  5
8F
 10
909534.85
 20
7242034.359
 30
0.0
  0
VERTEX
  8
21
  6
DASHDOT
 62
     7
  5
90
 10
909519.856
 20
7242034.801
 30
0.0
  0
VERTEX
  8
21
  6
DASHDOT
 62
     7
  5
91
 10
909537.797
 20
7242644.537
 30
0.0
  0
SEQEND
  8
21
  6
DASHDOT
 62
     7
  5
92
  0
TEXT
  8
13
  6
CONTINUOUS
 62
    14
  5
93
 10
909542.573
 20
7242394.577
 30
0.0
 40
8.0
  1
V7033 P322 T3
 50
88.314711
  7
txt
 72
     4
 11
909540.076208
 21
7242445.726555
 31
0.0
210
0.0
220
0.0
230
1.0
  0
TEXT
  8
22
  6
CONTINUOUS
 62
     3
  5
94
 10
909551.538
 20
7242327.381
 30
0.0
 40
6.0
  1
610'
 50
88.314711
  7
txt
 72
     4
 11
909548.803984
 21
7242336.465336
 31
0.0
210
0.0
220
0.0
230
1.0
  0
TEXT
  8
22
  6
CONTINUOUS
 62
     3
  5
95
 10
909537.696
 20
7242262.769
 30
0.0
 40
6.0
  1
15' WATER LINE EASEMENT
 50
88.314711
  7
txt
 72
     4
 11
909536.522193
 21
7242324.881388
 31
0.0
210
0.0
220
0.0
230
1.0
  0
TEXT
  8
10
  6
CONTINUOUS
 62
   134
  5
97
 10
911999.217
 20
7239969.667
 30
0.0
 40
13.999
  1
UNSUBDIVIDED
 50
358.314711
  7
ROMANS
210
0.0
220
0.0
230
1.0
  0
LINE
  8
58
  6
DIVIDE
 62
   216
  5
99
 10
914753.474
 20
7241925.683
 30
0.0
 11
909471.542
 21
7242081.089
 31
0.0
  0
ENDSEC
  0
EOF
