  0
SECTION
  2
HEADER
  9
$ACADVER
  1
AC1009
  9
$INSBASE
 10
0.0
 20
0.0
 30
0.0
  9
$EXTMIN
 10
919903.284
 20
7236936.168
 30
0.0
  9
$EXTMAX
 10
925338.588
 20
7242469.836
 30
0.0
  9
$LIMMIN
 10
0.0
 20
0.0
  9
$LIMMAX
 10
12.0
 20
9.0
  9
$ORTHOMODE
 70
     0
  9
$REGENMODE
 70
     1
  9
$FILLMODE
 70
     1
  9
$QTEXTMODE
 70
     0
  9
$MIRRTEXT
 70
     1
  9
$DRAGMODE
 70
     2
  9
$LTSCALE
 40
1.0
  9
$OSMODE
 70
     0
  9
$ATTMODE
 70
     1
  9
$TEXTSIZE
 40
0.2
  9
$TRACEWID
 40
0.05
  9
$TEXTSTYLE
  7
STANDARD
  9
$CLAYER
  8
0
  9
$CELTYPE
  6
CONTINUOUS
  9
$CECOLOR
 62
   256
  9
$DIMSCALE
 40
1.0
  9
$DIMASZ
 40
0.18
  9
$DIMEXO
 40
0.0625
  9
$DIMDLI
 40
0.38
  9
$DIMRND
 40
0.0
  9
$DIMDLE
 40
0.0
  9
$DIMEXE
 40
0.18
  9
$DIMTP
 40
0.0
  9
$DIMTM
 40
0.0
  9
$DIMTXT
 40
0.18
  9
$DIMCEN
 40
0.09
  9
$DIMTSZ
 40
0.0
  9
$DIMTOL
 70
     0
  9
$DIMLIM
 70
     0
  9
$DIMTIH
 70
     1
  9
$DIMTOH
 70
     1
  9
$DIMSE1
 70
     0
  9
$DIMSE2
 70
     0
  9
$DIMTAD
 70
     0
  9
$DIMZIN
 70
     0
  9
$DIMBLK
  1

  9
$DIMASO
 70
     1
  9
$DIMSHO
 70
     1
  9
$DIMPOST
  1

  9
$DIMAPOST
  1

  9
$DIMALT
 70
     0
  9
$DIMALTD
 70
     2
  9
$DIMALTF
 40
25.4
  9
$DIMLFAC
 40
1.0
  9
$DIMTOFL
 70
     0
  9
$DIMTVP
 40
0.0
  9
$DIMTIX
 70
     0
  9
$DIMSOXD
 70
     0
  9
$DIMSAH
 70
     0
  9
$DIMBLK1
  1

  9
$DIMBLK2
  1

  9
$DIMSTYLE
  2
STANDARD
  9
$DIMCLRD
 70
     0
  9
$DIMCLRE
 70
     0
  9
$DIMCLRT
 70
     0
  9
$DIMTFAC
 40
1.0
  9
$DIMGAP
 40
0.09
  9
$LUNITS
 70
     2
  9
$LUPREC
 70
     4
  9
$AXISMODE
 70
     0
  9
$AXISUNIT
 10
0.0
 20
0.0
  9
$SKETCHINC
 40
0.1
  9
$FILLETRAD
 40
0.0
  9
$AUNITS
 70
     0
  9
$AUPREC
 70
     0
  9
$MENU
  1
acad
  9
$ELEVATION
 40
0.0
  9
$PELEVATION
 40
0.0
  9
$THICKNESS
 40
0.0
  9
$LIMCHECK
 70
     0
  9
$BLIPMODE
 70
     1
  9
$CHAMFERA
 40
0.0
  9
$CHAMFERB
 40
0.0
  9
$SKPOLY
 70
     0
  9
$TDCREATE
 40
2453013.904571759
  9
$TDUPDATE
 40
2453013.904571759
  9
$TDINDWG
 40
0.0000000000
  9
$TDUSRTIMER
 40
0.0000000000
  9
$USRTIMER
 70
     1
  9
$ANGBASE
 50
0.0
  9
$ANGDIR
 70
     0
  9
$PDMODE
 70
     0
  9
$PDSIZE
 40
0.0
  9
$PLINEWID
 40
0.0
  9
$COORDS
 70
     0
  9
$SPLFRAME
 70
     0
  9
$SPLINETYPE
 70
     6
  9
$SPLINESEGS
 70
    10
  9
$ATTDIA
 70
     0
  9
$ATTREQ
 70
     1
  9
$HANDLING
 70
     1
  9
$HANDSEED
  5
592
  9
$SURFTAB1
 70
     6
  9
$SURFTAB2
 70
     6
  9
$SURFTYPE
 70
     6
  9
$SURFU
 70
     6
  9
$SURFV
 70
     6
  9
$UCSNAME
  2

  9
$UCSORG
 10
0.0
 20
0.0
 30
0.0
  9
$UCSXDIR
 10
1.0
 20
0.0
 30
0.0
  9
$UCSYDIR
 10
0.0
 20
1.0
 30
0.0
  9
$PUCSNAME
  2

  9
$PUCSORG
 10
0.0
 20
0.0
 30
0.0
  9
$PUCSXDIR
 10
1.0
 20
0.0
 30
0.0
  9
$PUCSYDIR
 10
0.0
 20
1.0
 30
0.0
  9
$USERI1
 70
     0
  9
$USERI2
 70
     0
  9
$USERI3
 70
     0
  9
$USERI4
 70
     0
  9
$USERI5
 70
     0
  9
$USERR1
 40
0.0
  9
$USERR2
 40
0.0
  9
$USERR3
 40
0.0
  9
$USERR4
 40
0.0
  9
$USERR5
 40
0.0
  9
$WORLDVIEW
 70
     1
  9
$SHADEDGE
 70
     3
  9
$SHADEDIF
 70
    70
  9
$TILEMODE
 70
     1
  9
$MAXACTVP
 70
    16
  9
$PINSBASE
 10
0.0
 20
0.0
 30
0.0
  9
$PLIMCHECK
 70
     0
  9
$PEXTMIN
 10
-1.000000E+20
 20
-1.000000E+20
 30
-1.000000E+20
  9
$PEXTMAX
 10
-1.000000E+20
 20
-1.000000E+20
 30
-1.000000E+20
  9
$PLIMMIN
 10
0.0
 20
0.0
  9
$PLIMMAX
 10
12.0
 20
9.0
  9
$UNITMODE
 70
     0
  9
$VISRETAIN
 70
     0
  9
$PLINEGEN
 70
     1
  9
$PSLTSCALE
 70
     0
  9
$TREEDEPTH
 70
  3020
  9
$DWGCODEPAGE
  3
ansi_1252
  0
ENDSEC
  0
SECTION
  2
TABLES
  0
TABLE
  2
VPORT
 70
     1
  0
VPORT
  2
*ACTIVE
 70
     0
 10
0.0
 20
0.0
 11
1.0
 21
1.0
 12
0.0
 22
0.0
 13
0.0
 23
0.0
 14
0.0
 24
0.0
 15
0.0
 25
0.0
 16
0.0
 26
0.0
 36
1.0
 17
922620.9355
 27
7239774.871888
 37
0.0
 40
5815.749777
 41
1.422757
 42
50.0
 43
0.004
 44
0.0
 50
0.0
 51
0.0
 71
     0
 72
   100
 73
     1
 74
     0
 75
     0
 76
     0
 77
     0
 78
     0
  0
ENDTAB
  0
TABLE
  2
LTYPE
 70
     7
  0
LTYPE
  2
CONTINUOUS
 70
     0
  3
Solid line
 72
    65
 73
     0
 40
0.0
  0
LTYPE
  2
DOT
 70
    64
  3
. . . . . . . . . . . . . . . . . . . . . . . . . . . . . . . . .
 72
    65
 73
     2
 40
0.25
 49
0.0
 49
-0.25
  0
LTYPE
  2
HIDDEN
 70
    64
  3
__ __ __ __ __ __ __ __ __ __ __ __ __ __ __ __ __ __ __ __ __ 
 72
    65
 73
     2
 40
0.375
 49
0.25
 49
-0.125
  0
LTYPE
  2
DASHED
 70
    64
  3
__ __ __ __ __ __ __ __ __ __ __ __ __ __ __ __ __ __ __ __ __
 72
    65
 73
     2
 40
0.75
 49
0.5
 49
-0.25
  0
LTYPE
  2
DASHDOT
 70
    64
  3
__ . __ . __ . __ . __ . __ . __ . __ . __ . __ . __ . __ . _
 72
    65
 73
     4
 40
1.0
 49
0.5
 49
-0.25
 49
0.0
 49
-0.25
  0
LTYPE
  2
DIVIDE
 70
    64
  3
____ . . ____ . . ____ . . ____ . . ____ . . ____ . . ____ . .
 72
    65
 73
     6
 40
1.25
 49
0.5
 49
-0.25
 49
0.0
 49
-0.25
 49
0.0
 49
-0.25
  0
LTYPE
  2
CENTER
 70
    64
  3
____ _ ____ _ ____ _ ____ _ ____ _ ____ _ ____ _ ____ _ ____ _
 72
    65
 73
     4
 40
2.0
 49
1.25
 49
-0.25
 49
0.25
 49
-0.25
  0
ENDTAB
  0
TABLE
  2
LAYER
 70
    14
  0
LAYER
  2
0
 70
     0
 62
     7
  6
CONTINUOUS
  0
LAYER
  2
CONSTRUCTION_CLASS
 70
     1
 62
     7
  6
CONTINUOUS
  0
LAYER
  2
PATTERN_CLASS
 70
     0
 62
     7
  6
CONTINUOUS
  0
LAYER
  2
1
 70
    64
 62
     7
  6
CONTINUOUS
  0
LAYER
  2
10
 70
    64
 62
     7
  6
CONTINUOUS
  0
LAYER
  2
11
 70
    64
 62
     7
  6
CONTINUOUS
  0
LAYER
  2
19
 70
    64
 62
     7
  6
CONTINUOUS
  0
LAYER
  2
21
 70
    64
 62
     7
  6
CONTINUOUS
  0
LAYER
  2
7
 70
    64
 62
     7
  6
CONTINUOUS
  0
LAYER
  2
8
 70
    64
 62
     7
  6
CONTINUOUS
  0
LAYER
  2
22
 70
    64
 62
     7
  6
CONTINUOUS
  0
LAYER
  2
15
 70
    64
 62
     7
  6
CONTINUOUS
  0
LAYER
  2
6
 70
    64
 62
     7
  6
CONTINUOUS
  0
LAYER
  2
58
 70
    64
 62
     7
  6
CONTINUOUS
  0
ENDTAB
  0
TABLE
  2
STYLE
 70
     3
  0
STYLE
  2
STANDARD
 70
     0
 40
0.0
 41
1.0
 50
0.0
 71
     0
 42
0.0
  3
txt
  4

  0
STYLE
  2
ROMANS
 70
     0
 40
0.2
 41
1.0
 50
0.0
 71
     0
 42
0.2
  3
ROMANS
  4

  0
STYLE
  2
ROMANC
 70
     0
 40
0.2
 41
1.0
 50
0.0
 71
     0
 42
0.2
  3
ROMANC
  4

  0
ENDTAB
  0
TABLE
  2
VIEW
 70
     0
  0
ENDTAB
  0
TABLE
  2
UCS
 70
     0
  0
ENDTAB
  0
TABLE
  2
APPID
 70
     1
  0
APPID
  2
ACAD
 70
     0
  0
ENDTAB
  0
TABLE
  2
DIMSTYLE
 70
     1
  0
DIMSTYLE
  2
STANDARD
 70
     0
  3

  4

  5

  6

  7

 40
1.0
 41
0.18
 42
0.0625
 43
0.38
 44
0.18
 45
0.0
 46
0.0
 47
0.0
 48
0.0
140
0.18
141
0.09
142
0.0
143
25.4
144
1.0
145
0.0
146
1.0
147
0.09
 71
     0
 72
     0
 73
     1
 74
     1
 75
     0
 76
     0
 77
     0
 78
     0
170
     0
171
     2
172
     0
173
     0
174
     0
175
     0
176
     0
177
     0
178
     0
  0
ENDTAB
  0
ENDSEC
  0
SECTION
  2
BLOCKS
  0
ENDSEC
  0
SECTION
  2
ENTITIES
  0
POLYLINE
  8
1
  6
HIDDEN
 62
   253
  5
29
 66
     1
 10
0.0
 20
0.0
 30
0.0
  0
VERTEX
  8
1
  6
HIDDEN
 62
   253
  5
2A
 10
920071.558
 20
7242469.836
 30
0.0
  0
VERTEX
  8
1
  6
HIDDEN
 62
   253
  5
2B
 10
925338.588
 20
7242302.176
 30
0.0
  0
VERTEX
  8
1
  6
HIDDEN
 62
   253
  5
2C
 10
925167.847
 20
7236936.168
 30
0.0
  0
VERTEX
  8
1
  6
HIDDEN
 62
   253
  5
2D
 10
919903.284
 20
7237099.403
 30
0.0
  0
VERTEX
  8
1
  6
HIDDEN
 62
   253
  5
2E
 10
920071.558
 20
7242469.836
 30
0.0
  0
SEQEND
  8
1
  6
HIDDEN
 62
   253
  5
2F
  0
TEXT
  8
10
  6
CONTINUOUS
 62
   134
  5
32
 10
923855.291
 20
7238046.986
 30
0.0
 40
13.999
  1
UNSUBDIVIDED
 50
358.2161
  7
ROMANS
 72
     4
 11
923936.919434
 21
7238051.447077
 31
0.0
210
0.0
220
0.0
230
1.0
  0
TEXT
  8
11
  6
CONTINUOUS
 62
     7
  5
34
 10
925304.156
 20
7242200.665
 30
0.0
 40
8.0
  1
40'
 50
358.2161
  7
ROMANS
 72
     4
 11
925313.608996
 21
7242204.372526
 31
0.0
210
0.0
220
0.0
230
1.0
  0
TEXT
  8
11
  6
CONTINUOUS
 62
     7
  5
35
 10
920073.685
 20
7242357.076
 30
0.0
 40
8.0
  1
50'
 50
88.6706
  7
ROMANS
 72
     4
 11
920069.902605
 21
7242366.499289
 31
0.0
210
0.0
220
0.0
230
1.0
  0
TEXT
  8
11
  6
CONTINUOUS
 62
     7
  5
36
 10
925281.428
 20
7242236.11
 30
0.0
 40
8.0
  1
50'
 50
88.2161
  7
ROMANS
 72
     4
 11
925277.720474
 21
7242245.562996
 31
0.0
210
0.0
220
0.0
230
1.0
  0
TEXT
  8
11
  6
CONTINUOUS
 62
     7
  5
37
 10
922745.738
 20
7242301.941
 30
0.0
 40
8.0
  1
35'
 50
88.6706
  7
ROMANS
 72
     4
 11
922741.955605
 21
7242311.364289
 31
0.0
210
0.0
220
0.0
230
1.0
  0
TEXT
  8
19
  6
CONTINUOUS
 62
     1
  5
3A
 10
923649.216
 20
7240093.734
 30
0.0
 40
24.0
  1
121st STREET
 50
358.2161
  7
ROMANC
 72
     4
 11
923782.839947
 21
7240101.578102
 31
0.0
210
0.0
220
0.0
230
1.0
  0
TEXT
  8
19
  6
CONTINUOUS
 62
     1
  5
3B
 10
921493.279
 20
7238310.569
 30
0.0
 40
24.0
  1
126th STREET
 50
357.7641
  7
ROMANC
 72
     4
 11
921638.009252
 21
7238316.927347
 31
0.0
210
0.0
220
0.0
230
1.0
  0
TEXT
  8
10
  6
CONTINUOUS
 62
   134
  5
3C
 10
921292.588
 20
7238938.182
 30
0.0
 40
13.999
  1
UNSUBDIVIDED
 50
358.6681
  7
ROMANS
 72
     4
 11
921374.178702
 21
7238943.286889
 31
0.0
210
0.0
220
0.0
230
1.0
  0
TEXT
  8
10
  6
CONTINUOUS
 62
   134
  5
3D
 10
922410.091
 20
7241317.849
 30
0.0
 40
13.999
  1
UNSUBDIVIDED
 50
358.6706
  7
ROMANS
 72
     4
 11
922491.681479
 21
7241322.957449
 31
0.0
210
0.0
220
0.0
230
1.0
  0
TEXT
  8
10
  6
CONTINUOUS
 62
   134
  5
3E
 10
923927.529
 20
7240389.102
 30
0.0
 40
13.999
  1
UNSUBDIVIDED
 50
358.2161
  7
ROMANS
 72
     4
 11
924009.157434
 21
7240393.563077
 31
0.0
210
0.0
220
0.0
230
1.0
  0
TEXT
  8
10
  6
CONTINUOUS
 62
   134
  5
3F
 10
923863.607
 20
7239696.334
 30
0.0
 40
13.999
  1
UNSUBDIVIDED
 50
358.2161
  7
ROMANS
 72
     4
 11
923945.235434
 21
7239700.795077
 31
0.0
210
0.0
220
0.0
230
1.0
  0
TEXT
  8
11
  6
CONTINUOUS
 62
     7
  5
40
 10
925257.888
 20
7240703.682
 30
0.0
 40
8.0
  1
40'
 50
358.2161
  7
ROMANS
 72
     4
 11
925267.340996
 21
7240707.389526
 31
0.0
210
0.0
220
0.0
230
1.0
  0
TEXT
  8
11
  6
CONTINUOUS
 62
     7
  5
41
 10
925250.087
 20
7240644.467
 30
0.0
 40
8.0
  1
55'
 50
358.2161
  7
ROMANS
 72
     4
 11
925259.539996
 21
7240648.174526
 31
0.0
210
0.0
220
0.0
230
1.0
  0
TEXT
  8
11
  6
CONTINUOUS
 62
     7
  5
42
 10
925212.819
 20
7239405.048
 30
0.0
 40
8.0
  1
55'
 50
358.2161
  7
ROMANS
 72
     4
 11
925222.271996
 21
7239408.755526
 31
0.0
210
0.0
220
0.0
230
1.0
  0
TEXT
  8
11
  6
CONTINUOUS
 62
     7
  5
43
 10
925213.829
 20
7239343.619
 30
0.0
 40
8.0
  1
40'
 50
358.2161
  7
ROMANS
 72
     4
 11
925223.281996
 21
7239347.326526
 31
0.0
210
0.0
220
0.0
230
1.0
  0
TEXT
  8
11
  6
CONTINUOUS
 62
     7
  5
44
 10
925152.459
 20
7237485.795
 30
0.0
 40
8.0
  1
40'
 50
358.2161
  7
ROMANS
 72
     4
 11
925161.911996
 21
7237489.502526
 31
0.0
210
0.0
220
0.0
230
1.0
  0
TEXT
  8
11
  6
CONTINUOUS
 62
     7
  5
45
 10
925150.32
 20
7237468.529
 30
0.0
 40
8.0
  1
50'
 50
358.2161
  7
ROMANS
 72
     4
 11
925159.772996
 21
7237472.236526
 31
0.0
210
0.0
220
0.0
230
1.0
  0
TEXT
  8
11
  6
CONTINUOUS
 62
     7
  5
46
 10
924876.413
 20
7237013.395
 30
0.0
 40
8.0
  1
50'
 50
88.2161
  7
ROMANS
 72
     4
 11
924872.705474
 21
7237022.847996
 31
0.0
210
0.0
220
0.0
230
1.0
  0
TEXT
  8
11
  6
CONTINUOUS
 62
     7
  5
47
 10
924403.361
 20
7237024.23
 30
0.0
 40
8.0
  1
40'
 50
88.2161
  7
ROMANS
 72
     4
 11
924399.653474
 21
7237033.682996
 31
0.0
210
0.0
220
0.0
230
1.0
  0
TEXT
  8
11
  6
CONTINUOUS
 62
     7
  5
48
 10
922590.845
 20
7237055.821
 30
0.0
 40
8.0
  1
40'
 50
88.2161
  7
ROMANS
 72
     4
 11
922587.137474
 21
7237065.273996
 31
0.0
210
0.0
220
0.0
230
1.0
  0
TEXT
  8
11
  6
CONTINUOUS
 62
     7
  5
49
 10
922432.409
 20
7237130.062
 30
0.0
 40
8.0
  1
55'
 50
88.6681
  7
ROMANS
 72
     4
 11
922428.627016
 21
7237139.485454
 31
0.0
210
0.0
220
0.0
230
1.0
  0
TEXT
  8
11
  6
CONTINUOUS
 62
     7
  5
4A
 10
920877.654
 20
7237137.936
 30
0.0
 40
8.0
  1
55'
 50
88.2161
  7
ROMANS
 72
     4
 11
920873.946474
 21
7237147.388996
 31
0.0
210
0.0
220
0.0
230
1.0
  0
TEXT
  8
11
  6
CONTINUOUS
 62
     7
  5
4B
 10
920821.092
 20
7237135.8
 30
0.0
 40
8.0
  1
40'
 50
88.2161
  7
ROMANS
 72
     4
 11
920817.384474
 21
7237145.252996
 31
0.0
210
0.0
220
0.0
230
1.0
  0
TEXT
  8
11
  6
CONTINUOUS
 62
     7
  5
4C
 10
919918.045
 20
7237163.925
 30
0.0
 40
8.0
  1
40'
 50
88.2161
  7
ROMANS
 72
     4
 11
919914.337474
 21
7237173.377996
 31
0.0
210
0.0
220
0.0
230
1.0
  0
TEXT
  8
19
  6
CONTINUOUS
 62
     1
  5
4D
 10
921134.17
 20
7239679.674
 30
0.0
 40
24.0
  1
122nd STREET
 50
358.6681
  7
ROMANC
 72
     4
 11
921276.986407
 21
7239688.356729
 31
0.0
210
0.0
220
0.0
230
1.0
  0
TEXT
  8
11
  6
CONTINUOUS
 62
     7
  5
4E
 10
919952.841
 20
7238024.774
 30
0.0
 40
8.0
  1
55'
 50
358.6681
  7
ROMANS
 72
     4
 11
919962.264454
 21
7238028.555984
 31
0.0
210
0.0
220
0.0
230
1.0
  0
TEXT
  8
11
  6
CONTINUOUS
 62
     7
  5
4F
 10
919987.58
 20
7239651.167
 30
0.0
 40
8.0
  1
55'
 50
358.6681
  7
ROMANS
 72
     4
 11
919997.003454
 21
7239654.948984
 31
0.0
210
0.0
220
0.0
230
1.0
  0
TEXT
  8
11
  6
CONTINUOUS
 62
     7
  5
50
 10
922577.04
 20
7239599.984
 30
0.0
 40
8.0
  1
40'
 50
358.6681
  7
ROMANS
 72
     4
 11
922586.463454
 21
7239603.765984
 31
0.0
210
0.0
220
0.0
230
1.0
  0
TEXT
  8
11
  6
CONTINUOUS
 62
     7
  5
51
 10
922620.118
 20
7239527.769
 30
0.0
 40
8.0
  1
40'
 50
358.2161
  7
ROMANS
 72
     4
 11
922629.570996
 21
7239531.476526
 31
0.0
210
0.0
220
0.0
230
1.0
  0
TEXT
  8
11
  6
CONTINUOUS
 62
     7
  5
52
 10
922520.48
 20
7237182.762
 30
0.0
 40
8.0
  1
40'
 50
358.6681
  7
ROMANS
 72
     4
 11
922529.903454
 21
7237186.543984
 31
0.0
210
0.0
220
0.0
230
1.0
  0
TEXT
  8
11
  6
CONTINUOUS
 62
     7
  5
53
 10
922653.108
 20
7240678.851
 30
0.0
 40
8.0
  1
40'
 50
358.2161
  7
ROMANS
 72
     4
 11
922662.560996
 21
7240682.558526
 31
0.0
210
0.0
220
0.0
230
1.0
  0
TEXT
  8
11
  6
CONTINUOUS
 62
     7
  5
54
 10
920067.263
 20
7239711.055
 30
0.0
 40
8.0
  1
40'
 50
88.6681
  7
ROMANS
 72
     4
 11
920063.481016
 21
7239720.478454
 31
0.0
210
0.0
220
0.0
230
1.0
  0
TEXT
  8
11
  6
CONTINUOUS
 62
     7
  5
55
 10
922534.583
 20
7239650.561
 30
0.0
 40
8.0
  1
40'
 50
88.6681
  7
ROMANS
 72
     4
 11
922530.801016
 21
7239659.984454
 31
0.0
210
0.0
220
0.0
230
1.0
  0
TEXT
  8
11
  6
CONTINUOUS
 62
     7
  5
56
 10
920779.489
 20
7238346.716
 30
0.0
 40
8.0
  1
60'
 50
87.7641
  7
ROMANS
 72
     4
 11
920775.856162
 21
7238356.19795
 31
0.0
210
0.0
220
0.0
230
1.0
  0
TEXT
  8
11
  6
CONTINUOUS
 62
     7
  5
57
 10
922490.06
 20
7238280.286
 30
0.0
 40
8.0
  1
60'
 50
87.7641
  7
ROMANS
 72
     4
 11
922486.427162
 21
7238289.76795
 31
0.0
210
0.0
220
0.0
230
1.0
  0
TEXT
  8
11
  6
CONTINUOUS
 62
     7
  5
58
 10
922702.636
 20
7240115.973
 30
0.0
 40
8.0
  1
60'
 50
88.2161
  7
ROMANS
 72
     4
 11
922698.928474
 21
7240125.425996
 31
0.0
210
0.0
220
0.0
230
1.0
  0
TEXT
  8
11
  6
CONTINUOUS
 62
     7
  5
59
 10
925172.288
 20
7240041.845
 30
0.0
 40
8.0
  1
60'
 50
88.2161
  7
ROMANS
 72
     4
 11
925168.580474
 21
7240051.297996
 31
0.0
210
0.0
220
0.0
230
1.0
  0
LINE
  8
21
  6
DASHDOT
 62
     7
  5
5B
 10
924719.601
 20
7238765.473
 30
0.0
 11
925169.413
 21
7238751.699
 31
0.0
  0
LINE
  8
7
  6
CONTINUOUS
 62
     7
  5
5D
 10
924599.724
 20
7239281.966
 30
0.0
 11
924605.11
 21
7239454.887
 31
0.0
  0
LINE
  8
7
  6
CONTINUOUS
 62
     7
  5
5E
 10
924469.256
 20
7239284.89
 30
0.0
 11
924474.643
 21
7239457.847
 31
0.0
  0
LINE
  8
7
  6
CONTINUOUS
 62
     7
  5
5F
 10
924338.79
 20
7239287.813
 30
0.0
 11
924344.177
 21
7239460.806
 31
0.0
  0
LINE
  8
7
  6
CONTINUOUS
 62
     7
  5
60
 10
924208.322
 20
7239290.737
 30
0.0
 11
924213.711
 21
7239463.766
 31
0.0
  0
LINE
  8
7
  6
CONTINUOUS
 62
     7
  5
61
 10
924077.855
 20
7239293.661
 30
0.0
 11
924083.246
 21
7239466.725
 31
0.0
  0
LINE
  8
7
  6
CONTINUOUS
 62
     7
  5
62
 10
923947.388
 20
7239296.585
 30
0.0
 11
923952.779
 21
7239469.684
 31
0.0
  0
LINE
  8
7
  6
CONTINUOUS
 62
     7
  5
63
 10
923816.92
 20
7239299.509
 30
0.0
 11
923822.312
 21
7239472.644
 31
0.0
  0
LINE
  8
7
  6
CONTINUOUS
 62
     7
  5
64
 10
923686.453
 20
7239302.432
 30
0.0
 11
923691.847
 21
7239475.603
 31
0.0
  0
LINE
  8
7
  6
CONTINUOUS
 62
     7
  5
65
 10
923555.986
 20
7239305.356
 30
0.0
 11
923561.381
 21
7239478.563
 31
0.0
  0
LINE
  8
7
  6
CONTINUOUS
 62
     7
  5
66
 10
923425.519
 20
7239308.28
 30
0.0
 11
923430.915
 21
7239481.522
 31
0.0
  0
LINE
  8
7
  6
CONTINUOUS
 62
     7
  5
67
 10
923295.052
 20
7239311.204
 30
0.0
 11
923300.448
 21
7239484.481
 31
0.0
  0
LINE
  8
7
  6
CONTINUOUS
 62
     7
  5
68
 10
923164.584
 20
7239314.129
 30
0.0
 11
923169.982
 21
7239487.441
 31
0.0
  0
LINE
  8
7
  6
CONTINUOUS
 62
     7
  5
69
 10
923034.117
 20
7239317.052
 30
0.0
 11
923039.517
 21
7239490.4
 31
0.0
  0
LINE
  8
7
  6
CONTINUOUS
 62
     7
  5
6A
 10
922903.65
 20
7239319.976
 30
0.0
 11
922909.05
 21
7239493.36
 31
0.0
  0
LINE
  8
7
  6
CONTINUOUS
 62
     7
  5
6B
 10
922773.183
 20
7239322.9
 30
0.0
 11
922778.584
 21
7239496.32
 31
0.0
  0
LINE
  8
7
  6
CONTINUOUS
 62
     7
  5
6C
 10
922772.536
 20
7239097.365
 30
0.0
 11
922777.688
 21
7239262.797
 31
0.0
  0
LINE
  8
7
  6
CONTINUOUS
 62
     7
  5
6D
 10
922907.952
 20
7239094.329
 30
0.0
 11
922913.103
 21
7239259.75
 31
0.0
  0
LINE
  8
7
  6
CONTINUOUS
 62
     7
  5
6E
 10
923043.368
 20
7239091.296
 30
0.0
 11
923048.52
 21
7239256.715
 31
0.0
  0
LINE
  8
7
  6
CONTINUOUS
 62
     7
  5
6F
 10
923178.784
 20
7239088.261
 30
0.0
 11
923183.936
 21
7239253.68
 31
0.0
  0
LINE
  8
7
  6
CONTINUOUS
 62
     7
  5
70
 10
923314.2
 20
7239085.226
 30
0.0
 11
923319.353
 21
7239250.645
 31
0.0
  0
LINE
  8
7
  6
CONTINUOUS
 62
     7
  5
71
 10
923449.617
 20
7239082.19
 30
0.0
 11
923454.768
 21
7239247.611
 31
0.0
  0
LINE
  8
7
  6
CONTINUOUS
 62
     7
  5
72
 10
923585.033
 20
7239079.155
 30
0.0
 11
923590.185
 21
7239244.575
 31
0.0
  0
LINE
  8
7
  6
CONTINUOUS
 62
     7
  5
73
 10
923720.449
 20
7239076.12
 30
0.0
 11
923725.601
 21
7239241.54
 31
0.0
  0
LINE
  8
7
  6
CONTINUOUS
 62
     7
  5
74
 10
923855.865
 20
7239073.086
 30
0.0
 11
923861.017
 21
7239238.505
 31
0.0
  0
LINE
  8
7
  6
CONTINUOUS
 62
     7
  5
75
 10
923991.281
 20
7239070.051
 30
0.0
 11
923996.433
 21
7239235.471
 31
0.0
  0
LINE
  8
7
  6
CONTINUOUS
 62
     7
  5
76
 10
924126.697
 20
7239067.016
 30
0.0
 11
924131.849
 21
7239232.435
 31
0.0
  0
LINE
  8
7
  6
CONTINUOUS
 62
     7
  5
77
 10
924262.113
 20
7239063.981
 30
0.0
 11
924267.266
 21
7239229.4
 31
0.0
  0
LINE
  8
7
  6
CONTINUOUS
 62
     7
  5
78
 10
924397.53
 20
7239060.945
 30
0.0
 11
924402.681
 21
7239226.366
 31
0.0
  0
LINE
  8
7
  6
CONTINUOUS
 62
     7
  5
79
 10
924532.946
 20
7239057.91
 30
0.0
 11
924538.097
 21
7239223.343
 31
0.0
  0
LINE
  8
7
  6
CONTINUOUS
 62
     7
  5
7A
 10
922639.9
 20
7239295.88
 30
0.0
 11
922669.891
 21
7239295.208
 31
0.0
  0
LINE
  8
7
  6
CONTINUOUS
 62
     7
  5
7B
 10
922766.763
 20
7238911.955
 30
0.0
 11
922771.915
 21
7239077.373
 31
0.0
  0
LINE
  8
7
  6
CONTINUOUS
 62
     7
  5
7C
 10
922902.179
 20
7238908.919
 30
0.0
 11
922907.331
 21
7239074.34
 31
0.0
  0
LINE
  8
7
  6
CONTINUOUS
 62
     7
  5
7D
 10
923037.596
 20
7238905.884
 30
0.0
 11
923042.747
 21
7239071.305
 31
0.0
  0
LINE
  8
7
  6
CONTINUOUS
 62
     7
  5
7E
 10
923173.011
 20
7238902.849
 30
0.0
 11
923178.164
 21
7239068.269
 31
0.0
  0
LINE
  8
7
  6
CONTINUOUS
 62
     7
  5
7F
 10
923308.427
 20
7238899.814
 30
0.0
 11
923313.58
 21
7239065.234
 31
0.0
  0
LINE
  8
7
  6
CONTINUOUS
 62
     7
  5
80
 10
923443.844
 20
7238896.778
 30
0.0
 11
923448.996
 21
7239062.199
 31
0.0
  0
LINE
  8
7
  6
CONTINUOUS
 62
     7
  5
81
 10
923579.261
 20
7238893.745
 30
0.0
 11
923584.412
 21
7239059.163
 31
0.0
  0
LINE
  8
7
  6
CONTINUOUS
 62
     7
  5
82
 10
923714.676
 20
7238890.71
 30
0.0
 11
923719.828
 21
7239056.129
 31
0.0
  0
LINE
  8
7
  6
CONTINUOUS
 62
     7
  5
83
 10
923850.092
 20
7238887.675
 30
0.0
 11
923855.244
 21
7239053.094
 31
0.0
  0
LINE
  8
7
  6
CONTINUOUS
 62
     7
  5
84
 10
923985.508
 20
7238884.639
 30
0.0
 11
923990.66
 21
7239050.06
 31
0.0
  0
LINE
  8
7
  6
CONTINUOUS
 62
     7
  5
85
 10
924120.925
 20
7238881.604
 30
0.0
 11
924126.077
 21
7239047.024
 31
0.0
  0
LINE
  8
7
  6
CONTINUOUS
 62
     7
  5
86
 10
924256.341
 20
7238878.57
 30
0.0
 11
924261.493
 21
7239043.989
 31
0.0
  0
LINE
  8
7
  6
CONTINUOUS
 62
     7
  5
87
 10
924391.757
 20
7238875.534
 30
0.0
 11
924396.908
 21
7239040.955
 31
0.0
  0
LINE
  8
7
  6
CONTINUOUS
 62
     7
  5
88
 10
924527.173
 20
7238872.5
 30
0.0
 11
924532.324
 21
7239037.919
 31
0.0
  0
LINE
  8
7
  6
CONTINUOUS
 62
     7
  5
89
 10
922759.744
 20
7238686.561
 30
0.0
 11
922764.896
 21
7238851.981
 31
0.0
  0
LINE
  8
7
  6
CONTINUOUS
 62
     7
  5
8A
 10
922895.16
 20
7238683.527
 30
0.0
 11
922900.311
 21
7238848.946
 31
0.0
  0
LINE
  8
7
  6
CONTINUOUS
 62
     7
  5
8B
 10
923030.576
 20
7238680.492
 30
0.0
 11
923035.727
 21
7238845.911
 31
0.0
  0
LINE
  8
7
  6
CONTINUOUS
 62
     7
  5
8C
 10
923165.991
 20
7238677.456
 30
0.0
 11
923171.143
 21
7238842.876
 31
0.0
  0
LINE
  8
7
  6
CONTINUOUS
 62
     7
  5
8D
 10
923301.408
 20
7238674.421
 30
0.0
 11
923306.561
 21
7238839.842
 31
0.0
  0
LINE
  8
7
  6
CONTINUOUS
 62
     7
  5
8E
 10
923436.824
 20
7238671.386
 30
0.0
 11
923441.976
 21
7238836.806
 31
0.0
  0
LINE
  8
7
  6
CONTINUOUS
 62
     7
  5
8F
 10
923572.241
 20
7238668.352
 30
0.0
 11
923577.392
 21
7238833.771
 31
0.0
  0
LINE
  8
7
  6
CONTINUOUS
 62
     7
  5
90
 10
923707.656
 20
7238665.316
 30
0.0
 11
923712.808
 21
7238830.737
 31
0.0
  0
LINE
  8
7
  6
CONTINUOUS
 62
     7
  5
91
 10
923843.072
 20
7238662.282
 30
0.0
 11
923848.224
 21
7238827.701
 31
0.0
  0
LINE
  8
7
  6
CONTINUOUS
 62
     7
  5
92
 10
923978.489
 20
7238659.247
 30
0.0
 11
923983.641
 21
7238824.666
 31
0.0
  0
LINE
  8
7
  6
CONTINUOUS
 62
     7
  5
93
 10
924113.905
 20
7238656.212
 30
0.0
 11
924119.057
 21
7238821.631
 31
0.0
  0
LINE
  8
7
  6
CONTINUOUS
 62
     7
  5
94
 10
924249.321
 20
7238653.177
 30
0.0
 11
924254.473
 21
7238818.597
 31
0.0
  0
LINE
  8
7
  6
CONTINUOUS
 62
     7
  5
95
 10
924384.737
 20
7238650.142
 30
0.0
 11
924389.888
 21
7238815.562
 31
0.0
  0
LINE
  8
7
  6
CONTINUOUS
 62
     7
  5
96
 10
924520.154
 20
7238647.107
 30
0.0
 11
924525.305
 21
7238812.527
 31
0.0
  0
LINE
  8
7
  6
CONTINUOUS
 62
     7
  5
97
 10
922753.972
 20
7238501.15
 30
0.0
 11
922759.124
 21
7238666.571
 31
0.0
  0
LINE
  8
7
  6
CONTINUOUS
 62
     7
  5
98
 10
922889.388
 20
7238498.115
 30
0.0
 11
922894.539
 21
7238663.535
 31
0.0
  0
LINE
  8
7
  6
CONTINUOUS
 62
     7
  5
99
 10
923024.804
 20
7238495.08
 30
0.0
 11
923029.956
 21
7238660.5
 31
0.0
  0
LINE
  8
7
  6
CONTINUOUS
 62
     7
  5
9A
 10
923160.22
 20
7238492.044
 30
0.0
 11
923165.372
 21
7238657.465
 31
0.0
  0
LINE
  8
7
  6
CONTINUOUS
 62
     7
  5
9B
 10
923295.636
 20
7238489.011
 30
0.0
 11
923300.789
 21
7238654.429
 31
0.0
  0
LINE
  8
7
  6
CONTINUOUS
 62
     7
  5
9C
 10
923431.052
 20
7238485.976
 30
0.0
 11
923436.204
 21
7238651.395
 31
0.0
  0
LINE
  8
7
  6
CONTINUOUS
 62
     7
  5
9D
 10
923566.469
 20
7238482.941
 30
0.0
 11
923571.62
 21
7238648.36
 31
0.0
  0
LINE
  8
7
  6
CONTINUOUS
 62
     7
  5
9E
 10
923701.884
 20
7238479.905
 30
0.0
 11
923707.037
 21
7238645.326
 31
0.0
  0
LINE
  8
7
  6
CONTINUOUS
 62
     7
  5
9F
 10
923837.301
 20
7238476.87
 30
0.0
 11
923842.452
 21
7238642.29
 31
0.0
  0
LINE
  8
7
  6
CONTINUOUS
 62
     7
  5
A0
 10
923972.717
 20
7238473.836
 30
0.0
 11
923977.869
 21
7238639.255
 31
0.0
  0
LINE
  8
7
  6
CONTINUOUS
 62
     7
  5
A1
 10
924108.133
 20
7238470.801
 30
0.0
 11
924113.285
 21
7238636.221
 31
0.0
  0
LINE
  8
7
  6
CONTINUOUS
 62
     7
  5
A2
 10
924243.549
 20
7238467.765
 30
0.0
 11
924248.702
 21
7238633.186
 31
0.0
  0
LINE
  8
7
  6
CONTINUOUS
 62
     7
  5
A3
 10
924378.966
 20
7238464.731
 30
0.0
 11
924384.117
 21
7238630.15
 31
0.0
  0
LINE
  8
7
  6
CONTINUOUS
 62
     7
  5
A4
 10
924514.382
 20
7238461.696
 30
0.0
 11
924519.533
 21
7238627.115
 31
0.0
  0
LINE
  8
7
  6
CONTINUOUS
 62
     7
  5
A5
 10
922614.798
 20
7238474.262
 30
0.0
 11
922644.789
 21
7238473.591
 31
0.0
  0
LINE
  8
7
  6
CONTINUOUS
 62
     7
  5
A6
 10
922759.167
 20
7238287.833
 30
0.0
 11
922763.936
 21
7238440.911
 31
0.0
  0
LINE
  8
7
  6
CONTINUOUS
 62
     7
  5
A7
 10
922901.832
 20
7238284.654
 30
0.0
 11
922906.599
 21
7238437.733
 31
0.0
  0
LINE
  8
7
  6
CONTINUOUS
 62
     7
  5
A8
 10
923044.496
 20
7238281.474
 30
0.0
 11
923049.264
 21
7238434.552
 31
0.0
  0
LINE
  8
7
  6
CONTINUOUS
 62
     7
  5
A9
 10
923187.16
 20
7238278.294
 30
0.0
 11
923191.928
 21
7238431.373
 31
0.0
  0
LINE
  8
7
  6
CONTINUOUS
 62
     7
  5
AA
 10
923329.825
 20
7238275.115
 30
0.0
 11
923334.592
 21
7238428.193
 31
0.0
  0
LINE
  8
7
  6
CONTINUOUS
 62
     7
  5
AB
 10
923472.488
 20
7238271.934
 30
0.0
 11
923477.256
 21
7238425.013
 31
0.0
  0
LINE
  8
7
  6
CONTINUOUS
 62
     7
  5
AC
 10
923615.152
 20
7238268.756
 30
0.0
 11
923619.92
 21
7238421.834
 31
0.0
  0
LINE
  8
7
  6
CONTINUOUS
 62
     7
  5
AD
 10
923757.816
 20
7238265.575
 30
0.0
 11
923762.584
 21
7238418.655
 31
0.0
  0
LINE
  8
7
  6
CONTINUOUS
 62
     7
  5
AE
 10
923900.481
 20
7238262.396
 30
0.0
 11
923905.248
 21
7238415.474
 31
0.0
  0
LINE
  8
7
  6
CONTINUOUS
 62
     7
  5
AF
 10
924043.145
 20
7238259.216
 30
0.0
 11
924047.912
 21
7238412.295
 31
0.0
  0
LINE
  8
7
  6
CONTINUOUS
 62
     7
  5
B0
 10
924185.808
 20
7238256.037
 30
0.0
 11
924190.578
 21
7238409.116
 31
0.0
  0
LINE
  8
7
  6
CONTINUOUS
 62
     7
  5
B1
 10
924328.473
 20
7238252.857
 30
0.0
 11
924333.241
 21
7238405.936
 31
0.0
  0
LINE
  8
7
  6
CONTINUOUS
 62
     7
  5
B2
 10
924471.138
 20
7238249.677
 30
0.0
 11
924475.905
 21
7238402.756
 31
0.0
  0
LINE
  8
7
  6
CONTINUOUS
 62
     7
  5
B3
 10
924613.802
 20
7238246.497
 30
0.0
 11
924618.569
 21
7238399.576
 31
0.0
  0
TEXT
  8
10
  6
CONTINUOUS
 62
   134
  5
B4
 10
924905.611
 20
7239280.723
 30
0.0
 40
13.999
  1
TRACT "A"
 50
358.2161
  7
ROMANS
 72
     4
 11
924966.31558
 21
7239285.83575
 31
0.0
210
0.0
220
0.0
230
1.0
  0
TEXT
  8
10
  6
CONTINUOUS
 62
   134
  5
B5
 10
924893.602
 20
7238895.143
 30
0.0
 40
13.999
  1
TRACT "B"
 50
358.2161
  7
ROMANS
 72
     4
 11
924954.30658
 21
7238900.25575
 31
0.0
210
0.0
220
0.0
230
1.0
  0
TEXT
  8
10
  6
CONTINUOUS
 62
   134
  5
B6
 10
922706.804
 20
7239394.237
 30
0.0
 40
13.999
  1
1
 50
358.2161
  7
ROMANS
 72
     4
 11
922709.353779
 21
7239401.160981
 31
0.0
210
0.0
220
0.0
230
1.0
  0
TEXT
  8
10
  6
CONTINUOUS
 62
   134
  5
B7
 10
922832.24
 20
7239391.442
 30
0.0
 40
13.999
  1
2
 50
358.2161
  7
ROMANS
 72
     4
 11
922836.53893
 21
7239398.311504
 31
0.0
210
0.0
220
0.0
230
1.0
  0
TEXT
  8
10
  6
CONTINUOUS
 62
   134
  5
B8
 10
922966.918
 20
7239388.423
 30
0.0
 40
13.999
  1
3
 50
358.2161
  7
ROMANS
 72
     4
 11
922971.21693
 21
7239395.292504
 31
0.0
210
0.0
220
0.0
230
1.0
  0
TEXT
  8
10
  6
CONTINUOUS
 62
   134
  5
B9
 10
923098.402
 20
7239385.477
 30
0.0
 40
13.999
  1
4
 50
358.2161
  7
ROMANS
 72
     4
 11
923102.70093
 21
7239392.346504
 31
0.0
210
0.0
220
0.0
230
1.0
  0
TEXT
  8
10
  6
CONTINUOUS
 62
   134
  5
BA
 10
923228.811
 20
7239382.555
 30
0.0
 40
13.999
  1
5
 50
358.2161
  7
ROMANS
 72
     4
 11
923233.127922
 21
7239389.423944
 31
0.0
210
0.0
220
0.0
230
1.0
  0
TEXT
  8
10
  6
CONTINUOUS
 62
   134
  5
BB
 10
923353.739
 20
7239379.758
 30
0.0
 40
13.999
  1
6
 50
358.2161
  7
ROMANS
 72
     4
 11
923358.365771
 21
7239386.617293
 31
0.0
210
0.0
220
0.0
230
1.0
  0
TEXT
  8
10
  6
CONTINUOUS
 62
   134
  5
BC
 10
923485.674
 20
7239376.799
 30
0.0
 40
13.999
  1
7
 50
358.2161
  7
ROMANS
 72
     4
 11
923489.97293
 21
7239383.668504
 31
0.0
210
0.0
220
0.0
230
1.0
  0
TEXT
  8
10
  6
CONTINUOUS
 62
   134
  5
BD
 10
923617.279
 20
7239373.85
 30
0.0
 40
13.999
  1
8
 50
358.2161
  7
ROMANS
 72
     4
 11
923621.57793
 21
7239380.719504
 31
0.0
210
0.0
220
0.0
230
1.0
  0
TEXT
  8
10
  6
CONTINUOUS
 62
   134
  5
BE
 10
923749.785
 20
7239370.879
 30
0.0
 40
13.999
  1
9
 50
358.2161
  7
ROMANS
 72
     4
 11
923754.08393
 21
7239377.748504
 31
0.0
210
0.0
220
0.0
230
1.0
  0
TEXT
  8
10
  6
CONTINUOUS
 62
   134
  5
BF
 10
923871.305
 20
7239368.222
 30
0.0
 40
13.999
  1
10
 50
358.2161
  7
ROMANS
 72
     4
 11
923883.156268
 21
7239374.856287
 31
0.0
210
0.0
220
0.0
230
1.0
  0
TEXT
  8
10
  6
CONTINUOUS
 62
   134
  5
C0
 10
924000.696
 20
7239365.304
 30
0.0
 40
13.999
  1
11
 50
358.2161
  7
ROMANS
 72
     4
 11
924010.241387
 21
7239372.010103
 31
0.0
210
0.0
220
0.0
230
1.0
  0
TEXT
  8
10
  6
CONTINUOUS
 62
   134
  5
C1
 10
924131.459
 20
7239362.389
 30
0.0
 40
13.999
  1
12
 50
358.2161
  7
ROMANS
 72
     4
 11
924142.753538
 21
7239369.040626
 31
0.0
210
0.0
220
0.0
230
1.0
  0
TEXT
  8
10
  6
CONTINUOUS
 62
   134
  5
C2
 10
924265.056
 20
7239359.396
 30
0.0
 40
13.999
  1
13
 50
358.2161
  7
ROMANS
 72
     4
 11
924276.350538
 21
7239366.047626
 31
0.0
210
0.0
220
0.0
230
1.0
  0
TEXT
  8
10
  6
CONTINUOUS
 62
   134
  5
C3
 10
924391.519
 20
7239356.56
 30
0.0
 40
13.999
  1
14
 50
358.2161
  7
ROMANS
 72
     4
 11
924402.813538
 21
7239363.211626
 31
0.0
210
0.0
220
0.0
230
1.0
  0
TEXT
  8
10
  6
CONTINUOUS
 62
   134
  5
C4
 10
924521.308
 20
7239353.654
 30
0.0
 40
13.999
  1
15
 50
358.2161
  7
ROMANS
 72
     4
 11
924532.62053
 21
7239360.305066
 31
0.0
210
0.0
220
0.0
230
1.0
  0
TEXT
  8
10
  6
CONTINUOUS
 62
   134
  5
C5
 10
924654.435
 20
7239350.673
 30
0.0
 40
13.999
  1
16
 50
358.2161
  7
ROMANS
 72
     4
 11
924666.057379
 21
7239357.314415
 31
0.0
210
0.0
220
0.0
230
1.0
  0
TEXT
  8
10
  6
CONTINUOUS
 62
   134
  5
C6
 10
922692.147
 20
7239174.394
 30
0.0
 40
13.999
  1
17
 50
358.2161
  7
ROMANS
 72
     4
 11
922703.441538
 21
7239181.045626
 31
0.0
210
0.0
220
0.0
230
1.0
  0
TEXT
  8
10
  6
CONTINUOUS
 62
   134
  5
C7
 10
922828.028
 20
7239171.35
 30
0.0
 40
13.999
  1
18
 50
358.2161
  7
ROMANS
 72
     4
 11
922839.322538
 21
7239178.001626
 31
0.0
210
0.0
220
0.0
230
1.0
  0
TEXT
  8
10
  6
CONTINUOUS
 62
   134
  5
C8
 10
922965.206
 20
7239168.276
 30
0.0
 40
13.999
  1
19
 50
358.2161
  7
ROMANS
 72
     4
 11
922976.500538
 21
7239174.927626
 31
0.0
210
0.0
220
0.0
230
1.0
  0
TEXT
  8
10
  6
CONTINUOUS
 62
   134
  5
C9
 10
923097.85
 20
7239165.308
 30
0.0
 40
13.999
  1
20
 50
358.2161
  7
ROMANS
 72
     4
 11
923109.701268
 21
7239171.942287
 31
0.0
210
0.0
220
0.0
230
1.0
  0
TEXT
  8
10
  6
CONTINUOUS
 62
   134
  5
CA
 10
923238.615
 20
7239162.134
 30
0.0
 40
13.999
  1
21
 50
358.2161
  7
ROMANS
 72
     4
 11
923248.160387
 21
7239168.840103
 31
0.0
210
0.0
220
0.0
230
1.0
  0
TEXT
  8
10
  6
CONTINUOUS
 62
   134
  5
CB
 10
923372.652
 20
7239159.145
 30
0.0
 40
13.999
  1
22
 50
358.2161
  7
ROMANS
 72
     4
 11
923383.946538
 21
7239165.796626
 31
0.0
210
0.0
220
0.0
230
1.0
  0
TEXT
  8
10
  6
CONTINUOUS
 62
   134
  5
CC
 10
923507.156
 20
7239156.131
 30
0.0
 40
13.999
  1
23
 50
358.2161
  7
ROMANS
 72
     4
 11
923518.450538
 21
7239162.782626
 31
0.0
210
0.0
220
0.0
230
1.0
  0
TEXT
  8
10
  6
CONTINUOUS
 62
   134
  5
CD
 10
923644.322
 20
7239153.058
 30
0.0
 40
13.999
  1
24
 50
358.2161
  7
ROMANS
 72
     4
 11
923655.616538
 21
7239159.709626
 31
0.0
210
0.0
220
0.0
230
1.0
  0
TEXT
  8
10
  6
CONTINUOUS
 62
   134
  5
CE
 10
923777.657
 20
7239150.071
 30
0.0
 40
13.999
  1
25
 50
358.2161
  7
ROMANS
 72
     4
 11
923788.96953
 21
7239156.722066
 31
0.0
210
0.0
220
0.0
230
1.0
  0
TEXT
  8
10
  6
CONTINUOUS
 62
   134
  5
CF
 10
923910.498
 20
7239147.098
 30
0.0
 40
13.999
  1
26
 50
358.2161
  7
ROMANS
 72
     4
 11
923922.120379
 21
7239153.739415
 31
0.0
210
0.0
220
0.0
230
1.0
  0
TEXT
  8
10
  6
CONTINUOUS
 62
   134
  5
D0
 10
924053.287
 20
7239143.896
 30
0.0
 40
13.999
  1
27
 50
358.2161
  7
ROMANS
 72
     4
 11
924064.581538
 21
7239150.547626
 31
0.0
210
0.0
220
0.0
230
1.0
  0
TEXT
  8
10
  6
CONTINUOUS
 62
   134
  5
D1
 10
924186.482
 20
7239140.91
 30
0.0
 40
13.999
  1
28
 50
358.2161
  7
ROMANS
 72
     4
 11
924197.776538
 21
7239147.561626
 31
0.0
210
0.0
220
0.0
230
1.0
  0
TEXT
  8
10
  6
CONTINUOUS
 62
   134
  5
D2
 10
924319.036
 20
7239137.941
 30
0.0
 40
13.999
  1
29
 50
358.2161
  7
ROMANS
 72
     4
 11
924330.330538
 21
7239144.592626
 31
0.0
210
0.0
220
0.0
230
1.0
  0
TEXT
  8
10
  6
CONTINUOUS
 62
   134
  5
D3
 10
924456.844
 20
7239134.857
 30
0.0
 40
13.999
  1
30
 50
358.2161
  7
ROMANS
 72
     4
 11
924468.695268
 21
7239141.491287
 31
0.0
210
0.0
220
0.0
230
1.0
  0
TEXT
  8
10
  6
CONTINUOUS
 62
   134
  5
D4
 10
924593.661
 20
7239131.772
 30
0.0
 40
13.999
  1
31
 50
358.2161
  7
ROMANS
 72
     4
 11
924603.206387
 21
7239138.478103
 31
0.0
210
0.0
220
0.0
230
1.0
  0
TEXT
  8
10
  6
CONTINUOUS
 62
   134
  5
D5
 10
922692.406
 20
7238989.802
 30
0.0
 40
13.999
  1
32
 50
358.2161
  7
ROMANS
 72
     4
 11
922703.700538
 21
7238996.453626
 31
0.0
210
0.0
220
0.0
230
1.0
  0
TEXT
  8
10
  6
CONTINUOUS
 62
   134
  5
D6
 10
922827.458
 20
7238986.777
 30
0.0
 40
13.999
  1
33
 50
358.2161
  7
ROMANS
 72
     4
 11
922838.752538
 21
7238993.428626
 31
0.0
210
0.0
220
0.0
230
1.0
  0
TEXT
  8
10
  6
CONTINUOUS
 62
   134
  5
D7
 10
922965.745
 20
7238983.679
 30
0.0
 40
13.999
  1
34
 50
358.2161
  7
ROMANS
 72
     4
 11
922977.039538
 21
7238990.330626
 31
0.0
210
0.0
220
0.0
230
1.0
  0
TEXT
  8
10
  6
CONTINUOUS
 62
   134
  5
D8
 10
923097.446
 20
7238980.728
 30
0.0
 40
13.999
  1
35
 50
358.2161
  7
ROMANS
 72
     4
 11
923108.75853
 21
7238987.379066
 31
0.0
210
0.0
220
0.0
230
1.0
  0
TEXT
  8
10
  6
CONTINUOUS
 62
   134
  5
D9
 10
923232.138
 20
7238977.712
 30
0.0
 40
13.999
  1
36
 50
358.2161
  7
ROMANS
 72
     4
 11
923243.760379
 21
7238984.353415
 31
0.0
210
0.0
220
0.0
230
1.0
  0
TEXT
  8
10
  6
CONTINUOUS
 62
   134
  5
DA
 10
923370.756
 20
7238974.603
 30
0.0
 40
13.999
  1
37
 50
358.2161
  7
ROMANS
 72
     4
 11
923382.050538
 21
7238981.254626
 31
0.0
210
0.0
220
0.0
230
1.0
  0
TEXT
  8
10
  6
CONTINUOUS
 62
   134
  5
DB
 10
923499.193
 20
7238971.726
 30
0.0
 40
13.999
  1
38
 50
358.2161
  7
ROMANS
 72
     4
 11
923510.487538
 21
7238978.377626
 31
0.0
210
0.0
220
0.0
230
1.0
  0
TEXT
  8
10
  6
CONTINUOUS
 62
   134
  5
DC
 10
923640.773
 20
7238968.553
 30
0.0
 40
13.999
  1
39
 50
358.2161
  7
ROMANS
 72
     4
 11
923652.067538
 21
7238975.204626
 31
0.0
210
0.0
220
0.0
230
1.0
  0
TEXT
  8
10
  6
CONTINUOUS
 62
   134
  5
DD
 10
923778.596
 20
7238965.471
 30
0.0
 40
13.999
  1
40
 50
358.2161
  7
ROMANS
 72
     4
 11
923790.447268
 21
7238972.105287
 31
0.0
210
0.0
220
0.0
230
1.0
  0
TEXT
  8
10
  6
CONTINUOUS
 62
   134
  5
DE
 10
923909.317
 20
7238962.522
 30
0.0
 40
13.999
  1
41
 50
358.2161
  7
ROMANS
 72
     4
 11
923918.862387
 21
7238969.228103
 31
0.0
210
0.0
220
0.0
230
1.0
  0
TEXT
  8
10
  6
CONTINUOUS
 62
   134
  5
DF
 10
924049.306
 20
7238959.401
 30
0.0
 40
13.999
  1
42
 50
358.2161
  7
ROMANS
 72
     4
 11
924060.600538
 21
7238966.052626
 31
0.0
210
0.0
220
0.0
230
1.0
  0
TEXT
  8
10
  6
CONTINUOUS
 62
   134
  5
E0
 10
924180.949
 20
7238956.451
 30
0.0
 40
13.999
  1
43
 50
358.2161
  7
ROMANS
 72
     4
 11
924192.243538
 21
7238963.102626
 31
0.0
210
0.0
220
0.0
230
1.0
  0
TEXT
  8
10
  6
CONTINUOUS
 62
   134
  5
E1
 10
924316.03
 20
7238953.425
 30
0.0
 40
13.999
  1
44
 50
358.2161
  7
ROMANS
 72
     4
 11
924327.324538
 21
7238960.076626
 31
0.0
210
0.0
220
0.0
230
1.0
  0
TEXT
  8
10
  6
CONTINUOUS
 62
   134
  5
E2
 10
924447.817
 20
7238950.472
 30
0.0
 40
13.999
  1
45
 50
358.2161
  7
ROMANS
 72
     4
 11
924459.12953
 21
7238957.123066
 31
0.0
210
0.0
220
0.0
230
1.0
  0
TEXT
  8
10
  6
CONTINUOUS
 62
   134
  5
E3
 10
924582.623
 20
7238947.454
 30
0.0
 40
13.999
  1
46
 50
358.2161
  7
ROMANS
 72
     4
 11
924594.245379
 21
7238954.095415
 31
0.0
210
0.0
220
0.0
230
1.0
  0
TEXT
  8
10
  6
CONTINUOUS
 62
   134
  5
E4
 10
922680.892
 20
7238762.004
 30
0.0
 40
13.999
  1
47
 50
358.2161
  7
ROMANS
 72
     4
 11
922692.186538
 21
7238768.655626
 31
0.0
210
0.0
220
0.0
230
1.0
  0
TEXT
  8
10
  6
CONTINUOUS
 62
   134
  5
E5
 10
922824.721
 20
7238758.781
 30
0.0
 40
13.999
  1
48
 50
358.2161
  7
ROMANS
 72
     4
 11
922836.015538
 21
7238765.432626
 31
0.0
210
0.0
220
0.0
230
1.0
  0
TEXT
  8
10
  6
CONTINUOUS
 62
   134
  5
E6
 10
922952.287
 20
7238755.923
 30
0.0
 40
13.999
  1
49
 50
358.2161
  7
ROMANS
 72
     4
 11
922963.581538
 21
7238762.574626
 31
0.0
210
0.0
220
0.0
230
1.0
  0
TEXT
  8
10
  6
CONTINUOUS
 62
   134
  5
E7
 10
923084.778
 20
7238752.96
 30
0.0
 40
13.999
  1
50
 50
358.2161
  7
ROMANS
 72
     4
 11
923096.629268
 21
7238759.594287
 31
0.0
210
0.0
220
0.0
230
1.0
  0
TEXT
  8
10
  6
CONTINUOUS
 62
   134
  5
E8
 10
923225.61
 20
7238749.784
 30
0.0
 40
13.999
  1
51
 50
358.2161
  7
ROMANS
 72
     4
 11
923235.155387
 21
7238756.490103
 31
0.0
210
0.0
220
0.0
230
1.0
  0
TEXT
  8
10
  6
CONTINUOUS
 62
   134
  5
E9
 10
923359.603
 20
7238746.797
 30
0.0
 40
13.999
  1
52
 50
358.2161
  7
ROMANS
 72
     4
 11
923370.897538
 21
7238753.448626
 31
0.0
210
0.0
220
0.0
230
1.0
  0
TEXT
  8
10
  6
CONTINUOUS
 62
   134
  5
EA
 10
923498.003
 20
7238743.696
 30
0.0
 40
13.999
  1
53
 50
358.2161
  7
ROMANS
 72
     4
 11
923509.297538
 21
7238750.347626
 31
0.0
210
0.0
220
0.0
230
1.0
  0
TEXT
  8
10
  6
CONTINUOUS
 62
   134
  5
EB
 10
923631.043
 20
7238740.715
 30
0.0
 40
13.999
  1
54
 50
358.2161
  7
ROMANS
 72
     4
 11
923642.337538
 21
7238747.366626
 31
0.0
210
0.0
220
0.0
230
1.0
  0
TEXT
  8
10
  6
CONTINUOUS
 62
   134
  5
EC
 10
923772.206
 20
7238737.552
 30
0.0
 40
13.999
  1
55
 50
358.2161
  7
ROMANS
 72
     4
 11
923783.51853
 21
7238744.203066
 31
0.0
210
0.0
220
0.0
230
1.0
  0
TEXT
  8
10
  6
CONTINUOUS
 62
   134
  5
ED
 10
923904.94
 20
7238734.581
 30
0.0
 40
13.999
  1
56
 50
358.2161
  7
ROMANS
 72
     4
 11
923916.562379
 21
7238741.222415
 31
0.0
210
0.0
220
0.0
230
1.0
  0
TEXT
  8
10
  6
CONTINUOUS
 62
   134
  5
EE
 10
924032.956
 20
7238731.709
 30
0.0
 40
13.999
  1
57
 50
358.2161
  7
ROMANS
 72
     4
 11
924044.250538
 21
7238738.360626
 31
0.0
210
0.0
220
0.0
230
1.0
  0
TEXT
  8
10
  6
CONTINUOUS
 62
   134
  5
EF
 10
924168.641
 20
7238728.669
 30
0.0
 40
13.999
  1
58
 50
358.2161
  7
ROMANS
 72
     4
 11
924179.935538
 21
7238735.320626
 31
0.0
210
0.0
220
0.0
230
1.0
  0
TEXT
  8
10
  6
CONTINUOUS
 62
   134
  5
F0
 10
924307.136
 20
7238725.566
 30
0.0
 40
13.999
  1
59
 50
358.2161
  7
ROMANS
 72
     4
 11
924318.430538
 21
7238732.217626
 31
0.0
210
0.0
220
0.0
230
1.0
  0
TEXT
  8
10
  6
CONTINUOUS
 62
   134
  5
F1
 10
924445.032
 20
7238722.481
 30
0.0
 40
13.999
  1
60
 50
358.2161
  7
ROMANS
 72
     4
 11
924456.883268
 21
7238729.115287
 31
0.0
210
0.0
220
0.0
230
1.0
  0
TEXT
  8
10
  6
CONTINUOUS
 62
   134
  5
F2
 10
924574.982
 20
7238719.549
 30
0.0
 40
13.999
  1
61
 50
358.2161
  7
ROMANS
 72
     4
 11
924584.527387
 21
7238726.255103
 31
0.0
210
0.0
220
0.0
230
1.0
  0
TEXT
  8
10
  6
CONTINUOUS
 62
   134
  5
F3
 10
922675.327
 20
7238583.028
 30
0.0
 40
13.999
  1
62
 50
358.2161
  7
ROMANS
 72
     4
 11
922686.621538
 21
7238589.679626
 31
0.0
210
0.0
220
0.0
230
1.0
  0
TEXT
  8
10
  6
CONTINUOUS
 62
   134
  5
F4
 10
922811.131
 20
7238579.985
 30
0.0
 40
13.999
  1
63
 50
358.2161
  7
ROMANS
 72
     4
 11
922822.425538
 21
7238586.636626
 31
0.0
210
0.0
220
0.0
230
1.0
  0
TEXT
  8
10
  6
CONTINUOUS
 62
   134
  5
F5
 10
922944.172
 20
7238577.004
 30
0.0
 40
13.999
  1
64
 50
358.2161
  7
ROMANS
 72
     4
 11
922955.466538
 21
7238583.655626
 31
0.0
210
0.0
220
0.0
230
1.0
  0
TEXT
  8
10
  6
CONTINUOUS
 62
   134
  5
F6
 10
923079.904
 20
7238573.962
 30
0.0
 40
13.999
  1
65
 50
358.2161
  7
ROMANS
 72
     4
 11
923091.21653
 21
7238580.613066
 31
0.0
210
0.0
220
0.0
230
1.0
  0
TEXT
  8
10
  6
CONTINUOUS
 62
   134
  5
F7
 10
923218.044
 20
7238570.869
 30
0.0
 40
13.999
  1
66
 50
358.2161
  7
ROMANS
 72
     4
 11
923229.666379
 21
7238577.510415
 31
0.0
210
0.0
220
0.0
230
1.0
  0
TEXT
  8
10
  6
CONTINUOUS
 62
   134
  5
F8
 10
923351.416
 20
7238567.878
 30
0.0
 40
13.999
  1
67
 50
358.2161
  7
ROMANS
 72
     4
 11
923362.710538
 21
7238574.529626
 31
0.0
210
0.0
220
0.0
230
1.0
  0
TEXT
  8
10
  6
CONTINUOUS
 62
   134
  5
F9
 10
923489.911
 20
7238564.775
 30
0.0
 40
13.999
  1
68
 50
358.2161
  7
ROMANS
 72
     4
 11
923501.205538
 21
7238571.426626
 31
0.0
210
0.0
220
0.0
230
1.0
  0
TEXT
  8
10
  6
CONTINUOUS
 62
   134
  5
FA
 10
923620.26
 20
7238561.854
 30
0.0
 40
13.999
  1
69
 50
358.2161
  7
ROMANS
 72
     4
 11
923631.554538
 21
7238568.505626
 31
0.0
210
0.0
220
0.0
230
1.0
  0
TEXT
  8
10
  6
CONTINUOUS
 62
   134
  5
FB
 10
923763.61
 20
7238558.647
 30
0.0
 40
13.999
  1
70
 50
358.2161
  7
ROMANS
 72
     4
 11
923775.461268
 21
7238565.281287
 31
0.0
210
0.0
220
0.0
230
1.0
  0
TEXT
  8
10
  6
CONTINUOUS
 62
   134
  5
FC
 10
923901.61
 20
7238555.534
 30
0.0
 40
13.999
  1
71
 50
358.2161
  7
ROMANS
 72
     4
 11
923911.155387
 21
7238562.240103
 31
0.0
210
0.0
220
0.0
230
1.0
  0
TEXT
  8
10
  6
CONTINUOUS
 62
   134
  5
FD
 10
924030.149
 20
7238552.671
 30
0.0
 40
13.999
  1
72
 50
358.2161
  7
ROMANS
 72
     4
 11
924041.443538
 21
7238559.322626
 31
0.0
210
0.0
220
0.0
230
1.0
  0
TEXT
  8
10
  6
CONTINUOUS
 62
   134
  5
FE
 10
924165.954
 20
7238549.626
 30
0.0
 40
13.999
  1
73
 50
358.2161
  7
ROMANS
 72
     4
 11
924177.248538
 21
7238556.277626
 31
0.0
210
0.0
220
0.0
230
1.0
  0
TEXT
  8
10
  6
CONTINUOUS
 62
   134
  5
FF
 10
924299.019
 20
7238546.645
 30
0.0
 40
13.999
  1
74
 50
358.2161
  7
ROMANS
 72
     4
 11
924310.313538
 21
7238553.296626
 31
0.0
210
0.0
220
0.0
230
1.0
  0
TEXT
  8
10
  6
CONTINUOUS
 62
   134
  5
100
 10
924440.181
 20
7238543.483
 30
0.0
 40
13.999
  1
75
 50
358.2161
  7
ROMANS
 72
     4
 11
924451.49353
 21
7238550.134066
 31
0.0
210
0.0
220
0.0
230
1.0
  0
TEXT
  8
10
  6
CONTINUOUS
 62
   134
  5
101
 10
924570.035
 20
7238540.575
 30
0.0
 40
13.999
  1
76
 50
358.2161
  7
ROMANS
 72
     4
 11
924581.657379
 21
7238547.216415
 31
0.0
210
0.0
220
0.0
230
1.0
  0
TEXT
  8
10
  6
CONTINUOUS
 62
   134
  5
102
 10
922673.654
 20
7238354.72
 30
0.0
 40
13.999
  1
77
 50
358.2161
  7
ROMANS
 72
     4
 11
922684.948538
 21
7238361.371626
 31
0.0
210
0.0
220
0.0
230
1.0
  0
TEXT
  8
10
  6
CONTINUOUS
 62
   134
  5
103
 10
922820.27
 20
7238351.434
 30
0.0
 40
13.999
  1
78
 50
358.2161
  7
ROMANS
 72
     4
 11
922831.564538
 21
7238358.085626
 31
0.0
210
0.0
220
0.0
230
1.0
  0
TEXT
  8
10
  6
CONTINUOUS
 62
   134
  5
104
 10
922964.217
 20
7238348.208
 30
0.0
 40
13.999
  1
79
 50
358.2161
  7
ROMANS
 72
     4
 11
922975.511538
 21
7238354.859626
 31
0.0
210
0.0
220
0.0
230
1.0
  0
TEXT
  8
10
  6
CONTINUOUS
 62
   134
  5
105
 10
923104.875
 20
7238345.061
 30
0.0
 40
13.999
  1
80
 50
358.2161
  7
ROMANS
 72
     4
 11
923116.726268
 21
7238351.695287
 31
0.0
210
0.0
220
0.0
230
1.0
  0
TEXT
  8
10
  6
CONTINUOUS
 62
   134
  5
106
 10
923248.351
 20
7238341.826
 30
0.0
 40
13.999
  1
81
 50
358.2161
  7
ROMANS
 72
     4
 11
923257.896387
 21
7238348.532103
 31
0.0
210
0.0
220
0.0
230
1.0
  0
TEXT
  8
10
  6
CONTINUOUS
 62
   134
  5
107
 10
923390.489
 20
7238338.657
 30
0.0
 40
13.999
  1
82
 50
358.2161
  7
ROMANS
 72
     4
 11
923401.783538
 21
7238345.308626
 31
0.0
210
0.0
220
0.0
230
1.0
  0
TEXT
  8
10
  6
CONTINUOUS
 62
   134
  5
108
 10
923534.366
 20
7238335.433
 30
0.0
 40
13.999
  1
83
 50
358.2161
  7
ROMANS
 72
     4
 11
923545.660538
 21
7238342.084626
 31
0.0
210
0.0
220
0.0
230
1.0
  0
TEXT
  8
10
  6
CONTINUOUS
 62
   134
  5
109
 10
923670.098
 20
7238332.391
 30
0.0
 40
13.999
  1
84
 50
358.2161
  7
ROMANS
 72
     4
 11
923681.392538
 21
7238339.042626
 31
0.0
210
0.0
220
0.0
230
1.0
  0
TEXT
  8
10
  6
CONTINUOUS
 62
   134
  5
10A
 10
923822.117
 20
7238328.986
 30
0.0
 40
13.999
  1
85
 50
358.2161
  7
ROMANS
 72
     4
 11
923833.42953
 21
7238335.637066
 31
0.0
210
0.0
220
0.0
230
1.0
  0
TEXT
  8
10
  6
CONTINUOUS
 62
   134
  5
10B
 10
923960.257
 20
7238325.893
 30
0.0
 40
13.999
  1
86
 50
358.2161
  7
ROMANS
 72
     4
 11
923971.879379
 21
7238332.534415
 31
0.0
210
0.0
220
0.0
230
1.0
  0
TEXT
  8
10
  6
CONTINUOUS
 62
   134
  5
10C
 10
924104.465
 20
7238322.659
 30
0.0
 40
13.999
  1
87
 50
358.2161
  7
ROMANS
 72
     4
 11
924115.759538
 21
7238329.310626
 31
0.0
210
0.0
220
0.0
230
1.0
  0
TEXT
  8
10
  6
CONTINUOUS
 62
   134
  5
10D
 10
924245.651
 20
7238319.496
 30
0.0
 40
13.999
  1
88
 50
358.2161
  7
ROMANS
 72
     4
 11
924256.945538
 21
7238326.147626
 31
0.0
210
0.0
220
0.0
230
1.0
  0
TEXT
  8
10
  6
CONTINUOUS
 62
   134
  5
10E
 10
924392.336
 20
7238316.208
 30
0.0
 40
13.999
  1
89
 50
358.2161
  7
ROMANS
 72
     4
 11
924403.630538
 21
7238322.859626
 31
0.0
210
0.0
220
0.0
230
1.0
  0
TEXT
  8
10
  6
CONTINUOUS
 62
   134
  5
10F
 10
924532.949
 20
7238313.063
 30
0.0
 40
13.999
  1
90
 50
358.2161
  7
ROMANS
 72
     4
 11
924544.800268
 21
7238319.697287
 31
0.0
210
0.0
220
0.0
230
1.0
  0
TEXT
  8
10
  6
CONTINUOUS
 62
   134
  5
110
 10
924643.895
 20
7238310.557
 30
0.0
 40
13.999
  1
91
 50
358.2161
  7
ROMANS
 72
     4
 11
924653.440387
 21
7238317.263103
 31
0.0
210
0.0
220
0.0
230
1.0
  0
TEXT
  8
11
  6
CONTINUOUS
 62
     7
  5
111
 10
924942.885
 20
7239437.224
 30
0.0
 40
8.0
  1
450.38'
 50
358.700547
  7
ROMANS
 72
     1
 11
924968.393907
 21
7239444.647424
 31
0.0
210
0.0
220
0.0
230
1.0
 73
     3
  0
TEXT
  8
11
  6
CONTINUOUS
 62
     7
  5
112
 10
924747.606
 20
7239334.744
 30
0.0
 40
8.0
  1
248.59'
 50
88.243989
  7
ROMANS
 72
     1
 11
924748.382289
 21
7239360.065103
 31
0.0
210
0.0
220
0.0
230
1.0
  0
TEXT
  8
11
  6
CONTINUOUS
 62
     7
  5
113
 10
924930.342
 20
7239119.252
 30
0.0
 40
8.0
  1
420.22'
 50
358.716092
  7
ROMANS
 72
     1
 11
924955.66864
 21
7239118.684375
 31
0.0
210
0.0
220
0.0
230
1.0
  0
TEXT
  8
11
  6
CONTINUOUS
 62
     7
  5
114
 10
925182.293
 20
7239250.534
 30
0.0
 40
8.0
  1
315.25'
 50
88.2161
  7
ROMANS
 72
     1
 11
925175.085491
 21
7239276.103761
 31
0.0
210
0.0
220
0.0
230
1.0
 73
     3
  0
TEXT
  8
11
  6
CONTINUOUS
 62
     7
  5
115
 10
925189.795
 20
7239429.669
 30
0.0
 40
8.0
  1
15'
 50
358.700547
  7
ROMANS
 72
     1
 11
925199.308022
 21
7239437.455268
 31
0.0
210
0.0
220
0.0
230
1.0
 73
     3
  0
LINE
  8
21
  6
DASHDOT
 62
     7
  5
116
 10
924728.852
 20
7239230.405
 30
0.0
 11
924735.644
 21
7239451.927
 31
0.0
  0
POLYLINE
  8
21
  6
DASHDOT
 62
     7
  5
117
 66
     1
 10
0.0
 20
0.0
 30
0.0
  0
VERTEX
  8
21
  6
DASHDOT
 62
     7
  5
118
 10
924735.644
 20
7239451.927
 30
0.0
  0
VERTEX
  8
21
  6
DASHDOT
 62
     7
  5
119
 10
924740.643
 20
7239451.814
 30
0.0
  0
VERTEX
  8
21
  6
DASHDOT
 62
     7
  5
11A
 10
924733.025
 20
7239203.344
 30
0.0
  0
SEQEND
  8
21
  6
DASHDOT
 62
     7
  5
11B
  0
ARC
  8
21
  6
DASHDOT
 62
     7
  5
11C
 10
924658.059984
 20
7239205.636951
 30
0.0
 40
75.0
 50
358.247136
 51
19.283239
210
0.0
220
0.0
230
1.0
  0
TEXT
  8
11
  6
CONTINUOUS
 62
     7
  5
11D
 10
924741.943
 20
7239152.961
 30
0.0
 40
8.0
  1
66.53'
 50
88.243989
  7
ROMANS
 72
     1
 11
924742.596715
 21
7239174.283982
 31
0.0
210
0.0
220
0.0
230
1.0
  0
CIRCLE
  8
8
  6
CONTINUOUS
 62
     7
  5
11F
 10
924730.985801
 20
7239136.844062
 30
0.0
 40
1.0
210
0.0
220
0.0
230
1.0
  0
CIRCLE
  8
8
  6
CONTINUOUS
 62
     7
  5
120
 10
924745.642799
 20
7239121.389301
 30
0.0
 40
1.0
210
0.0
220
0.0
230
1.0
  0
CIRCLE
  8
8
  6
CONTINUOUS
 62
     7
  5
121
 10
924659.739021
 20
7239280.620649
 30
0.0
 40
1.0
210
0.0
220
0.0
230
1.0
  0
CIRCLE
  8
8
  6
CONTINUOUS
 62
     7
  5
122
 10
924658.394348
 20
7239220.645441
 30
0.0
 40
1.0
210
0.0
220
0.0
230
1.0
  0
CIRCLE
  8
8
  6
CONTINUOUS
 62
     7
  5
123
 10
924673.051315
 20
7239205.189681
 30
0.0
 40
1.0
210
0.0
220
0.0
230
1.0
  0
CIRCLE
  8
8
  6
CONTINUOUS
 62
     7
  5
124
 10
925165.7573
 20
7239111.973616
 30
0.0
 40
1.0
210
0.0
220
0.0
230
1.0
  0
CIRCLE
  8
8
  6
CONTINUOUS
 62
     7
  5
125
 10
925181.086011
 20
7239126.502476
 30
0.0
 40
1.0
210
0.0
220
0.0
230
1.0
  0
CIRCLE
  8
8
  6
CONTINUOUS
 62
     7
  5
126
 10
925163.627633
 20
7239052.010851
 30
0.0
 40
1.0
210
0.0
220
0.0
230
1.0
  0
CIRCLE
  8
8
  6
CONTINUOUS
 62
     7
  5
127
 10
925178.284351
 20
7239036.547095
 30
0.0
 40
1.0
210
0.0
220
0.0
230
1.0
  0
CIRCLE
  8
8
  6
CONTINUOUS
 62
     7
  5
128
 10
924743.556143
 20
7239061.426197
 30
0.0
 40
1.0
210
0.0
220
0.0
230
1.0
  0
CIRCLE
  8
8
  6
CONTINUOUS
 62
     7
  5
129
 10
924728.227182
 20
7239046.889341
 30
0.0
 40
1.0
210
0.0
220
0.0
230
1.0
  0
CIRCLE
  8
8
  6
CONTINUOUS
 62
     7
  5
12A
 10
924663.21726
 20
7238884.331309
 30
0.0
 40
1.0
210
0.0
220
0.0
230
1.0
  0
CIRCLE
  8
8
  6
CONTINUOUS
 62
     7
  5
12B
 10
924647.8883
 20
7238869.794453
 30
0.0
 40
1.0
210
0.0
220
0.0
230
1.0
  0
CIRCLE
  8
8
  6
CONTINUOUS
 62
     7
  5
12C
 10
924645.802487
 20
7238809.82632
 30
0.0
 40
1.0
210
0.0
220
0.0
230
1.0
  0
CIRCLE
  8
8
  6
CONTINUOUS
 62
     7
  5
12D
 10
924660.459423
 20
7238794.36956
 30
0.0
 40
1.0
210
0.0
220
0.0
230
1.0
  0
CIRCLE
  8
8
  6
CONTINUOUS
 62
     7
  5
12E
 10
924650.624743
 20
7238473.523214
 30
0.0
 40
1.0
210
0.0
220
0.0
230
1.0
  0
CIRCLE
  8
8
  6
CONTINUOUS
 62
     7
  5
12F
 10
924635.295783
 20
7238458.986357
 30
0.0
 40
1.0
210
0.0
220
0.0
230
1.0
  0
TEXT
  8
11
  6
CONTINUOUS
 62
     7
  5
130
 10
924928.062
 20
7239046.064
 30
0.0
 40
8.0
  1
420.18'
 50
358.716092
  7
ROMANS
 72
     1
 11
924953.38864
 21
7239045.496375
 31
0.0
210
0.0
220
0.0
230
1.0
  0
TEXT
  8
11
  6
CONTINUOUS
 62
     7
  5
131
 10
925170.349
 20
7238867.042
 30
0.0
 40
8.0
  1
314.99'
 50
88.2161
  7
ROMANS
 72
     1
 11
925163.141491
 21
7238892.611761
 31
0.0
210
0.0
220
0.0
230
1.0
 73
     3
  0
TEXT
  8
11
  6
CONTINUOUS
 62
     7
  5
132
 10
924733.324
 20
7238876.225
 30
0.0
 40
8.0
  1
311.55'
 50
88.243989
  7
ROMANS
 72
     1
 11
924734.100289
 21
7238901.546103
 31
0.0
210
0.0
220
0.0
230
1.0
  0
TEXT
  8
11
  6
CONTINUOUS
 62
     7
  5
133
 10
925167.895
 20
7238726.527
 30
0.0
 40
8.0
  1
15'
 50
358.700547
  7
ROMANS
 72
     1
 11
925177.408022
 21
7238734.313268
 31
0.0
210
0.0
220
0.0
230
1.0
 73
     3
  0
TEXT
  8
11
  6
CONTINUOUS
 62
     7
  5
134
 10
924751.23
 20
7239083.21
 30
0.0
 40
8.0
  1
60'
 50
88.243989
  7
ROMANS
 72
     1
 11
924751.515995
 21
7239092.538617
 31
0.0
210
0.0
220
0.0
230
1.0
  0
TEXT
  8
11
  6
CONTINUOUS
 62
     7
  5
135
 10
925163.756
 20
7239074.776
 30
0.0
 40
8.0
  1
60'
 50
88.243989
  7
ROMANS
 72
     1
 11
925164.041995
 21
7239084.104617
 31
0.0
210
0.0
220
0.0
230
1.0
  0
POLYLINE
  8
21
  6
DASHDOT
 62
     7
  5
136
 66
     1
 10
0.0
 20
0.0
 30
0.0
  0
VERTEX
  8
21
  6
DASHDOT
 62
     7
  5
137
 10
924719.601
 20
7238765.473
 30
0.0
  0
VERTEX
  8
21
  6
DASHDOT
 62
     7
  5
138
 10
924718.682
 20
7238735.488
 30
0.0
  0
VERTEX
  8
21
  6
DASHDOT
 62
     7
  5
139
 10
925168.478
 20
7238721.714
 30
0.0
  0
VERTEX
  8
21
  6
DASHDOT
 62
     7
  5
13A
 10
925169.413
 20
7238751.699
 30
0.0
  0
SEQEND
  8
21
  6
DASHDOT
 62
     7
  5
13B
  0
TEXT
  8
11
  6
CONTINUOUS
 62
     7
  5
13C
 10
924930.431
 20
7238730.997
 30
0.0
 40
8.0
  1
450.01'
 50
358.246042
  7
ROMANS
 72
     1
 11
924955.752131
 21
7238730.221619
 31
0.0
210
0.0
220
0.0
230
1.0
  0
TEXT
  8
22
  6
CONTINUOUS
 62
     3
  5
13E
 10
924729.276
 20
7239286.467
 30
0.0
 40
6.0
  1
5'UUE
 50
88.2161
  7
ROMANS
 72
     4
 11
924726.709381
 21
7239300.428665
 31
0.0
210
0.0
220
0.0
230
1.0
  0
TEXT
  8
19
  6
CONTINUOUS
 62
     1
  5
13F
 10
924750.415
 20
7239080.391
 30
0.0
 40
24.0
  1
COUNTY ROAD 7350
 50
358.716092
  7
ROMANC
 72
     4
 11
924960.195266
 21
7239087.692381
 31
0.0
210
0.0
220
0.0
230
1.0
  0
TEXT
  8
11
  6
CONTINUOUS
 62
     7
  5
140
 10
924647.98
 20
7239443.914
 30
0.0
 40
8.0
  1
135.56'
 50
358.700547
  7
ROMANS
 72
     1
 11
924673.488907
 21
7239451.337424
 31
0.0
210
0.0
220
0.0
230
1.0
 73
     3
  0
TEXT
  8
11
  6
CONTINUOUS
 62
     7
  5
141
 10
924518.229
 20
7239446.857
 30
0.0
 40
8.0
  1
130.5'
 50
358.700547
  7
ROMANS
 72
     1
 11
924539.738936
 21
7239454.371135
 31
0.0
210
0.0
220
0.0
230
1.0
 73
     3
  0
TEXT
  8
11
  6
CONTINUOUS
 62
     7
  5
142
 10
924385.383
 20
7239449.87
 30
0.0
 40
8.0
  1
130.5'
 50
358.700547
  7
ROMANS
 72
     1
 11
924406.892936
 21
7239457.384135
 31
0.0
210
0.0
220
0.0
230
1.0
 73
     3
  0
TEXT
  8
11
  6
CONTINUOUS
 62
     7
  5
143
 10
924256.657
 20
7239452.79
 30
0.0
 40
8.0
  1
130.5'
 50
358.700547
  7
ROMANS
 72
     1
 11
924278.166936
 21
7239460.304135
 31
0.0
210
0.0
220
0.0
230
1.0
 73
     3
  0
TEXT
  8
11
  6
CONTINUOUS
 62
     7
  5
144
 10
924127.25
 20
7239455.726
 30
0.0
 40
8.0
  1
130.5'
 50
358.700547
  7
ROMANS
 72
     1
 11
924148.759936
 21
7239463.240135
 31
0.0
210
0.0
220
0.0
230
1.0
 73
     3
  0
TEXT
  8
11
  6
CONTINUOUS
 62
     7
  5
145
 10
923994.864
 20
7239458.73
 30
0.0
 40
8.0
  1
130.5'
 50
358.700547
  7
ROMANS
 72
     1
 11
924016.373936
 21
7239466.244135
 31
0.0
210
0.0
220
0.0
230
1.0
 73
     3
  0
TEXT
  8
11
  6
CONTINUOUS
 62
     7
  5
146
 10
923866.785
 20
7239461.636
 30
0.0
 40
8.0
  1
130.5'
 50
358.700547
  7
ROMANS
 72
     1
 11
923888.294936
 21
7239469.150135
 31
0.0
210
0.0
220
0.0
230
1.0
 73
     3
  0
TEXT
  8
11
  6
CONTINUOUS
 62
     7
  5
147
 10
923734.417
 20
7239464.639
 30
0.0
 40
8.0
  1
130.5'
 50
358.700547
  7
ROMANS
 72
     1
 11
923755.926936
 21
7239472.153135
 31
0.0
210
0.0
220
0.0
230
1.0
 73
     3
  0
TEXT
  8
11
  6
CONTINUOUS
 62
     7
  5
148
 10
923604.283
 20
7239467.592
 30
0.0
 40
8.0
  1
130.5'
 50
358.700547
  7
ROMANS
 72
     1
 11
923625.792936
 21
7239475.106135
 31
0.0
210
0.0
220
0.0
230
1.0
 73
     3
  0
TEXT
  8
11
  6
CONTINUOUS
 62
     7
  5
149
 10
923471.931
 20
7239470.594
 30
0.0
 40
8.0
  1
130.5'
 50
358.700547
  7
ROMANS
 72
     1
 11
923493.440936
 21
7239478.108135
 31
0.0
210
0.0
220
0.0
230
1.0
 73
     3
  0
TEXT
  8
11
  6
CONTINUOUS
 62
     7
  5
14A
 10
923346.158
 20
7239473.447
 30
0.0
 40
8.0
  1
130.5'
 50
358.700547
  7
ROMANS
 72
     1
 11
923367.666936
 21
7239480.961157
 31
0.0
210
0.0
220
0.0
230
1.0
 73
     3
  0
TEXT
  8
11
  6
CONTINUOUS
 62
     7
  5
14B
 10
923216.519
 20
7239476.389
 30
0.0
 40
8.0
  1
130.5'
 50
358.700547
  7
ROMANS
 72
     1
 11
923238.027936
 21
7239483.903157
 31
0.0
210
0.0
220
0.0
230
1.0
 73
     3
  0
TEXT
  8
11
  6
CONTINUOUS
 62
     7
  5
14C
 10
923082.306
 20
7239479.434
 30
0.0
 40
8.0
  1
130.5'
 50
358.700547
  7
ROMANS
 72
     1
 11
923103.814936
 21
7239486.948157
 31
0.0
210
0.0
220
0.0
230
1.0
 73
     3
  0
TEXT
  8
11
  6
CONTINUOUS
 62
     7
  5
14D
 10
922955.848
 20
7239482.303
 30
0.0
 40
8.0
  1
130.5'
 50
358.700547
  7
ROMANS
 72
     1
 11
922977.356936
 21
7239489.817157
 31
0.0
210
0.0
220
0.0
230
1.0
 73
     3
  0
TEXT
  8
11
  6
CONTINUOUS
 62
     7
  5
14E
 10
922821.161
 20
7239485.357
 30
0.0
 40
8.0
  1
130.5'
 50
358.700547
  7
ROMANS
 72
     1
 11
922842.669936
 21
7239492.871157
 31
0.0
210
0.0
220
0.0
230
1.0
 73
     3
  0
TEXT
  8
11
  6
CONTINUOUS
 62
     7
  5
14F
 10
922688.762
 20
7239488.362
 30
0.0
 40
8.0
  1
132.5'
 50
358.700547
  7
ROMANS
 72
     1
 11
922710.271936
 21
7239495.876135
 31
0.0
210
0.0
220
0.0
230
1.0
 73
     3
  0
TEXT
  8
11
  6
CONTINUOUS
 62
     7
  5
150
 10
922648.211
 20
7239296.737
 30
0.0
 40
8.0
  1
30'
 50
358.700547
  7
ROMANS
 72
     1
 11
922657.724022
 21
7239304.523268
 31
0.0
210
0.0
220
0.0
230
1.0
 73
     3
  0
TEXT
  8
11
  6
CONTINUOUS
 62
     7
  5
151
 10
922770.236
 20
7239324.464
 30
0.0
 40
8.0
  1
12.64'
 50
88.700547
  7
ROMANS
 72
     1
 11
922762.721865
 21
7239345.973936
 31
0.0
210
0.0
220
0.0
230
1.0
 73
     3
  0
TEXT
  8
11
  6
CONTINUOUS
 62
     7
  5
152
 10
924611.433
 20
7239282.825
 30
0.0
 40
8.0
  1
60.03'
 50
358.716092
  7
ROMANS
 72
     1
 11
924632.760644
 21
7239282.347001
 31
0.0
210
0.0
220
0.0
230
1.0
  0
TEXT
  8
11
  6
CONTINUOUS
 62
     7
  5
153
 10
924515.209
 20
7239284.981
 30
0.0
 40
8.0
  1
130.5'
 50
358.716092
  7
ROMANS
 72
     1
 11
924536.536644
 21
7239284.503001
 31
0.0
210
0.0
220
0.0
230
1.0
  0
TEXT
  8
11
  6
CONTINUOUS
 62
     7
  5
154
 10
924385.57
 20
7239287.886
 30
0.0
 40
8.0
  1
130.5'
 50
358.716092
  7
ROMANS
 72
     1
 11
924406.897644
 21
7239287.408001
 31
0.0
210
0.0
220
0.0
230
1.0
  0
TEXT
  8
11
  6
CONTINUOUS
 62
     7
  5
155
 10
924252.662
 20
7239290.865
 30
0.0
 40
8.0
  1
130.5'
 50
358.716092
  7
ROMANS
 72
     1
 11
924273.989644
 21
7239290.387001
 31
0.0
210
0.0
220
0.0
230
1.0
  0
TEXT
  8
11
  6
CONTINUOUS
 62
     7
  5
156
 10
924124.652
 20
7239293.732
 30
0.0
 40
8.0
  1
130.5'
 50
358.716092
  7
ROMANS
 72
     1
 11
924145.979644
 21
7239293.254001
 31
0.0
210
0.0
220
0.0
230
1.0
  0
TEXT
  8
11
  6
CONTINUOUS
 62
     7
  5
157
 10
923991.708
 20
7239296.712
 30
0.0
 40
8.0
  1
130.5'
 50
358.716092
  7
ROMANS
 72
     1
 11
924013.035644
 21
7239296.234001
 31
0.0
210
0.0
220
0.0
230
1.0
  0
TEXT
  8
11
  6
CONTINUOUS
 62
     7
  5
158
 10
923861.694
 20
7239299.625
 30
0.0
 40
8.0
  1
130.5'
 50
358.716092
  7
ROMANS
 72
     1
 11
923883.021644
 21
7239299.147001
 31
0.0
210
0.0
220
0.0
230
1.0
  0
TEXT
  8
11
  6
CONTINUOUS
 62
     7
  5
159
 10
923732.046
 20
7239302.531
 30
0.0
 40
8.0
  1
130.5'
 50
358.716092
  7
ROMANS
 72
     1
 11
923753.373644
 21
7239302.053001
 31
0.0
210
0.0
220
0.0
230
1.0
  0
TEXT
  8
11
  6
CONTINUOUS
 62
     7
  5
15A
 10
923603.236
 20
7239305.418
 30
0.0
 40
8.0
  1
130.5'
 50
358.716092
  7
ROMANS
 72
     1
 11
923624.563644
 21
7239304.940001
 31
0.0
210
0.0
220
0.0
230
1.0
  0
TEXT
  8
11
  6
CONTINUOUS
 62
     7
  5
15B
 10
923468.677
 20
7239308.432
 30
0.0
 40
8.0
  1
130.5'
 50
358.716092
  7
ROMANS
 72
     1
 11
923490.004644
 21
7239307.954001
 31
0.0
210
0.0
220
0.0
230
1.0
  0
TEXT
  8
11
  6
CONTINUOUS
 62
     7
  5
15C
 10
923339.884
 20
7239311.32
 30
0.0
 40
8.0
  1
130.5'
 50
358.716092
  7
ROMANS
 72
     1
 11
923361.211644
 21
7239310.842001
 31
0.0
210
0.0
220
0.0
230
1.0
  0
TEXT
  8
11
  6
CONTINUOUS
 62
     7
  5
15D
 10
923212.676
 20
7239314.17
 30
0.0
 40
8.0
  1
130.5'
 50
358.716092
  7
ROMANS
 72
     1
 11
923234.003644
 21
7239313.692001
 31
0.0
210
0.0
220
0.0
230
1.0
  0
TEXT
  8
11
  6
CONTINUOUS
 62
     7
  5
15E
 10
923078.917
 20
7239317.167
 30
0.0
 40
8.0
  1
130.5'
 50
358.716092
  7
ROMANS
 72
     1
 11
923100.244644
 21
7239316.689001
 31
0.0
210
0.0
220
0.0
230
1.0
  0
TEXT
  8
11
  6
CONTINUOUS
 62
     7
  5
15F
 10
922947.66
 20
7239320.109
 30
0.0
 40
8.0
  1
130.5'
 50
358.716092
  7
ROMANS
 72
     1
 11
922968.987644
 21
7239319.631001
 31
0.0
210
0.0
220
0.0
230
1.0
  0
TEXT
  8
11
  6
CONTINUOUS
 62
     7
  5
160
 10
922819.236
 20
7239322.987
 30
0.0
 40
8.0
  1
130.5'
 50
358.716092
  7
ROMANS
 72
     1
 11
922840.563644
 21
7239322.509001
 31
0.0
210
0.0
220
0.0
230
1.0
  0
TEXT
  8
11
  6
CONTINUOUS
 62
     7
  5
161
 10
922771.951
 20
7239222.345
 30
0.0
 40
8.0
  1
12.64'
 50
88.700547
  7
ROMANS
 72
     1
 11
922764.436865
 21
7239243.854936
 31
0.0
210
0.0
220
0.0
230
1.0
 73
     3
  0
TEXT
  8
11
  6
CONTINUOUS
 62
     7
  5
162
 10
922822.018
 20
7239252.645
 30
0.0
 40
8.0
  1
135.45'
 50
358.716092
  7
ROMANS
 72
     1
 11
922847.34464
 21
7239252.077375
 31
0.0
210
0.0
220
0.0
230
1.0
  0
TEXT
  8
11
  6
CONTINUOUS
 62
     7
  5
163
 10
922957.395
 20
7239249.611
 30
0.0
 40
8.0
  1
135.45'
 50
358.716092
  7
ROMANS
 72
     1
 11
922982.72164
 21
7239249.043375
 31
0.0
210
0.0
220
0.0
230
1.0
  0
TEXT
  8
11
  6
CONTINUOUS
 62
     7
  5
164
 10
923091.904
 20
7239246.597
 30
0.0
 40
8.0
  1
135.45'
 50
358.716092
  7
ROMANS
 72
     1
 11
923117.23064
 21
7239246.029375
 31
0.0
210
0.0
220
0.0
230
1.0
  0
TEXT
  8
11
  6
CONTINUOUS
 62
     7
  5
165
 10
923232.145
 20
7239243.454
 30
0.0
 40
8.0
  1
135.45'
 50
358.716092
  7
ROMANS
 72
     1
 11
923257.47164
 21
7239242.886375
 31
0.0
210
0.0
220
0.0
230
1.0
  0
TEXT
  8
11
  6
CONTINUOUS
 62
     7
  5
166
 10
923364.224
 20
7239240.494
 30
0.0
 40
8.0
  1
135.45'
 50
358.716092
  7
ROMANS
 72
     1
 11
923389.55064
 21
7239239.926375
 31
0.0
210
0.0
220
0.0
230
1.0
  0
TEXT
  8
11
  6
CONTINUOUS
 62
     7
  5
167
 10
923499.599
 20
7239237.46
 30
0.0
 40
8.0
  1
135.45'
 50
358.716092
  7
ROMANS
 72
     1
 11
923524.92564
 21
7239236.892375
 31
0.0
210
0.0
220
0.0
230
1.0
  0
TEXT
  8
11
  6
CONTINUOUS
 62
     7
  5
168
 10
923636.556
 20
7239234.391
 30
0.0
 40
8.0
  1
135.45'
 50
358.716092
  7
ROMANS
 72
     1
 11
923661.88264
 21
7239233.823375
 31
0.0
210
0.0
220
0.0
230
1.0
  0
TEXT
  8
11
  6
CONTINUOUS
 62
     7
  5
169
 10
923771.134
 20
7239231.375
 30
0.0
 40
8.0
  1
135.45'
 50
358.716092
  7
ROMANS
 72
     1
 11
923796.46064
 21
7239230.807375
 31
0.0
210
0.0
220
0.0
230
1.0
  0
TEXT
  8
11
  6
CONTINUOUS
 62
     7
  5
16A
 10
923900.715
 20
7239228.471
 30
0.0
 40
8.0
  1
135.45'
 50
358.716092
  7
ROMANS
 72
     1
 11
923926.04164
 21
7239227.903375
 31
0.0
210
0.0
220
0.0
230
1.0
  0
TEXT
  8
11
  6
CONTINUOUS
 62
     7
  5
16B
 10
924038.51
 20
7239225.383
 30
0.0
 40
8.0
  1
135.45'
 50
358.716092
  7
ROMANS
 72
     1
 11
924063.83664
 21
7239224.815375
 31
0.0
210
0.0
220
0.0
230
1.0
  0
TEXT
  8
11
  6
CONTINUOUS
 62
     7
  5
16C
 10
924178.762
 20
7239222.239
 30
0.0
 40
8.0
  1
135.45'
 50
358.716092
  7
ROMANS
 72
     1
 11
924204.08864
 21
7239221.671375
 31
0.0
210
0.0
220
0.0
230
1.0
  0
TEXT
  8
11
  6
CONTINUOUS
 62
     7
  5
16D
 10
924312.081
 20
7239219.252
 30
0.0
 40
8.0
  1
135.45'
 50
358.716092
  7
ROMANS
 72
     1
 11
924337.40764
 21
7239218.684375
 31
0.0
210
0.0
220
0.0
230
1.0
  0
TEXT
  8
11
  6
CONTINUOUS
 62
     7
  5
16E
 10
924444.939
 20
7239216.274
 30
0.0
 40
8.0
  1
135.45'
 50
358.716092
  7
ROMANS
 72
     1
 11
924470.26564
 21
7239215.706375
 31
0.0
210
0.0
220
0.0
230
1.0
  0
TEXT
  8
11
  6
CONTINUOUS
 62
     7
  5
16F
 10
924574.628
 20
7239213.367
 30
0.0
 40
8.0
  1
120.33'
 50
358.716092
  7
ROMANS
 72
     1
 11
924599.95464
 21
7239212.799375
 31
0.0
210
0.0
220
0.0
230
1.0
  0
TEXT
  8
11
  6
CONTINUOUS
 62
     7
  5
170
 10
924579.577
 20
7239059.393
 30
0.0
 40
8.0
  1
135.53'
 50
358.716092
  7
ROMANS
 72
     1
 11
924604.90364
 21
7239058.825375
 31
0.0
210
0.0
220
0.0
230
1.0
  0
TEXT
  8
11
  6
CONTINUOUS
 62
     7
  5
171
 10
924694.17
 20
7239198.378
 30
0.0
 40
8.0
  1
60'
 50
358.243989
  7
ROMANS
 72
     1
 11
924703.498617
 21
7239198.092005
 31
0.0
210
0.0
220
0.0
230
1.0
  0
TEXT
  8
11
  6
CONTINUOUS
 62
     7
  5
172
 10
924658.936
 20
7239241.826
 30
0.0
 40
8.0
  1
60'
 50
88.243989
  7
ROMANS
 72
     1
 11
924659.221995
 21
7239251.154617
 31
0.0
210
0.0
220
0.0
230
1.0
  0
TEXT
  8
11
  6
CONTINUOUS
 62
     7
  5
173
 10
922773.238
 20
7239284.085
 30
0.0
 40
8.0
  1
60'
 50
88.243989
  7
ROMANS
 72
     1
 11
922773.523995
 21
7239293.413617
 31
0.0
210
0.0
220
0.0
230
1.0
  0
TEXT
  8
11
  6
CONTINUOUS
 62
     7
  5
174
 10
924666.861
 20
7239111.806
 30
0.0
 40
8.0
  1
150.38'
 50
88.2161
  7
ROMANS
 72
     1
 11
924659.653491
 21
7239137.375761
 31
0.0
210
0.0
220
0.0
230
1.0
 73
     3
  0
TEXT
  8
11
  6
CONTINUOUS
 62
     7
  5
175
 10
924661.257
 20
7238931.883
 30
0.0
 40
8.0
  1
150.62'
 50
88.2161
  7
ROMANS
 72
     1
 11
924654.049491
 21
7238957.452761
 31
0.0
210
0.0
220
0.0
230
1.0
 73
     3
  0
TEXT
  8
11
  6
CONTINUOUS
 62
     7
  5
176
 10
924544.727
 20
7239119.613
 30
0.0
 40
8.0
  1
165.5'
 50
88.2161
  7
ROMANS
 72
     1
 11
924537.394971
 21
7239141.1847
 31
0.0
210
0.0
220
0.0
230
1.0
 73
     3
  0
TEXT
  8
11
  6
CONTINUOUS
 62
     7
  5
177
 10
924539.721
 20
7238933.409
 30
0.0
 40
8.0
  1
165.5'
 50
88.2161
  7
ROMANS
 72
     1
 11
924532.388971
 21
7238954.9807
 31
0.0
210
0.0
220
0.0
230
1.0
 73
     3
  0
TEXT
  8
11
  6
CONTINUOUS
 62
     7
  5
178
 10
922682.154
 20
7239100.666
 30
0.0
 40
8.0
  1
138.64'
 50
358.716092
  7
ROMANS
 72
     1
 11
922707.48064
 21
7239100.098375
 31
0.0
210
0.0
220
0.0
230
1.0
  0
TEXT
  8
11
  6
CONTINUOUS
 62
     7
  5
179
 10
922681.168
 20
7239069.034
 30
0.0
 40
8.0
  1
138.63'
 50
358.716092
  7
ROMANS
 72
     1
 11
922706.49464
 21
7239068.466375
 31
0.0
210
0.0
220
0.0
230
1.0
  0
TEXT
  8
11
  6
CONTINUOUS
 62
     7
  5
17A
 10
922811.42
 20
7238912.367
 30
0.0
 40
8.0
  1
135.45'
 50
358.716092
  7
ROMANS
 72
     1
 11
922836.74664
 21
7238911.799375
 31
0.0
210
0.0
220
0.0
230
1.0
  0
TEXT
  8
11
  6
CONTINUOUS
 62
     7
  5
17B
 10
922952.841
 20
7238909.198
 30
0.0
 40
8.0
  1
135.45'
 50
358.716092
  7
ROMANS
 72
     1
 11
922978.16764
 21
7238908.630375
 31
0.0
210
0.0
220
0.0
230
1.0
  0
TEXT
  8
11
  6
CONTINUOUS
 62
     7
  5
17C
 10
923083.143
 20
7238906.276
 30
0.0
 40
8.0
  1
135.45'
 50
358.716092
  7
ROMANS
 72
     1
 11
923108.46964
 21
7238905.708375
 31
0.0
210
0.0
220
0.0
230
1.0
  0
TEXT
  8
11
  6
CONTINUOUS
 62
     7
  5
17D
 10
923221.501
 20
7238903.176
 30
0.0
 40
8.0
  1
135.45'
 50
358.716092
  7
ROMANS
 72
     1
 11
923246.82764
 21
7238902.608375
 31
0.0
210
0.0
220
0.0
230
1.0
  0
TEXT
  8
11
  6
CONTINUOUS
 62
     7
  5
17E
 10
923354.702
 20
7238900.191
 30
0.0
 40
8.0
  1
135.45'
 50
358.716092
  7
ROMANS
 72
     1
 11
923380.02864
 21
7238899.623375
 31
0.0
210
0.0
220
0.0
230
1.0
  0
TEXT
  8
11
  6
CONTINUOUS
 62
     7
  5
17F
 10
923487.211
 20
7238897.221
 30
0.0
 40
8.0
  1
135.45'
 50
358.716092
  7
ROMANS
 72
     1
 11
923512.53764
 21
7238896.653375
 31
0.0
210
0.0
220
0.0
230
1.0
  0
TEXT
  8
11
  6
CONTINUOUS
 62
     7
  5
180
 10
923621.966
 20
7238894.201
 30
0.0
 40
8.0
  1
135.45'
 50
358.716092
  7
ROMANS
 72
     1
 11
923647.29264
 21
7238893.633375
 31
0.0
210
0.0
220
0.0
230
1.0
  0
TEXT
  8
11
  6
CONTINUOUS
 62
     7
  5
181
 10
923757.419
 20
7238891.165
 30
0.0
 40
8.0
  1
135.45'
 50
358.716092
  7
ROMANS
 72
     1
 11
923782.74564
 21
7238890.597375
 31
0.0
210
0.0
220
0.0
230
1.0
  0
TEXT
  8
11
  6
CONTINUOUS
 62
     7
  5
182
 10
923893.622
 20
7238888.112
 30
0.0
 40
8.0
  1
135.45'
 50
358.716092
  7
ROMANS
 72
     1
 11
923918.94864
 21
7238887.544375
 31
0.0
210
0.0
220
0.0
230
1.0
  0
TEXT
  8
11
  6
CONTINUOUS
 62
     7
  5
183
 10
924029.095
 20
7238885.076
 30
0.0
 40
8.0
  1
135.45'
 50
358.716092
  7
ROMANS
 72
     1
 11
924054.42164
 21
7238884.508375
 31
0.0
210
0.0
220
0.0
230
1.0
  0
TEXT
  8
11
  6
CONTINUOUS
 62
     7
  5
184
 10
924164.522
 20
7238882.04
 30
0.0
 40
8.0
  1
135.45'
 50
358.716092
  7
ROMANS
 72
     1
 11
924189.84864
 21
7238881.472375
 31
0.0
210
0.0
220
0.0
230
1.0
  0
TEXT
  8
11
  6
CONTINUOUS
 62
     7
  5
185
 10
924300.713
 20
7238878.989
 30
0.0
 40
8.0
  1
135.45'
 50
358.716092
  7
ROMANS
 72
     1
 11
924326.03964
 21
7238878.421375
 31
0.0
210
0.0
220
0.0
230
1.0
  0
TEXT
  8
11
  6
CONTINUOUS
 62
     7
  5
186
 10
924441.377
 20
7238875.836
 30
0.0
 40
8.0
  1
135.45'
 50
358.716092
  7
ROMANS
 72
     1
 11
924466.70364
 21
7238875.268375
 31
0.0
210
0.0
220
0.0
230
1.0
  0
TEXT
  8
11
  6
CONTINUOUS
 62
     7
  5
187
 10
924566.391
 20
7238873.034
 30
0.0
 40
8.0
  1
120.75'
 50
358.716092
  7
ROMANS
 72
     1
 11
924591.71764
 21
7238872.466375
 31
0.0
210
0.0
220
0.0
230
1.0
  0
TEXT
  8
11
  6
CONTINUOUS
 62
     7
  5
188
 10
924578.842
 20
7239026.604
 30
0.0
 40
8.0
  1
135.54'
 50
358.716092
  7
ROMANS
 72
     1
 11
924604.16864
 21
7239026.036375
 31
0.0
210
0.0
220
0.0
230
1.0
  0
TEXT
  8
11
  6
CONTINUOUS
 62
     7
  5
189
 10
924564.803
 20
7238802.219
 30
0.0
 40
8.0
  1
120.53'
 50
358.716092
  7
ROMANS
 72
     1
 11
924590.12964
 21
7238801.651375
 31
0.0
210
0.0
220
0.0
230
1.0
  0
TEXT
  8
11
  6
CONTINUOUS
 62
     7
  5
18A
 10
924433.209
 20
7238804.802
 30
0.0
 40
8.0
  1
135.45'
 50
358.716092
  7
ROMANS
 72
     1
 11
924458.53564
 21
7238804.234375
 31
0.0
210
0.0
220
0.0
230
1.0
  0
TEXT
  8
11
  6
CONTINUOUS
 62
     7
  5
18B
 10
924298.513
 20
7238807.821
 30
0.0
 40
8.0
  1
135.45'
 50
358.716092
  7
ROMANS
 72
     1
 11
924323.83964
 21
7238807.253375
 31
0.0
210
0.0
220
0.0
230
1.0
  0
TEXT
  8
11
  6
CONTINUOUS
 62
     7
  5
18C
 10
924165.273
 20
7238810.807
 30
0.0
 40
8.0
  1
135.45'
 50
358.716092
  7
ROMANS
 72
     1
 11
924190.59964
 21
7238810.239375
 31
0.0
210
0.0
220
0.0
230
1.0
  0
TEXT
  8
11
  6
CONTINUOUS
 62
     7
  5
18D
 10
924029.839
 20
7238813.842
 30
0.0
 40
8.0
  1
135.45'
 50
358.716092
  7
ROMANS
 72
     1
 11
924055.16564
 21
7238813.274375
 31
0.0
210
0.0
220
0.0
230
1.0
  0
TEXT
  8
11
  6
CONTINUOUS
 62
     7
  5
18E
 10
923898.858
 20
7238816.778
 30
0.0
 40
8.0
  1
135.45'
 50
358.716092
  7
ROMANS
 72
     1
 11
923924.18464
 21
7238816.210375
 31
0.0
210
0.0
220
0.0
230
1.0
  0
TEXT
  8
11
  6
CONTINUOUS
 62
     7
  5
18F
 10
923752.992
 20
7238820.048
 30
0.0
 40
8.0
  1
135.45'
 50
358.716092
  7
ROMANS
 72
     1
 11
923778.31864
 21
7238819.480375
 31
0.0
210
0.0
220
0.0
230
1.0
  0
TEXT
  8
11
  6
CONTINUOUS
 62
     7
  5
190
 10
923622.685
 20
7238822.968
 30
0.0
 40
8.0
  1
135.45'
 50
358.716092
  7
ROMANS
 72
     1
 11
923648.01164
 21
7238822.400375
 31
0.0
210
0.0
220
0.0
230
1.0
  0
TEXT
  8
11
  6
CONTINUOUS
 62
     7
  5
191
 10
923487.993
 20
7238825.987
 30
0.0
 40
8.0
  1
135.45'
 50
358.716092
  7
ROMANS
 72
     1
 11
923513.31964
 21
7238825.419375
 31
0.0
210
0.0
220
0.0
230
1.0
  0
TEXT
  8
11
  6
CONTINUOUS
 62
     7
  5
192
 10
923354.023
 20
7238828.99
 30
0.0
 40
8.0
  1
135.45'
 50
358.716092
  7
ROMANS
 72
     1
 11
923379.34964
 21
7238828.422375
 31
0.0
210
0.0
220
0.0
230
1.0
  0
TEXT
  8
11
  6
CONTINUOUS
 62
     7
  5
193
 10
923210.376
 20
7238832.208
 30
0.0
 40
8.0
  1
135.45'
 50
358.716092
  7
ROMANS
 72
     1
 11
923235.70264
 21
7238831.640375
 31
0.0
210
0.0
220
0.0
230
1.0
  0
TEXT
  8
11
  6
CONTINUOUS
 62
     7
  5
194
 10
923077.913
 20
7238835.178
 30
0.0
 40
8.0
  1
135.45'
 50
358.716092
  7
ROMANS
 72
     1
 11
923103.23964
 21
7238834.610375
 31
0.0
210
0.0
220
0.0
230
1.0
  0
TEXT
  8
11
  6
CONTINUOUS
 62
     7
  5
195
 10
922948.433
 20
7238838.08
 30
0.0
 40
8.0
  1
135.45'
 50
358.716092
  7
ROMANS
 72
     1
 11
922973.75964
 21
7238837.512375
 31
0.0
210
0.0
220
0.0
230
1.0
  0
TEXT
  8
11
  6
CONTINUOUS
 62
     7
  5
196
 10
922811.504
 20
7238841.149
 30
0.0
 40
8.0
  1
135.45'
 50
358.716092
  7
ROMANS
 72
     1
 11
922836.83064
 21
7238840.581375
 31
0.0
210
0.0
220
0.0
230
1.0
  0
TEXT
  8
11
  6
CONTINUOUS
 62
     7
  5
197
 10
922759.952
 20
7238813.17
 30
0.0
 40
8.0
  1
18.25'
 50
88.700547
  7
ROMANS
 72
     1
 11
922752.437865
 21
7238834.679936
 31
0.0
210
0.0
220
0.0
230
1.0
 73
     3
  0
TEXT
  8
11
  6
CONTINUOUS
 62
     7
  5
198
 10
922762.187
 20
7238912.952
 30
0.0
 40
8.0
  1
18.78'
 50
88.700547
  7
ROMANS
 72
     1
 11
922754.672865
 21
7238934.461936
 31
0.0
210
0.0
220
0.0
230
1.0
 73
     3
  0
LINE
  8
21
  6
DASHDOT
 62
     7
  5
199
 10
922628.265
 20
7238915.057
 30
0.0
 11
922668.543
 21
7238914.156
 31
0.0
  0
LINE
  8
21
  6
DASHDOT
 62
     7
  5
19A
 10
922626.432
 20
7238855.084
 30
0.0
 11
922666.669
 21
7238854.182
 31
0.0
  0
LINE
  8
21
  6
DASHDOT
 62
     7
  5
19B
 10
922628.265
 20
7238915.057
 30
0.0
 11
922626.432
 21
7238855.084
 31
0.0
  0
ARC
  8
21
  6
DASHDOT
 62
     7
  5
19C
 10
922707.585391
 20
7238882.919747
 30
0.0
 40
50.0
 50
141.338325
 51
215.082417
210
0.0
220
0.0
230
1.0
  0
TEXT
  8
19
  6
CONTINUOUS
 62
     1
  5
19D
 10
923465.012
 20
7239263.515
 30
0.0
 40
24.0
  1
COUNTY ROAD 7340
 50
358.716092
  7
ROMANC
 72
     4
 11
923675.925981
 21
7239270.790972
 31
0.0
210
0.0
220
0.0
230
1.0
  0
TEXT
  8
19
  6
CONTINUOUS
 62
     1
  5
19E
 10
923456.936
 20
7238852.55
 30
0.0
 40
24.0
  1
COUNTY ROAD 7350
 50
358.716092
  7
ROMANC
 72
     4
 11
923666.716266
 21
7238859.851381
 31
0.0
210
0.0
220
0.0
230
1.0
  0
TEXT
  8
19
  6
CONTINUOUS
 62
     1
  5
19F
 10
923447.739
 20
7238442.194
 30
0.0
 40
24.0
  1
COUNTY ROAD 7360
 50
358.716092
  7
ROMANC
 72
     4
 11
923657.519266
 21
7238449.495381
 31
0.0
210
0.0
220
0.0
230
1.0
  0
TEXT
  8
11
  6
CONTINUOUS
 62
     7
  5
1A0
 10
924534.71
 20
7238709.886
 30
0.0
 40
8.0
  1
165.5'
 50
88.2161
  7
ROMANS
 72
     1
 11
924527.377971
 21
7238731.4577
 31
0.0
210
0.0
220
0.0
230
1.0
 73
     3
  0
TEXT
  8
11
  6
CONTINUOUS
 62
     7
  5
1A1
 10
924526.63
 20
7238523.174
 30
0.0
 40
8.0
  1
165.5'
 50
88.2161
  7
ROMANS
 72
     1
 11
924519.297971
 21
7238544.7457
 31
0.0
210
0.0
220
0.0
230
1.0
 73
     3
  0
TEXT
  8
11
  6
CONTINUOUS
 62
     7
  5
1A2
 10
924625.214
 20
7238293.955
 30
0.0
 40
8.0
  1
152.93'
 50
88.2161
  7
ROMANS
 72
     1
 11
924618.006491
 21
7238319.524761
 31
0.0
210
0.0
220
0.0
230
1.0
 73
     3
  0
TEXT
  8
11
  6
CONTINUOUS
 62
     7
  5
1A3
 10
924482.571
 20
7238297.152
 30
0.0
 40
8.0
  1
152.95'
 50
88.2161
  7
ROMANS
 72
     1
 11
924475.363491
 21
7238322.721761
 31
0.0
210
0.0
220
0.0
230
1.0
 73
     3
  0
TEXT
  8
11
  6
CONTINUOUS
 62
     7
  5
1A4
 10
924340.688
 20
7238300.332
 30
0.0
 40
8.0
  1
152.97'
 50
88.2161
  7
ROMANS
 72
     1
 11
924333.480491
 21
7238325.901761
 31
0.0
210
0.0
220
0.0
230
1.0
 73
     3
  0
TEXT
  8
11
  6
CONTINUOUS
 62
     7
  5
1A5
 10
924198.112
 20
7238303.528
 30
0.0
 40
8.0
  1
152.99'
 50
88.2161
  7
ROMANS
 72
     1
 11
924190.904491
 21
7238329.097761
 31
0.0
210
0.0
220
0.0
230
1.0
 73
     3
  0
TEXT
  8
11
  6
CONTINUOUS
 62
     7
  5
1A6
 10
924055.483
 20
7238306.726
 30
0.0
 40
8.0
  1
153.01'
 50
88.2161
  7
ROMANS
 72
     1
 11
924048.275491
 21
7238332.295761
 31
0.0
210
0.0
220
0.0
230
1.0
 73
     3
  0
TEXT
  8
11
  6
CONTINUOUS
 62
     7
  5
1A7
 10
923912.88
 20
7238309.922
 30
0.0
 40
8.0
  1
153.02'
 50
88.2161
  7
ROMANS
 72
     1
 11
923905.672491
 21
7238335.491761
 31
0.0
210
0.0
220
0.0
230
1.0
 73
     3
  0
TEXT
  8
11
  6
CONTINUOUS
 62
     7
  5
1A8
 10
923769.481
 20
7238313.137
 30
0.0
 40
8.0
  1
153.04'
 50
88.2161
  7
ROMANS
 72
     1
 11
923762.273491
 21
7238338.706761
 31
0.0
210
0.0
220
0.0
230
1.0
 73
     3
  0
TEXT
  8
11
  6
CONTINUOUS
 62
     7
  5
1A9
 10
923627.626
 20
7238316.317
 30
0.0
 40
8.0
  1
153.06'
 50
88.2161
  7
ROMANS
 72
     1
 11
923620.418491
 21
7238341.886761
 31
0.0
210
0.0
220
0.0
230
1.0
 73
     3
  0
TEXT
  8
11
  6
CONTINUOUS
 62
     7
  5
1AA
 10
923483.827
 20
7238319.54
 30
0.0
 40
8.0
  1
153.08'
 50
88.2161
  7
ROMANS
 72
     1
 11
923476.619491
 21
7238345.109761
 31
0.0
210
0.0
220
0.0
230
1.0
 73
     3
  0
TEXT
  8
11
  6
CONTINUOUS
 62
     7
  5
1AB
 10
923340.461
 20
7238322.753
 30
0.0
 40
8.0
  1
153.09'
 50
88.2161
  7
ROMANS
 72
     1
 11
923333.253491
 21
7238348.322761
 31
0.0
210
0.0
220
0.0
230
1.0
 73
     3
  0
TEXT
  8
11
  6
CONTINUOUS
 62
     7
  5
1AC
 10
923198.573
 20
7238325.934
 30
0.0
 40
8.0
  1
153.11'
 50
88.2161
  7
ROMANS
 72
     1
 11
923191.365491
 21
7238351.503761
 31
0.0
210
0.0
220
0.0
230
1.0
 73
     3
  0
TEXT
  8
11
  6
CONTINUOUS
 62
     7
  5
1AD
 10
923056.664
 20
7238329.115
 30
0.0
 40
8.0
  1
153.13'
 50
88.2161
  7
ROMANS
 72
     1
 11
923049.456491
 21
7238354.684761
 31
0.0
210
0.0
220
0.0
230
1.0
 73
     3
  0
TEXT
  8
11
  6
CONTINUOUS
 62
     7
  5
1AE
 10
922913.673
 20
7238332.32
 30
0.0
 40
8.0
  1
153.15'
 50
88.2161
  7
ROMANS
 72
     1
 11
922906.465491
 21
7238357.889761
 31
0.0
210
0.0
220
0.0
230
1.0
 73
     3
  0
TEXT
  8
11
  6
CONTINUOUS
 62
     7
  5
1AF
 10
922771.07
 20
7238335.516
 30
0.0
 40
8.0
  1
153.17'
 50
88.2161
  7
ROMANS
 72
     1
 11
922763.862491
 21
7238361.085761
 31
0.0
210
0.0
220
0.0
230
1.0
 73
     3
  0
TEXT
  8
11
  6
CONTINUOUS
 62
     7
  5
1B0
 10
924571.323
 20
7238647.851
 30
0.0
 40
8.0
  1
135.73'
 50
358.716092
  7
ROMANS
 72
     1
 11
924596.64964
 21
7238647.283375
 31
0.0
210
0.0
220
0.0
230
1.0
  0
TEXT
  8
11
  6
CONTINUOUS
 62
     7
  5
1B1
 10
924570.597
 20
7238615.401
 30
0.0
 40
8.0
  1
135.74'
 50
358.716092
  7
ROMANS
 72
     1
 11
924595.92364
 21
7238614.833375
 31
0.0
210
0.0
220
0.0
230
1.0
  0
TEXT
  8
11
  6
CONTINUOUS
 62
     7
  5
1B2
 10
924656.041
 20
7238699.167
 30
0.0
 40
8.0
  1
150.38'
 50
88.2161
  7
ROMANS
 72
     1
 11
924648.833491
 21
7238724.736761
 31
0.0
210
0.0
220
0.0
230
1.0
 73
     3
  0
TEXT
  8
11
  6
CONTINUOUS
 62
     7
  5
1B3
 10
924650.308
 20
7238520.792
 30
0.0
 40
8.0
  1
150.62'
 50
88.2161
  7
ROMANS
 72
     1
 11
924643.100491
 21
7238546.361761
 31
0.0
210
0.0
220
0.0
230
1.0
 73
     3
  0
TEXT
  8
11
  6
CONTINUOUS
 62
     7
  5
1B4
 10
924554.802
 20
7238463.34
 30
0.0
 40
8.0
  1
120.95'
 50
358.716092
  7
ROMANS
 72
     1
 11
924580.12864
 21
7238462.772375
 31
0.0
210
0.0
220
0.0
230
1.0
  0
TEXT
  8
11
  6
CONTINUOUS
 62
     7
  5
1B5
 10
924425.607
 20
7238465.611
 30
0.0
 40
8.0
  1
135.45'
 50
358.716092
  7
ROMANS
 72
     1
 11
924450.93364
 21
7238465.043375
 31
0.0
210
0.0
220
0.0
230
1.0
  0
TEXT
  8
11
  6
CONTINUOUS
 62
     7
  5
1B6
 10
924290.05
 20
7238468.648
 30
0.0
 40
8.0
  1
135.45'
 50
358.716092
  7
ROMANS
 72
     1
 11
924315.37664
 21
7238468.080375
 31
0.0
210
0.0
220
0.0
230
1.0
  0
TEXT
  8
11
  6
CONTINUOUS
 62
     7
  5
1B7
 10
924154.433
 20
7238471.687
 30
0.0
 40
8.0
  1
135.45'
 50
358.716092
  7
ROMANS
 72
     1
 11
924179.75964
 21
7238471.119375
 31
0.0
210
0.0
220
0.0
230
1.0
  0
TEXT
  8
11
  6
CONTINUOUS
 62
     7
  5
1B8
 10
924020.592
 20
7238474.687
 30
0.0
 40
8.0
  1
135.45'
 50
358.716092
  7
ROMANS
 72
     1
 11
924045.91864
 21
7238474.119375
 31
0.0
210
0.0
220
0.0
230
1.0
  0
TEXT
  8
11
  6
CONTINUOUS
 62
     7
  5
1B9
 10
923884.222
 20
7238477.745
 30
0.0
 40
8.0
  1
135.45'
 50
358.716092
  7
ROMANS
 72
     1
 11
923909.54864
 21
7238477.177375
 31
0.0
210
0.0
220
0.0
230
1.0
  0
TEXT
  8
11
  6
CONTINUOUS
 62
     7
  5
1BA
 10
923748.582
 20
7238480.784
 30
0.0
 40
8.0
  1
135.45'
 50
358.716092
  7
ROMANS
 72
     1
 11
923773.90864
 21
7238480.216375
 31
0.0
210
0.0
220
0.0
230
1.0
  0
TEXT
  8
11
  6
CONTINUOUS
 62
     7
  5
1BB
 10
923609.58
 20
7238483.9
 30
0.0
 40
8.0
  1
135.45'
 50
358.716092
  7
ROMANS
 72
     1
 11
923634.90664
 21
7238483.332375
 31
0.0
210
0.0
220
0.0
230
1.0
  0
TEXT
  8
11
  6
CONTINUOUS
 62
     7
  5
1BC
 10
923477.477
 20
7238486.861
 30
0.0
 40
8.0
  1
135.45'
 50
358.716092
  7
ROMANS
 72
     1
 11
923502.80364
 21
7238486.293375
 31
0.0
210
0.0
220
0.0
230
1.0
  0
TEXT
  8
11
  6
CONTINUOUS
 62
     7
  5
1BD
 10
923341.928
 20
7238489.898
 30
0.0
 40
8.0
  1
135.45'
 50
358.716092
  7
ROMANS
 72
     1
 11
923367.25464
 21
7238489.330375
 31
0.0
210
0.0
220
0.0
230
1.0
  0
TEXT
  8
11
  6
CONTINUOUS
 62
     7
  5
1BE
 10
923207.221
 20
7238492.918
 30
0.0
 40
8.0
  1
135.45'
 50
358.716092
  7
ROMANS
 72
     1
 11
923232.54764
 21
7238492.350375
 31
0.0
210
0.0
220
0.0
230
1.0
  0
TEXT
  8
11
  6
CONTINUOUS
 62
     7
  5
1BF
 10
923072.485
 20
7238495.937
 30
0.0
 40
8.0
  1
135.45'
 50
358.716092
  7
ROMANS
 72
     1
 11
923097.81164
 21
7238495.369375
 31
0.0
210
0.0
220
0.0
230
1.0
  0
TEXT
  8
11
  6
CONTINUOUS
 62
     7
  5
1C0
 10
922932.646
 20
7238499.071
 30
0.0
 40
8.0
  1
135.45'
 50
358.716092
  7
ROMANS
 72
     1
 11
922957.97264
 21
7238498.503375
 31
0.0
210
0.0
220
0.0
230
1.0
  0
TEXT
  8
11
  6
CONTINUOUS
 62
     7
  5
1C1
 10
922798.774
 20
7238502.071
 30
0.0
 40
8.0
  1
135.45'
 50
358.716092
  7
ROMANS
 72
     1
 11
922824.10064
 21
7238501.503375
 31
0.0
210
0.0
220
0.0
230
1.0
  0
TEXT
  8
11
  6
CONTINUOUS
 62
     7
  5
1C2
 10
922750.735
 20
7238401.942
 30
0.0
 40
8.0
  1
29.85'
 50
88.700547
  7
ROMANS
 72
     1
 11
922743.220865
 21
7238423.451936
 31
0.0
210
0.0
220
0.0
230
1.0
 73
     3
  0
TEXT
  8
11
  6
CONTINUOUS
 62
     7
  5
1C3
 10
922749.433
 20
7238501.823
 30
0.0
 40
8.0
  1
18.53'
 50
88.700547
  7
ROMANS
 72
     1
 11
922741.918865
 21
7238523.332936
 31
0.0
210
0.0
220
0.0
230
1.0
 73
     3
  0
TEXT
  8
11
  6
CONTINUOUS
 62
     7
  5
1C4
 10
922818.551
 20
7238429.775
 30
0.0
 40
8.0
  1
142.7'
 50
358.716092
  7
ROMANS
 72
     1
 11
922839.878644
 21
7238429.297001
 31
0.0
210
0.0
220
0.0
230
1.0
  0
TEXT
  8
11
  6
CONTINUOUS
 62
     7
  5
1C5
 10
922786.008
 20
7239388.863
 30
0.0
 40
8.0
  1
173.5'
 50
88.2161
  7
ROMANS
 72
     1
 11
922778.675971
 21
7239410.4347
 31
0.0
210
0.0
220
0.0
230
1.0
 73
     3
  0
TEXT
  8
11
  6
CONTINUOUS
 62
     7
  5
1C6
 10
922784.244
 20
7239157.592
 30
0.0
 40
8.0
  1
165.5'
 50
88.2161
  7
ROMANS
 72
     1
 11
922776.911971
 21
7239179.1637
 31
0.0
210
0.0
220
0.0
230
1.0
 73
     3
  0
TEXT
  8
11
  6
CONTINUOUS
 62
     7
  5
1C7
 10
922778.644
 20
7238977.857
 30
0.0
 40
8.0
  1
165.5'
 50
88.2161
  7
ROMANS
 72
     1
 11
922771.311971
 21
7238999.4287
 31
0.0
210
0.0
220
0.0
230
1.0
 73
     3
  0
TEXT
  8
11
  6
CONTINUOUS
 62
     7
  5
1C8
 10
922770.819
 20
7238749.161
 30
0.0
 40
8.0
  1
165.5'
 50
88.2161
  7
ROMANS
 72
     1
 11
922763.486971
 21
7238770.7327
 31
0.0
210
0.0
220
0.0
230
1.0
 73
     3
  0
TEXT
  8
11
  6
CONTINUOUS
 62
     7
  5
1C9
 10
922766.673
 20
7238564.19
 30
0.0
 40
8.0
  1
165.5'
 50
88.2161
  7
ROMANS
 72
     1
 11
922759.340971
 21
7238585.7617
 31
0.0
210
0.0
220
0.0
230
1.0
 73
     3
  0
POLYLINE
  8
21
  6
DASHDOT
 62
     7
  5
1CA
 66
     1
 10
0.0
 20
0.0
 30
0.0
  0
VERTEX
  8
21
  6
DASHDOT
 62
     7
  5
1CB
 10
922671.124
 20
7239305.185
 30
0.0
  0
VERTEX
  8
21
  6
DASHDOT
 62
     7
  5
1CC
 10
922640.205
 20
7239305.877
 30
0.0
  0
VERTEX
  8
21
  6
DASHDOT
 62
     7
  5
1CD
 10
922639.595
 20
7239285.884
 30
0.0
  0
VERTEX
  8
21
  6
DASHDOT
 62
     7
  5
1CE
 10
922670.678
 20
7239285.189
 30
0.0
  0
VERTEX
  8
21
  6
DASHDOT
 62
     7
  5
1CF
 10
922670.678234
 20
7239285.189124
 30
0.0
 42
-0.101019
  0
VERTEX
  8
21
  6
DASHDOT
 62
     7
  5
1D0
 10
922671.123886
 20
7239305.183941
 30
0.0
  0
SEQEND
  8
21
  6
DASHDOT
 62
     7
  5
1D1
  0
POLYLINE
  8
21
  6
DASHDOT
 62
     7
  5
1D2
 66
     1
 10
0.0
 20
0.0
 30
0.0
  0
VERTEX
  8
21
  6
DASHDOT
 62
     7
  5
1D3
 10
922646.023
 20
7238483.566
 30
0.0
  0
VERTEX
  8
21
  6
DASHDOT
 62
     7
  5
1D4
 10
922615.103
 20
7238484.259
 30
0.0
  0
VERTEX
  8
21
  6
DASHDOT
 62
     7
  5
1D5
 10
922614.493
 20
7238464.268
 30
0.0
  0
VERTEX
  8
21
  6
DASHDOT
 62
     7
  5
1D6
 10
922645.576
 20
7238463.571
 30
0.0
  0
VERTEX
  8
21
  6
DASHDOT
 62
     7
  5
1D7
 10
922645.57619
 20
7238463.571349
 30
0.0
 42
-0.101019
  0
VERTEX
  8
21
  6
DASHDOT
 62
     7
  5
1D8
 10
922646.021842
 20
7238483.566166
 30
0.0
  0
SEQEND
  8
21
  6
DASHDOT
 62
     7
  5
1D9
  0
TEXT
  8
11
  6
CONTINUOUS
 62
     7
  5
1DA
 10
922635.465
 20
7238887.453
 30
0.0
 40
8.0
  1
30'
 50
358.700547
  7
ROMANS
 72
     1
 11
922644.978022
 21
7238895.239268
 31
0.0
210
0.0
220
0.0
230
1.0
 73
     3
  0
TEXT
  8
11
  6
CONTINUOUS
 62
     7
  5
1DB
 10
922622.622
 20
7238475.07
 30
0.0
 40
8.0
  1
30'
 50
358.700547
  7
ROMANS
 72
     1
 11
922632.135022
 21
7238482.856268
 31
0.0
210
0.0
220
0.0
230
1.0
 73
     3
  0
TEXT
  8
11
  6
CONTINUOUS
 62
     7
  5
1DC
 10
922646.18
 20
7239173.127
 30
0.0
 40
8.0
  1
195.5'
 50
88.2161
  7
ROMANS
 72
     1
 11
922638.847971
 21
7239194.6987
 31
0.0
210
0.0
220
0.0
230
1.0
 73
     3
  0
TEXT
  8
11
  6
CONTINUOUS
 62
     7
  5
1DD
 10
922652.529
 20
7239376.99
 30
0.0
 40
8.0
  1
203.54'
 50
88.2161
  7
ROMANS
 72
     1
 11
922645.321491
 21
7239402.559761
 31
0.0
210
0.0
220
0.0
230
1.0
 73
     3
  0
TEXT
  8
11
  6
CONTINUOUS
 62
     7
  5
1DE
 10
922640.411
 20
7238971.747
 30
0.0
 40
8.0
  1
195.5'
 50
88.2161
  7
ROMANS
 72
     1
 11
922633.078971
 21
7238993.3187
 31
0.0
210
0.0
220
0.0
230
1.0
 73
     3
  0
TEXT
  8
11
  6
CONTINUOUS
 62
     7
  5
1DF
 10
922634.032
 20
7238766.931
 30
0.0
 40
8.0
  1
195.5'
 50
88.2161
  7
ROMANS
 72
     1
 11
922626.699971
 21
7238788.5027
 31
0.0
210
0.0
220
0.0
230
1.0
 73
     3
  0
TEXT
  8
11
  6
CONTINUOUS
 62
     7
  5
1E0
 10
922627.363
 20
7238552.805
 30
0.0
 40
8.0
  1
195.5'
 50
88.2161
  7
ROMANS
 72
     1
 11
922620.030971
 21
7238574.3767
 31
0.0
210
0.0
220
0.0
230
1.0
 73
     3
  0
TEXT
  8
11
  6
CONTINUOUS
 62
     7
  5
1E1
 10
922621.193
 20
7238354.7
 30
0.0
 40
8.0
  1
183.18'
 50
88.2161
  7
ROMANS
 72
     1
 11
922613.985491
 21
7238380.269761
 31
0.0
210
0.0
220
0.0
230
1.0
 73
     3
  0
TEXT
  8
11
  6
CONTINUOUS
 62
     7
  5
1E2
 10
922671.541
 20
7238291.352
 30
0.0
 40
8.0
  1
150'
 50
358.716092
  7
ROMANS
 72
     1
 11
922684.870653
 21
7238291.053253
 31
0.0
210
0.0
220
0.0
230
1.0
  0
TEXT
  8
11
  6
CONTINUOUS
 62
     7
  5
1E3
 10
922810.893
 20
7238288.247
 30
0.0
 40
8.0
  1
142.7'
 50
358.716092
  7
ROMANS
 72
     1
 11
922832.220644
 21
7238287.769001
 31
0.0
210
0.0
220
0.0
230
1.0
  0
TEXT
  8
11
  6
CONTINUOUS
 62
     7
  5
1E4
 10
922955.991
 20
7238285.014
 30
0.0
 40
8.0
  1
142.7'
 50
358.716092
  7
ROMANS
 72
     1
 11
922977.318644
 21
7238284.536001
 31
0.0
210
0.0
220
0.0
230
1.0
  0
TEXT
  8
11
  6
CONTINUOUS
 62
     7
  5
1E5
 10
923096.38
 20
7238281.884
 30
0.0
 40
8.0
  1
142.7'
 50
358.716092
  7
ROMANS
 72
     1
 11
923117.707644
 21
7238281.406001
 31
0.0
210
0.0
220
0.0
230
1.0
  0
TEXT
  8
11
  6
CONTINUOUS
 62
     7
  5
1E6
 10
923240.922
 20
7238278.664
 30
0.0
 40
8.0
  1
142.7'
 50
358.716092
  7
ROMANS
 72
     1
 11
923262.249644
 21
7238278.186001
 31
0.0
210
0.0
220
0.0
230
1.0
  0
TEXT
  8
11
  6
CONTINUOUS
 62
     7
  5
1E7
 10
923383.235
 20
7238275.493
 30
0.0
 40
8.0
  1
142.7'
 50
358.716092
  7
ROMANS
 72
     1
 11
923404.562644
 21
7238275.015001
 31
0.0
210
0.0
220
0.0
230
1.0
  0
TEXT
  8
11
  6
CONTINUOUS
 62
     7
  5
1E8
 10
923526.634
 20
7238272.297
 30
0.0
 40
8.0
  1
142.7'
 50
358.716092
  7
ROMANS
 72
     1
 11
923547.961644
 21
7238271.819001
 31
0.0
210
0.0
220
0.0
230
1.0
  0
TEXT
  8
11
  6
CONTINUOUS
 62
     7
  5
1E9
 10
923670.004
 20
7238269.102
 30
0.0
 40
8.0
  1
142.7'
 50
358.716092
  7
ROMANS
 72
     1
 11
923691.331644
 21
7238268.624001
 31
0.0
210
0.0
220
0.0
230
1.0
  0
TEXT
  8
11
  6
CONTINUOUS
 62
     7
  5
1EA
 10
923812.394
 20
7238265.929
 30
0.0
 40
8.0
  1
142.7'
 50
358.716092
  7
ROMANS
 72
     1
 11
923833.721644
 21
7238265.451001
 31
0.0
210
0.0
220
0.0
230
1.0
  0
TEXT
  8
11
  6
CONTINUOUS
 62
     7
  5
1EB
 10
923951.435
 20
7238262.83
 30
0.0
 40
8.0
  1
142.7'
 50
358.716092
  7
ROMANS
 72
     1
 11
923972.762644
 21
7238262.352001
 31
0.0
210
0.0
220
0.0
230
1.0
  0
TEXT
  8
11
  6
CONTINUOUS
 62
     7
  5
1EC
 10
924096.994
 20
7238259.586
 30
0.0
 40
8.0
  1
142.7'
 50
358.716092
  7
ROMANS
 72
     1
 11
924118.321644
 21
7238259.108001
 31
0.0
210
0.0
220
0.0
230
1.0
  0
TEXT
  8
11
  6
CONTINUOUS
 62
     7
  5
1ED
 10
924239.316
 20
7238256.413
 30
0.0
 40
8.0
  1
142.7'
 50
358.716092
  7
ROMANS
 72
     1
 11
924260.643644
 21
7238255.935001
 31
0.0
210
0.0
220
0.0
230
1.0
  0
TEXT
  8
11
  6
CONTINUOUS
 62
     7
  5
1EE
 10
924386.02
 20
7238253.144
 30
0.0
 40
8.0
  1
142.7'
 50
358.716092
  7
ROMANS
 72
     1
 11
924407.347644
 21
7238252.666001
 31
0.0
210
0.0
220
0.0
230
1.0
  0
TEXT
  8
11
  6
CONTINUOUS
 62
     7
  5
1EF
 10
924526.711
 20
7238250.009
 30
0.0
 40
8.0
  1
142.7'
 50
358.716092
  7
ROMANS
 72
     1
 11
924548.038644
 21
7238249.531001
 31
0.0
210
0.0
220
0.0
230
1.0
  0
TEXT
  8
11
  6
CONTINUOUS
 62
     7
  5
1F0
 10
924529.859
 20
7238391.269
 30
0.0
 40
8.0
  1
142.7'
 50
358.716092
  7
ROMANS
 72
     1
 11
924551.186644
 21
7238390.791001
 31
0.0
210
0.0
220
0.0
230
1.0
  0
TEXT
  8
11
  6
CONTINUOUS
 62
     7
  5
1F1
 10
924385.552
 20
7238394.485
 30
0.0
 40
8.0
  1
142.7'
 50
358.716092
  7
ROMANS
 72
     1
 11
924406.879644
 21
7238394.007001
 31
0.0
210
0.0
220
0.0
230
1.0
  0
TEXT
  8
11
  6
CONTINUOUS
 62
     7
  5
1F2
 10
924243.22
 20
7238397.658
 30
0.0
 40
8.0
  1
142.7'
 50
358.716092
  7
ROMANS
 72
     1
 11
924264.547644
 21
7238397.180001
 31
0.0
210
0.0
220
0.0
230
1.0
  0
TEXT
  8
11
  6
CONTINUOUS
 62
     7
  5
1F3
 10
924098.646
 20
7238400.879
 30
0.0
 40
8.0
  1
142.7'
 50
358.716092
  7
ROMANS
 72
     1
 11
924119.973644
 21
7238400.401001
 31
0.0
210
0.0
220
0.0
230
1.0
  0
TEXT
  8
11
  6
CONTINUOUS
 62
     7
  5
1F4
 10
923957.398
 20
7238404.026
 30
0.0
 40
8.0
  1
142.7'
 50
358.716092
  7
ROMANS
 72
     1
 11
923978.725644
 21
7238403.548001
 31
0.0
210
0.0
220
0.0
230
1.0
  0
TEXT
  8
11
  6
CONTINUOUS
 62
     7
  5
1F5
 10
923812.896
 20
7238407.246
 30
0.0
 40
8.0
  1
142.7'
 50
358.716092
  7
ROMANS
 72
     1
 11
923834.223644
 21
7238406.768001
 31
0.0
210
0.0
220
0.0
230
1.0
  0
TEXT
  8
11
  6
CONTINUOUS
 62
     7
  5
1F6
 10
923676.036
 20
7238410.297
 30
0.0
 40
8.0
  1
142.7'
 50
358.716092
  7
ROMANS
 72
     1
 11
923697.363644
 21
7238409.819001
 31
0.0
210
0.0
220
0.0
230
1.0
  0
TEXT
  8
11
  6
CONTINUOUS
 62
     7
  5
1F7
 10
923528.775
 20
7238413.577
 30
0.0
 40
8.0
  1
142.7'
 50
358.716092
  7
ROMANS
 72
     1
 11
923550.102644
 21
7238413.099001
 31
0.0
210
0.0
220
0.0
230
1.0
  0
TEXT
  8
11
  6
CONTINUOUS
 62
     7
  5
1F8
 10
923388.643
 20
7238416.701
 30
0.0
 40
8.0
  1
142.7'
 50
358.716092
  7
ROMANS
 72
     1
 11
923409.970644
 21
7238416.223001
 31
0.0
210
0.0
220
0.0
230
1.0
  0
TEXT
  8
11
  6
CONTINUOUS
 62
     7
  5
1F9
 10
923247.423
 20
7238419.848
 30
0.0
 40
8.0
  1
142.7'
 50
358.716092
  7
ROMANS
 72
     1
 11
923268.750644
 21
7238419.370001
 31
0.0
210
0.0
220
0.0
230
1.0
  0
TEXT
  8
11
  6
CONTINUOUS
 62
     7
  5
1FA
 10
923096.36
 20
7238423.214
 30
0.0
 40
8.0
  1
142.7'
 50
358.716092
  7
ROMANS
 72
     1
 11
923117.687644
 21
7238422.736001
 31
0.0
210
0.0
220
0.0
230
1.0
  0
TEXT
  8
11
  6
CONTINUOUS
 62
     7
  5
1FB
 10
922958.416
 20
7238426.287
 30
0.0
 40
8.0
  1
142.7'
 50
358.716092
  7
ROMANS
 72
     1
 11
922979.743644
 21
7238425.809001
 31
0.0
210
0.0
220
0.0
230
1.0
  0
TEXT
  8
22
  6
CONTINUOUS
 62
     3
  5
1FC
 10
924880.45
 20
7238745.263
 30
0.0
 40
6.0
  1
5'DRE
 50
358.2161
  7
ROMANS
 72
     4
 11
924894.411665
 21
7238747.829619
 31
0.0
210
0.0
220
0.0
230
1.0
  0
TEXT
  8
11
  6
CONTINUOUS
 62
     7
  5
1FD
 10
924683.736
 20
7238308.577
 30
0.0
 40
8.0
  1
142.92'
 50
88.2161
  7
ROMANS
 72
     1
 11
924676.528491
 21
7238334.146761
 31
0.0
210
0.0
220
0.0
230
1.0
 73
     3
  0
TEXT
  8
11
  6
CONTINUOUS
 62
     7
  5
1FE
 10
924658.6
 20
7238271.734
 30
0.0
 40
8.0
  1
14.2'
 50
313.2161
  7
ROMANS
 72
     1
 11
924676.299015
 21
7238264.580137
 31
0.0
210
0.0
220
0.0
230
1.0
 73
     3
  0
TEXT
  8
11
  6
CONTINUOUS
 62
     7
  5
1FF
 10
924625.62
 20
7238247.806
 30
0.0
 40
8.0
  1
59.85'
 50
358.716092
  7
ROMANS
 72
     1
 11
924646.947644
 21
7238247.328001
 31
0.0
210
0.0
220
0.0
230
1.0
  0
TEXT
  8
11
  6
CONTINUOUS
 62
     7
  5
200
 10
924636.61
 20
7238388.891
 30
0.0
 40
8.0
  1
69.77'
 50
358.716092
  7
ROMANS
 72
     1
 11
924657.937644
 21
7238388.413001
 31
0.0
210
0.0
220
0.0
230
1.0
  0
TEXT
  8
11
  6
CONTINUOUS
 62
     7
  5
201
 10
924687.331
 20
7238255.45
 30
0.0
 40
8.0
  1
20'
 50
358.716092
  7
ROMANS
 72
     1
 11
924696.661657
 21
7238255.24088
 31
0.0
210
0.0
220
0.0
230
1.0
  0
TEXT
  8
11
  6
CONTINUOUS
 62
     7
  5
202
 10
924690.286
 20
7238387.989
 30
0.0
 40
8.0
  1
20'
 50
358.716092
  7
ROMANS
 72
     1
 11
924699.616657
 21
7238387.77988
 31
0.0
210
0.0
220
0.0
230
1.0
  0
TEXT
  8
11
  6
CONTINUOUS
 62
     7
  5
203
 10
924673.348
 20
7238228.595
 30
0.0
 40
8.0
  1
20'
 50
88.716092
  7
ROMANS
 72
     1
 11
924673.557143
 21
7238237.926657
 31
0.0
210
0.0
220
0.0
230
1.0
  0
TEXT
  8
11
  6
CONTINUOUS
 62
     7
  5
204
 10
924636.637
 20
7238422.209
 30
0.0
 40
8.0
  1
60'
 50
88.716092
  7
ROMANS
 72
     1
 11
924636.846143
 21
7238431.540657
 31
0.0
210
0.0
220
0.0
230
1.0
  0
TEXT
  8
11
  6
CONTINUOUS
 62
     7
  5
205
 10
922618.618
 20
7238274.387
 30
0.0
 40
8.0
  1
20'
 50
88.716092
  7
ROMANS
 72
     1
 11
922618.827143
 21
7238283.718657
 31
0.0
210
0.0
220
0.0
230
1.0
  0
TEXT
  8
22
  6
CONTINUOUS
 62
     3
  5
206
 10
923524.785
 20
7238656.845
 30
0.0
 40
6.0
  1
20'        ALLEY
 50
358.723367
  7
ROMANS
210
0.0
220
0.0
230
1.0
  0
TEXT
  8
22
  6
CONTINUOUS
 62
     3
  5
207
 10
923496.0
 20
7238258.689
 30
0.0
 40
6.0
  1
20'        ALLEY
 50
358.723367
  7
ROMANS
210
0.0
220
0.0
230
1.0
  0
TEXT
  8
22
  6
CONTINUOUS
 62
     3
  5
208
 10
923524.015
 20
7239066.687
 30
0.0
 40
6.0
  1
20'        ALLEY
 50
358.723367
  7
ROMANS
210
0.0
220
0.0
230
1.0
  0
TEXT
  8
11
  6
CONTINUOUS
 62
     7
  5
209
 10
924645.781
 20
7238832.501
 30
0.0
 40
8.0
  1
60'
 50
88.716092
  7
ROMANS
 72
     1
 11
924645.990143
 21
7238841.832657
 31
0.0
210
0.0
220
0.0
230
1.0
  0
TEXT
  8
11
  6
CONTINUOUS
 62
     7
  5
20A
 10
924655.091
 20
7238627.66
 30
0.0
 40
8.0
  1
20'
 50
88.716092
  7
ROMANS
 72
     1
 11
924655.300143
 21
7238636.991657
 31
0.0
210
0.0
220
0.0
230
1.0
  0
TEXT
  8
11
  6
CONTINUOUS
 62
     7
  5
20B
 10
924667.247
 20
7239038.677
 30
0.0
 40
8.0
  1
20'
 50
88.716092
  7
ROMANS
 72
     1
 11
924667.456143
 21
7239048.008657
 31
0.0
210
0.0
220
0.0
230
1.0
  0
TEXT
  8
11
  6
CONTINUOUS
 62
     7
  5
20C
 10
922629.834
 20
7238672.659
 30
0.0
 40
8.0
  1
20'
 50
88.716092
  7
ROMANS
 72
     1
 11
922630.043143
 21
7238681.990657
 31
0.0
210
0.0
220
0.0
230
1.0
  0
TEXT
  8
11
  6
CONTINUOUS
 62
     7
  5
20D
 10
922644.013
 20
7239083.756
 30
0.0
 40
8.0
  1
20'
 50
88.716092
  7
ROMANS
 72
     1
 11
922644.222143
 21
7239093.087657
 31
0.0
210
0.0
220
0.0
230
1.0
  0
TEXT
  8
11
  6
CONTINUOUS
 62
     7
  5
20E
 10
922760.171
 20
7238874.37
 30
0.0
 40
8.0
  1
60'
 50
88.243989
  7
ROMANS
 72
     1
 11
922760.456995
 21
7238883.698617
 31
0.0
210
0.0
220
0.0
230
1.0
  0
TEXT
  8
11
  6
CONTINUOUS
 62
     7
  5
20F
 10
922744.017
 20
7238463.619
 30
0.0
 40
8.0
  1
60'
 50
88.243989
  7
ROMANS
 72
     1
 11
922744.302995
 21
7238472.947617
 31
0.0
210
0.0
220
0.0
230
1.0
  0
TEXT
  8
22
  6
CONTINUOUS
 62
     3
  5
210
 10
922639.098
 20
7239315.906
 30
0.0
 40
6.0
  1
20'UTIL
 50
358.2161
  7
ROMANS
 72
     4
 11
922658.931818
 21
7239318.289731
 31
0.0
210
0.0
220
0.0
230
1.0
  0
TEXT
  8
22
  6
CONTINUOUS
 62
     3
  5
211
 10
922647.538
 20
7239307.639
 30
0.0
 40
6.0
  1
ESMT
 50
358.2161
  7
ROMANS
 72
     4
 11
922658.626059
 21
7239310.295117
 31
0.0
210
0.0
220
0.0
230
1.0
  0
TEXT
  8
11
  6
CONTINUOUS
 62
     7
  5
212
 10
922685.263
 20
7239338.295
 30
0.0
 40
8.0
  1
94.87'
 50
15.918769
  7
ROMANS
 72
     1
 11
922705.777912
 21
7239344.146093
 31
0.0
210
0.0
220
0.0
230
1.0
  0
TEXT
  8
11
  6
CONTINUOUS
 62
     7
  5
213
 10
922679.29
 20
7239245.101
 30
0.0
 40
8.0
  1
94.87'
 50
339.789575
  7
ROMANS
 72
     1
 11
922702.073283
 21
7239245.238552
 31
0.0
210
0.0
220
0.0
230
1.0
 73
     3
  0
TEXT
  8
11
  6
CONTINUOUS
 62
     7
  5
214
 10
922676.098
 20
7238927.021
 30
0.0
 40
8.0
  1
94.87'
 50
15.918769
  7
ROMANS
 72
     1
 11
922696.612912
 21
7238932.872093
 31
0.0
210
0.0
220
0.0
230
1.0
  0
TEXT
  8
11
  6
CONTINUOUS
 62
     7
  5
215
 10
922670.139
 20
7238834.524
 30
0.0
 40
8.0
  1
94.87'
 50
339.789575
  7
ROMANS
 72
     1
 11
922692.922283
 21
7238834.661552
 31
0.0
210
0.0
220
0.0
230
1.0
 73
     3
  0
TEXT
  8
11
  6
CONTINUOUS
 62
     7
  5
216
 10
922660.933
 20
7238421.38
 30
0.0
 40
8.0
  1
94.87'
 50
339.789575
  7
ROMANS
 72
     1
 11
922683.716283
 21
7238421.517552
 31
0.0
210
0.0
220
0.0
230
1.0
 73
     3
  0
TEXT
  8
11
  6
CONTINUOUS
 62
     7
  5
217
 10
922659.002
 20
7238516.175
 30
0.0
 40
8.0
  1
94.87'
 50
15.918769
  7
ROMANS
 72
     1
 11
922679.516912
 21
7238522.026093
 31
0.0
210
0.0
220
0.0
230
1.0
  0
TEXT
  8
11
  6
CONTINUOUS
 62
     7
  5
218
 10
922684.304
 20
7239305.772
 30
0.0
 40
8.0
  1
R=50'
 50
329.789575
  7
ROMANS
 72
     1
 11
922703.30917
 21
7239303.963393
 31
0.0
210
0.0
220
0.0
230
1.0
 73
     3
  0
TEXT
  8
22
  6
CONTINUOUS
 62
     3
  5
219
 10
922612.085
 20
7238494.64
 30
0.0
 40
6.0
  1
20'UTIL
 50
358.2161
  7
ROMANS
 72
     4
 11
922631.918818
 21
7238497.023731
 31
0.0
210
0.0
220
0.0
230
1.0
  0
TEXT
  8
22
  6
CONTINUOUS
 62
     3
  5
21A
 10
922620.525
 20
7238486.372
 30
0.0
 40
6.0
  1
ESMT
 50
358.2161
  7
ROMANS
 72
     4
 11
922631.613059
 21
7238489.028117
 31
0.0
210
0.0
220
0.0
230
1.0
  0
TEXT
  8
22
  6
CONTINUOUS
 62
     3
  5
21B
 10
922627.509
 20
7238875.753
 30
0.0
 40
6.0
  1
60'FOR
 50
358.2161
  7
ROMANS
 72
     4
 11
922644.484204
 21
7238878.225762
 31
0.0
210
0.0
220
0.0
230
1.0
  0
TEXT
  8
22
  6
CONTINUOUS
 62
     3
  5
21C
 10
922627.284
 20
7238867.756
 30
0.0
 40
6.0
  1
FUTURE
 50
358.2161
  7
ROMANS
 72
     4
 11
922644.244211
 21
7238870.229229
 31
0.0
210
0.0
220
0.0
230
1.0
  0
TEXT
  8
22
  6
CONTINUOUS
 62
     3
  5
21D
 10
922632.961
 20
7238859.575
 30
0.0
 40
6.0
  1
ROAD
 50
358.2161
  7
ROMANS
 72
     4
 11
922643.958103
 21
7238862.23395
 31
0.0
210
0.0
220
0.0
230
1.0
  0
TEXT
  8
11
  6
CONTINUOUS
 62
     7
  5
21E
 10
922667.835
 20
7238659.71
 30
0.0
 40
8.0
  1
138.39'
 50
358.716092
  7
ROMANS
 72
     1
 11
922693.16164
 21
7238659.142375
 31
0.0
210
0.0
220
0.0
230
1.0
  0
TEXT
  8
11
  6
CONTINUOUS
 62
     7
  5
21F
 10
922672.471
 20
7238689.613
 30
0.0
 40
8.0
  1
138.4'
 50
358.716092
  7
ROMANS
 72
     1
 11
922693.798644
 21
7238689.135001
 31
0.0
210
0.0
220
0.0
230
1.0
  0
TEXT
  8
11
  6
CONTINUOUS
 62
     7
  5
220
 10
922675.202
 20
7238897.322
 30
0.0
 40
8.0
  1
R=50'
 50
329.789575
  7
ROMANS
 72
     1
 11
922694.20717
 21
7238895.513393
 31
0.0
210
0.0
220
0.0
230
1.0
 73
     3
  0
TEXT
  8
11
  6
CONTINUOUS
 62
     7
  5
221
 10
922656.567
 20
7238488.392
 30
0.0
 40
8.0
  1
R=50'
 50
329.789575
  7
ROMANS
 72
     1
 11
922675.57217
 21
7238486.583393
 31
0.0
210
0.0
220
0.0
230
1.0
 73
     3
  0
POLYLINE
  8
21
  6
DASHDOT
 62
     7
  5
222
 66
     1
 10
0.0
 20
0.0
 30
0.0
 70
     1
  0
VERTEX
  8
21
  6
DASHDOT
 62
     7
  5
223
 10
922778.584
 20
7239496.32
 30
0.0
  0
VERTEX
  8
21
  6
DASHDOT
 62
     7
  5
224
 10
922784.584
 20
7239496.185
 30
0.0
  0
VERTEX
  8
21
  6
DASHDOT
 62
     7
  5
225
 10
922784.458
 20
7239492.187
 30
0.0
  0
VERTEX
  8
21
  6
DASHDOT
 62
     7
  5
226
 10
922778.46
 20
7239492.322
 30
0.0
  0
VERTEX
  8
21
  6
DASHDOT
 62
     7
  5
227
 10
922778.584
 20
7239496.32
 30
0.0
  0
SEQEND
  8
21
  6
DASHDOT
 62
     7
  5
228
  0
POLYLINE
  8
21
  6
DASHDOT
 62
     7
  5
229
 66
     1
 10
0.0
 20
0.0
 30
0.0
 70
     1
  0
VERTEX
  8
21
  6
DASHDOT
 62
     7
  5
22A
 10
923039.517
 20
7239490.4
 30
0.0
  0
VERTEX
  8
21
  6
DASHDOT
 62
     7
  5
22B
 10
923045.515
 20
7239490.265
 30
0.0
  0
VERTEX
  8
21
  6
DASHDOT
 62
     7
  5
22C
 10
923045.391
 20
7239486.267
 30
0.0
  0
VERTEX
  8
21
  6
DASHDOT
 62
     7
  5
22D
 10
923039.392
 20
7239486.402
 30
0.0
  0
VERTEX
  8
21
  6
DASHDOT
 62
     7
  5
22E
 10
923039.517
 20
7239490.4
 30
0.0
  0
SEQEND
  8
21
  6
DASHDOT
 62
     7
  5
22F
  0
POLYLINE
  8
21
  6
DASHDOT
 62
     7
  5
230
 66
     1
 10
0.0
 20
0.0
 30
0.0
 70
     1
  0
VERTEX
  8
21
  6
DASHDOT
 62
     7
  5
231
 10
923300.448
 20
7239484.481
 30
0.0
  0
VERTEX
  8
21
  6
DASHDOT
 62
     7
  5
232
 10
923306.447
 20
7239484.347
 30
0.0
  0
VERTEX
  8
21
  6
DASHDOT
 62
     7
  5
233
 10
923306.322
 20
7239480.349
 30
0.0
  0
VERTEX
  8
21
  6
DASHDOT
 62
     7
  5
234
 10
923300.324
 20
7239480.483
 30
0.0
  0
VERTEX
  8
21
  6
DASHDOT
 62
     7
  5
235
 10
923300.448
 20
7239484.481
 30
0.0
  0
SEQEND
  8
21
  6
DASHDOT
 62
     7
  5
236
  0
POLYLINE
  8
21
  6
DASHDOT
 62
     7
  5
237
 66
     1
 10
0.0
 20
0.0
 30
0.0
 70
     1
  0
VERTEX
  8
21
  6
DASHDOT
 62
     7
  5
238
 10
923561.381
 20
7239478.563
 30
0.0
  0
VERTEX
  8
21
  6
DASHDOT
 62
     7
  5
239
 10
923567.379
 20
7239478.428
 30
0.0
  0
VERTEX
  8
21
  6
DASHDOT
 62
     7
  5
23A
 10
923567.255
 20
7239474.43
 30
0.0
  0
VERTEX
  8
21
  6
DASHDOT
 62
     7
  5
23B
 10
923561.256
 20
7239474.565
 30
0.0
  0
VERTEX
  8
21
  6
DASHDOT
 62
     7
  5
23C
 10
923561.381
 20
7239478.563
 30
0.0
  0
SEQEND
  8
21
  6
DASHDOT
 62
     7
  5
23D
  0
POLYLINE
  8
21
  6
DASHDOT
 62
     7
  5
23E
 66
     1
 10
0.0
 20
0.0
 30
0.0
 70
     1
  0
VERTEX
  8
21
  6
DASHDOT
 62
     7
  5
23F
 10
923822.312
 20
7239472.644
 30
0.0
  0
VERTEX
  8
21
  6
DASHDOT
 62
     7
  5
240
 10
923828.312
 20
7239472.509
 30
0.0
  0
VERTEX
  8
21
  6
DASHDOT
 62
     7
  5
241
 10
923828.187
 20
7239468.511
 30
0.0
  0
VERTEX
  8
21
  6
DASHDOT
 62
     7
  5
242
 10
923822.189
 20
7239468.646
 30
0.0
  0
VERTEX
  8
21
  6
DASHDOT
 62
     7
  5
243
 10
923822.312
 20
7239472.644
 30
0.0
  0
SEQEND
  8
21
  6
DASHDOT
 62
     7
  5
244
  0
POLYLINE
  8
21
  6
DASHDOT
 62
     7
  5
245
 66
     1
 10
0.0
 20
0.0
 30
0.0
 70
     1
  0
VERTEX
  8
21
  6
DASHDOT
 62
     7
  5
246
 10
924083.246
 20
7239466.725
 30
0.0
  0
VERTEX
  8
21
  6
DASHDOT
 62
     7
  5
247
 10
924089.244
 20
7239466.59
 30
0.0
  0
VERTEX
  8
21
  6
DASHDOT
 62
     7
  5
248
 10
924089.119
 20
7239462.592
 30
0.0
  0
VERTEX
  8
21
  6
DASHDOT
 62
     7
  5
249
 10
924083.12
 20
7239462.727
 30
0.0
  0
VERTEX
  8
21
  6
DASHDOT
 62
     7
  5
24A
 10
924083.246
 20
7239466.725
 30
0.0
  0
SEQEND
  8
21
  6
DASHDOT
 62
     7
  5
24B
  0
POLYLINE
  8
21
  6
DASHDOT
 62
     7
  5
24C
 66
     1
 10
0.0
 20
0.0
 30
0.0
 70
     1
  0
VERTEX
  8
21
  6
DASHDOT
 62
     7
  5
24D
 10
924344.177
 20
7239460.806
 30
0.0
  0
VERTEX
  8
21
  6
DASHDOT
 62
     7
  5
24E
 10
924350.176
 20
7239460.671
 30
0.0
  0
VERTEX
  8
21
  6
DASHDOT
 62
     7
  5
24F
 10
924350.051
 20
7239456.673
 30
0.0
  0
VERTEX
  8
21
  6
DASHDOT
 62
     7
  5
250
 10
924344.053
 20
7239456.808
 30
0.0
  0
VERTEX
  8
21
  6
DASHDOT
 62
     7
  5
251
 10
924344.177
 20
7239460.806
 30
0.0
  0
SEQEND
  8
21
  6
DASHDOT
 62
     7
  5
252
  0
POLYLINE
  8
21
  6
DASHDOT
 62
     7
  5
253
 66
     1
 10
0.0
 20
0.0
 30
0.0
 70
     1
  0
VERTEX
  8
21
  6
DASHDOT
 62
     7
  5
254
 10
924605.11
 20
7239454.887
 30
0.0
  0
VERTEX
  8
21
  6
DASHDOT
 62
     7
  5
255
 10
924611.108
 20
7239454.753
 30
0.0
  0
VERTEX
  8
21
  6
DASHDOT
 62
     7
  5
256
 10
924610.984
 20
7239450.755
 30
0.0
  0
VERTEX
  8
21
  6
DASHDOT
 62
     7
  5
257
 10
924604.985
 20
7239450.889
 30
0.0
  0
VERTEX
  8
21
  6
DASHDOT
 62
     7
  5
258
 10
924605.11
 20
7239454.887
 30
0.0
  0
SEQEND
  8
21
  6
DASHDOT
 62
     7
  5
259
  0
POLYLINE
  8
21
  6
DASHDOT
 62
     7
  5
25A
 66
     1
 10
0.0
 20
0.0
 30
0.0
 70
     1
  0
VERTEX
  8
21
  6
DASHDOT
 62
     7
  5
25B
 10
922771.915
 20
7239077.373
 30
0.0
  0
VERTEX
  8
21
  6
DASHDOT
 62
     7
  5
25C
 10
922765.917
 20
7239077.509
 30
0.0
  0
VERTEX
  8
21
  6
DASHDOT
 62
     7
  5
25D
 10
922765.792
 20
7239073.511
 30
0.0
  0
VERTEX
  8
21
  6
DASHDOT
 62
     7
  5
25E
 10
922771.79
 20
7239073.375
 30
0.0
  0
VERTEX
  8
21
  6
DASHDOT
 62
     7
  5
25F
 10
922771.915
 20
7239077.373
 30
0.0
  0
SEQEND
  8
21
  6
DASHDOT
 62
     7
  5
260
  0
POLYLINE
  8
21
  6
DASHDOT
 62
     7
  5
261
 66
     1
 10
0.0
 20
0.0
 30
0.0
 70
     1
  0
VERTEX
  8
21
  6
DASHDOT
 62
     7
  5
262
 10
922913.329
 20
7239074.204
 30
0.0
  0
VERTEX
  8
21
  6
DASHDOT
 62
     7
  5
263
 10
922907.331
 20
7239074.34
 30
0.0
  0
VERTEX
  8
21
  6
DASHDOT
 62
     7
  5
264
 10
922907.206
 20
7239070.342
 30
0.0
  0
VERTEX
  8
21
  6
DASHDOT
 62
     7
  5
265
 10
922913.206
 20
7239070.206
 30
0.0
  0
VERTEX
  8
21
  6
DASHDOT
 62
     7
  5
266
 10
922913.329
 20
7239074.204
 30
0.0
  0
SEQEND
  8
21
  6
DASHDOT
 62
     7
  5
267
  0
POLYLINE
  8
21
  6
DASHDOT
 62
     7
  5
268
 66
     1
 10
0.0
 20
0.0
 30
0.0
 70
     1
  0
VERTEX
  8
21
  6
DASHDOT
 62
     7
  5
269
 10
923184.163
 20
7239068.134
 30
0.0
  0
VERTEX
  8
21
  6
DASHDOT
 62
     7
  5
26A
 10
923178.164
 20
7239068.269
 30
0.0
  0
VERTEX
  8
21
  6
DASHDOT
 62
     7
  5
26B
 10
923178.039
 20
7239064.271
 30
0.0
  0
VERTEX
  8
21
  6
DASHDOT
 62
     7
  5
26C
 10
923184.037
 20
7239064.137
 30
0.0
  0
VERTEX
  8
21
  6
DASHDOT
 62
     7
  5
26D
 10
923184.163
 20
7239068.134
 30
0.0
  0
SEQEND
  8
21
  6
DASHDOT
 62
     7
  5
26E
  0
POLYLINE
  8
21
  6
DASHDOT
 62
     7
  5
26F
 66
     1
 10
0.0
 20
0.0
 30
0.0
 70
     1
  0
VERTEX
  8
21
  6
DASHDOT
 62
     7
  5
270
 10
923454.994
 20
7239062.064
 30
0.0
  0
VERTEX
  8
21
  6
DASHDOT
 62
     7
  5
271
 10
923448.996
 20
7239062.199
 30
0.0
  0
VERTEX
  8
21
  6
DASHDOT
 62
     7
  5
272
 10
923448.871
 20
7239058.201
 30
0.0
  0
VERTEX
  8
21
  6
DASHDOT
 62
     7
  5
273
 10
923454.87
 20
7239058.066
 30
0.0
  0
VERTEX
  8
21
  6
DASHDOT
 62
     7
  5
274
 10
923454.994
 20
7239062.064
 30
0.0
  0
SEQEND
  8
21
  6
DASHDOT
 62
     7
  5
275
  0
POLYLINE
  8
21
  6
DASHDOT
 62
     7
  5
276
 66
     1
 10
0.0
 20
0.0
 30
0.0
 70
     1
  0
VERTEX
  8
21
  6
DASHDOT
 62
     7
  5
277
 10
923725.827
 20
7239055.995
 30
0.0
  0
VERTEX
  8
21
  6
DASHDOT
 62
     7
  5
278
 10
923719.828
 20
7239056.129
 30
0.0
  0
VERTEX
  8
21
  6
DASHDOT
 62
     7
  5
279
 10
923719.704
 20
7239052.131
 30
0.0
  0
VERTEX
  8
21
  6
DASHDOT
 62
     7
  5
27A
 10
923725.702
 20
7239051.996
 30
0.0
  0
VERTEX
  8
21
  6
DASHDOT
 62
     7
  5
27B
 10
923725.827
 20
7239055.995
 30
0.0
  0
SEQEND
  8
21
  6
DASHDOT
 62
     7
  5
27C
  0
POLYLINE
  8
21
  6
DASHDOT
 62
     7
  5
27D
 66
     1
 10
0.0
 20
0.0
 30
0.0
 70
     1
  0
VERTEX
  8
21
  6
DASHDOT
 62
     7
  5
27E
 10
923996.659
 20
7239049.925
 30
0.0
  0
VERTEX
  8
21
  6
DASHDOT
 62
     7
  5
27F
 10
923990.66
 20
7239050.06
 30
0.0
  0
VERTEX
  8
21
  6
DASHDOT
 62
     7
  5
280
 10
923990.536
 20
7239046.061
 30
0.0
  0
VERTEX
  8
21
  6
DASHDOT
 62
     7
  5
281
 10
923996.535
 20
7239045.927
 30
0.0
  0
VERTEX
  8
21
  6
DASHDOT
 62
     7
  5
282
 10
923996.659
 20
7239049.925
 30
0.0
  0
SEQEND
  8
21
  6
DASHDOT
 62
     7
  5
283
  0
POLYLINE
  8
21
  6
DASHDOT
 62
     7
  5
284
 66
     1
 10
0.0
 20
0.0
 30
0.0
 70
     1
  0
VERTEX
  8
21
  6
DASHDOT
 62
     7
  5
285
 10
924267.492
 20
7239043.854
 30
0.0
  0
VERTEX
  8
21
  6
DASHDOT
 62
     7
  5
286
 10
924261.493
 20
7239043.989
 30
0.0
  0
VERTEX
  8
21
  6
DASHDOT
 62
     7
  5
287
 10
924261.368
 20
7239039.991
 30
0.0
  0
VERTEX
  8
21
  6
DASHDOT
 62
     7
  5
288
 10
924267.366
 20
7239039.856
 30
0.0
  0
VERTEX
  8
21
  6
DASHDOT
 62
     7
  5
289
 10
924267.492
 20
7239043.854
 30
0.0
  0
SEQEND
  8
21
  6
DASHDOT
 62
     7
  5
28A
  0
POLYLINE
  8
21
  6
DASHDOT
 62
     7
  5
28B
 66
     1
 10
0.0
 20
0.0
 30
0.0
 70
     1
  0
VERTEX
  8
21
  6
DASHDOT
 62
     7
  5
28C
 10
924538.324
 20
7239037.784
 30
0.0
  0
VERTEX
  8
21
  6
DASHDOT
 62
     7
  5
28D
 10
924532.324
 20
7239037.919
 30
0.0
  0
VERTEX
  8
21
  6
DASHDOT
 62
     7
  5
28E
 10
924532.201
 20
7239033.921
 30
0.0
  0
VERTEX
  8
21
  6
DASHDOT
 62
     7
  5
28F
 10
924538.2
 20
7239033.786
 30
0.0
  0
VERTEX
  8
21
  6
DASHDOT
 62
     7
  5
290
 10
924538.324
 20
7239037.784
 30
0.0
  0
SEQEND
  8
21
  6
DASHDOT
 62
     7
  5
291
  0
POLYLINE
  8
21
  6
DASHDOT
 62
     7
  5
292
 66
     1
 10
0.0
 20
0.0
 30
0.0
 70
     1
  0
VERTEX
  8
21
  6
DASHDOT
 62
     7
  5
293
 10
922759.868
 20
7238690.559
 30
0.0
  0
VERTEX
  8
21
  6
DASHDOT
 62
     7
  5
294
 10
922753.869
 20
7238690.694
 30
0.0
  0
VERTEX
  8
21
  6
DASHDOT
 62
     7
  5
295
 10
922753.744
 20
7238686.696
 30
0.0
  0
VERTEX
  8
21
  6
DASHDOT
 62
     7
  5
296
 10
922759.744
 20
7238686.561
 30
0.0
  0
VERTEX
  8
21
  6
DASHDOT
 62
     7
  5
297
 10
922759.868
 20
7238690.559
 30
0.0
  0
SEQEND
  8
21
  6
DASHDOT
 62
     7
  5
298
  0
POLYLINE
  8
21
  6
DASHDOT
 62
     7
  5
299
 66
     1
 10
0.0
 20
0.0
 30
0.0
 70
     1
  0
VERTEX
  8
21
  6
DASHDOT
 62
     7
  5
29A
 10
922901.283
 20
7238687.39
 30
0.0
  0
VERTEX
  8
21
  6
DASHDOT
 62
     7
  5
29B
 10
922895.283
 20
7238687.525
 30
0.0
  0
VERTEX
  8
21
  6
DASHDOT
 62
     7
  5
29C
 10
922895.16
 20
7238683.527
 30
0.0
  0
VERTEX
  8
21
  6
DASHDOT
 62
     7
  5
29D
 10
922901.158
 20
7238683.391
 30
0.0
  0
VERTEX
  8
21
  6
DASHDOT
 62
     7
  5
29E
 10
922901.283
 20
7238687.39
 30
0.0
  0
SEQEND
  8
21
  6
DASHDOT
 62
     7
  5
29F
  0
POLYLINE
  8
21
  6
DASHDOT
 62
     7
  5
2A0
 66
     1
 10
0.0
 20
0.0
 30
0.0
 70
     1
  0
VERTEX
  8
21
  6
DASHDOT
 62
     7
  5
2A1
 10
923172.115
 20
7238681.32
 30
0.0
  0
VERTEX
  8
21
  6
DASHDOT
 62
     7
  5
2A2
 10
923166.117
 20
7238681.455
 30
0.0
  0
VERTEX
  8
21
  6
DASHDOT
 62
     7
  5
2A3
 10
923165.991
 20
7238677.456
 30
0.0
  0
VERTEX
  8
21
  6
DASHDOT
 62
     7
  5
2A4
 10
923171.99
 20
7238677.322
 30
0.0
  0
VERTEX
  8
21
  6
DASHDOT
 62
     7
  5
2A5
 10
923172.115
 20
7238681.32
 30
0.0
  0
SEQEND
  8
21
  6
DASHDOT
 62
     7
  5
2A6
  0
POLYLINE
  8
21
  6
DASHDOT
 62
     7
  5
2A7
 66
     1
 10
0.0
 20
0.0
 30
0.0
 70
     1
  0
VERTEX
  8
21
  6
DASHDOT
 62
     7
  5
2A8
 10
923442.947
 20
7238675.249
 30
0.0
  0
VERTEX
  8
21
  6
DASHDOT
 62
     7
  5
2A9
 10
923436.948
 20
7238675.384
 30
0.0
  0
VERTEX
  8
21
  6
DASHDOT
 62
     7
  5
2AA
 10
923436.824
 20
7238671.386
 30
0.0
  0
VERTEX
  8
21
  6
DASHDOT
 62
     7
  5
2AB
 10
923442.823
 20
7238671.251
 30
0.0
  0
VERTEX
  8
21
  6
DASHDOT
 62
     7
  5
2AC
 10
923442.947
 20
7238675.249
 30
0.0
  0
SEQEND
  8
21
  6
DASHDOT
 62
     7
  5
2AD
  0
POLYLINE
  8
21
  6
DASHDOT
 62
     7
  5
2AE
 66
     1
 10
0.0
 20
0.0
 30
0.0
 70
     1
  0
VERTEX
  8
21
  6
DASHDOT
 62
     7
  5
2AF
 10
923713.78
 20
7238669.18
 30
0.0
  0
VERTEX
  8
21
  6
DASHDOT
 62
     7
  5
2B0
 10
923707.781
 20
7238669.315
 30
0.0
  0
VERTEX
  8
21
  6
DASHDOT
 62
     7
  5
2B1
 10
923707.656
 20
7238665.316
 30
0.0
  0
VERTEX
  8
21
  6
DASHDOT
 62
     7
  5
2B2
 10
923713.655
 20
7238665.182
 30
0.0
  0
VERTEX
  8
21
  6
DASHDOT
 62
     7
  5
2B3
 10
923713.78
 20
7238669.18
 30
0.0
  0
SEQEND
  8
21
  6
DASHDOT
 62
     7
  5
2B4
  0
POLYLINE
  8
21
  6
DASHDOT
 62
     7
  5
2B5
 66
     1
 10
0.0
 20
0.0
 30
0.0
 70
     1
  0
VERTEX
  8
21
  6
DASHDOT
 62
     7
  5
2B6
 10
923984.612
 20
7238663.11
 30
0.0
  0
VERTEX
  8
21
  6
DASHDOT
 62
     7
  5
2B7
 10
923978.613
 20
7238663.245
 30
0.0
  0
VERTEX
  8
21
  6
DASHDOT
 62
     7
  5
2B8
 10
923978.489
 20
7238659.247
 30
0.0
  0
VERTEX
  8
21
  6
DASHDOT
 62
     7
  5
2B9
 10
923984.487
 20
7238659.112
 30
0.0
  0
VERTEX
  8
21
  6
DASHDOT
 62
     7
  5
2BA
 10
923984.612
 20
7238663.11
 30
0.0
  0
SEQEND
  8
21
  6
DASHDOT
 62
     7
  5
2BB
  0
POLYLINE
  8
21
  6
DASHDOT
 62
     7
  5
2BC
 66
     1
 10
0.0
 20
0.0
 30
0.0
 70
     1
  0
VERTEX
  8
21
  6
DASHDOT
 62
     7
  5
2BD
 10
924255.444
 20
7238657.04
 30
0.0
  0
VERTEX
  8
21
  6
DASHDOT
 62
     7
  5
2BE
 10
924249.445
 20
7238657.174
 30
0.0
  0
VERTEX
  8
21
  6
DASHDOT
 62
     7
  5
2BF
 10
924249.321
 20
7238653.177
 30
0.0
  0
VERTEX
  8
21
  6
DASHDOT
 62
     7
  5
2C0
 10
924255.32
 20
7238653.042
 30
0.0
  0
VERTEX
  8
21
  6
DASHDOT
 62
     7
  5
2C1
 10
924255.444
 20
7238657.04
 30
0.0
  0
SEQEND
  8
21
  6
DASHDOT
 62
     7
  5
2C2
  0
POLYLINE
  8
21
  6
DASHDOT
 62
     7
  5
2C3
 66
     1
 10
0.0
 20
0.0
 30
0.0
 70
     1
  0
VERTEX
  8
21
  6
DASHDOT
 62
     7
  5
2C4
 10
924526.276
 20
7238650.969
 30
0.0
  0
VERTEX
  8
21
  6
DASHDOT
 62
     7
  5
2C5
 10
924520.278
 20
7238651.105
 30
0.0
  0
VERTEX
  8
21
  6
DASHDOT
 62
     7
  5
2C6
 10
924520.154
 20
7238647.107
 30
0.0
  0
VERTEX
  8
21
  6
DASHDOT
 62
     7
  5
2C7
 10
924526.152
 20
7238646.972
 30
0.0
  0
VERTEX
  8
21
  6
DASHDOT
 62
     7
  5
2C8
 10
924526.276
 20
7238650.969
 30
0.0
  0
SEQEND
  8
21
  6
DASHDOT
 62
     7
  5
2C9
  0
TEXT
  8
22
  6
CONTINUOUS
 62
     3
  5
2CA
 10
922781.785
 20
7239483.577
 30
0.0
 40
6.0
  1
TPE-
 50
358.7161
  7
ROMANS
 11
922781.919438
 21
7239489.575494
 31
0.0
210
0.0
220
0.0
230
1.0
 73
     3
  0
TEXT
  8
22
  6
CONTINUOUS
 62
     3
  5
2CB
 10
922781.606
 20
7239475.579
 30
0.0
 40
6.0
  1
SPEC
 50
358.7161
  7
ROMANS
 11
922781.740438
 21
7239481.577494
 31
0.0
210
0.0
220
0.0
230
1.0
 73
     3
  0
TEXT
  8
22
  6
CONTINUOUS
 62
     3
  5
2CC
 10
923041.609
 20
7239477.451
 30
0.0
 40
6.0
  1
TPE-
 50
358.7161
  7
ROMANS
 11
923041.743438
 21
7239483.449494
 31
0.0
210
0.0
220
0.0
230
1.0
 73
     3
  0
TEXT
  8
22
  6
CONTINUOUS
 62
     3
  5
2CD
 10
923041.431
 20
7239469.454
 30
0.0
 40
6.0
  1
SPEC
 50
358.7161
  7
ROMANS
 11
923041.565438
 21
7239475.452494
 31
0.0
210
0.0
220
0.0
230
1.0
 73
     3
  0
TEXT
  8
22
  6
CONTINUOUS
 62
     3
  5
2CE
 10
923302.412
 20
7239471.294
 30
0.0
 40
6.0
  1
TPE-
 50
358.7161
  7
ROMANS
 11
923302.546438
 21
7239477.292494
 31
0.0
210
0.0
220
0.0
230
1.0
 73
     3
  0
TEXT
  8
22
  6
CONTINUOUS
 62
     3
  5
2CF
 10
923302.233
 20
7239463.297
 30
0.0
 40
6.0
  1
SPEC
 50
358.7161
  7
ROMANS
 11
923302.367438
 21
7239469.295494
 31
0.0
210
0.0
220
0.0
230
1.0
 73
     3
  0
TEXT
  8
22
  6
CONTINUOUS
 62
     3
  5
2D0
 10
923562.913
 20
7239465.803
 30
0.0
 40
6.0
  1
TPE-
 50
358.7161
  7
ROMANS
 11
923563.047438
 21
7239471.801494
 31
0.0
210
0.0
220
0.0
230
1.0
 73
     3
  0
TEXT
  8
22
  6
CONTINUOUS
 62
     3
  5
2D1
 10
923562.734
 20
7239457.805
 30
0.0
 40
6.0
  1
SPEC
 50
358.7161
  7
ROMANS
 11
923562.868438
 21
7239463.803494
 31
0.0
210
0.0
220
0.0
230
1.0
 73
     3
  0
TEXT
  8
22
  6
CONTINUOUS
 62
     3
  5
2D2
 10
923823.758
 20
7239460.955
 30
0.0
 40
6.0
  1
TPE-
 50
358.7161
  7
ROMANS
 11
923823.892438
 21
7239466.953494
 31
0.0
210
0.0
220
0.0
230
1.0
 73
     3
  0
TEXT
  8
22
  6
CONTINUOUS
 62
     3
  5
2D3
 10
923823.578
 20
7239452.959
 30
0.0
 40
6.0
  1
SPEC
 50
358.7161
  7
ROMANS
 11
923823.712438
 21
7239458.957494
 31
0.0
210
0.0
220
0.0
230
1.0
 73
     3
  0
TEXT
  8
22
  6
CONTINUOUS
 62
     3
  5
2D4
 10
924084.871
 20
7239454.134
 30
0.0
 40
6.0
  1
TPE-
 50
358.7161
  7
ROMANS
 11
924085.005438
 21
7239460.132494
 31
0.0
210
0.0
220
0.0
230
1.0
 73
     3
  0
TEXT
  8
22
  6
CONTINUOUS
 62
     3
  5
2D5
 10
924084.692
 20
7239446.137
 30
0.0
 40
6.0
  1
SPEC
 50
358.7161
  7
ROMANS
 11
924084.826438
 21
7239452.135494
 31
0.0
210
0.0
220
0.0
230
1.0
 73
     3
  0
TEXT
  8
22
  6
CONTINUOUS
 62
     3
  5
2D6
 10
924346.349
 20
7239448.613
 30
0.0
 40
6.0
  1
TPE-
 50
358.7161
  7
ROMANS
 11
924346.483438
 21
7239454.611494
 31
0.0
210
0.0
220
0.0
230
1.0
 73
     3
  0
TEXT
  8
22
  6
CONTINUOUS
 62
     3
  5
2D7
 10
924346.17
 20
7239440.614
 30
0.0
 40
6.0
  1
SPEC
 50
358.7161
  7
ROMANS
 11
924346.304438
 21
7239446.612494
 31
0.0
210
0.0
220
0.0
230
1.0
 73
     3
  0
TEXT
  8
22
  6
CONTINUOUS
 62
     3
  5
2D8
 10
924607.484
 20
7239442.446
 30
0.0
 40
6.0
  1
TPE-
 50
358.7161
  7
ROMANS
 11
924607.618438
 21
7239448.444494
 31
0.0
210
0.0
220
0.0
230
1.0
 73
     3
  0
TEXT
  8
22
  6
CONTINUOUS
 62
     3
  5
2D9
 10
924607.304
 20
7239434.448
 30
0.0
 40
6.0
  1
SPEC
 50
358.7161
  7
ROMANS
 11
924607.438438
 21
7239440.446494
 31
0.0
210
0.0
220
0.0
230
1.0
 73
     3
  0
TEXT
  8
22
  6
CONTINUOUS
 62
     3
  5
2DA
 10
924534.883
 20
7239025.044
 30
0.0
 40
6.0
  1
TPE-
 50
358.7161
  7
ROMANS
 11
924535.017438
 21
7239031.042494
 31
0.0
210
0.0
220
0.0
230
1.0
 73
     3
  0
TEXT
  8
22
  6
CONTINUOUS
 62
     3
  5
2DB
 10
924534.704
 20
7239017.047
 30
0.0
 40
6.0
  1
SPEC
 50
358.7161
  7
ROMANS
 11
924534.838438
 21
7239023.045494
 31
0.0
210
0.0
220
0.0
230
1.0
 73
     3
  0
TEXT
  8
22
  6
CONTINUOUS
 62
     3
  5
2DC
 10
924263.279
 20
7239031.536
 30
0.0
 40
6.0
  1
TPE-
 50
358.7161
  7
ROMANS
 11
924263.413438
 21
7239037.534494
 31
0.0
210
0.0
220
0.0
230
1.0
 73
     3
  0
TEXT
  8
22
  6
CONTINUOUS
 62
     3
  5
2DD
 10
924263.101
 20
7239023.54
 30
0.0
 40
6.0
  1
SPEC
 50
358.7161
  7
ROMANS
 11
924263.235438
 21
7239029.538494
 31
0.0
210
0.0
220
0.0
230
1.0
 73
     3
  0
TEXT
  8
22
  6
CONTINUOUS
 62
     3
  5
2DE
 10
923991.66
 20
7239037.375
 30
0.0
 40
6.0
  1
TPE-
 50
358.7161
  7
ROMANS
 11
923991.794438
 21
7239043.373494
 31
0.0
210
0.0
220
0.0
230
1.0
 73
     3
  0
TEXT
  8
22
  6
CONTINUOUS
 62
     3
  5
2DF
 10
923991.482
 20
7239029.378
 30
0.0
 40
6.0
  1
SPEC
 50
358.7161
  7
ROMANS
 11
923991.616438
 21
7239035.376494
 31
0.0
210
0.0
220
0.0
230
1.0
 73
     3
  0
TEXT
  8
22
  6
CONTINUOUS
 62
     3
  5
2E0
 10
923721.999
 20
7239043.153
 30
0.0
 40
6.0
  1
TPE-
 50
358.7161
  7
ROMANS
 11
923722.133438
 21
7239049.151494
 31
0.0
210
0.0
220
0.0
230
1.0
 73
     3
  0
TEXT
  8
22
  6
CONTINUOUS
 62
     3
  5
2E1
 10
923721.82
 20
7239035.156
 30
0.0
 40
6.0
  1
SPEC
 50
358.7161
  7
ROMANS
 11
923721.954438
 21
7239041.154494
 31
0.0
210
0.0
220
0.0
230
1.0
 73
     3
  0
TEXT
  8
22
  6
CONTINUOUS
 62
     3
  5
2E2
 10
923451.054
 20
7239049.624
 30
0.0
 40
6.0
  1
TPE-
 50
358.7161
  7
ROMANS
 11
923451.188438
 21
7239055.622494
 31
0.0
210
0.0
220
0.0
230
1.0
 73
     3
  0
TEXT
  8
22
  6
CONTINUOUS
 62
     3
  5
2E3
 10
923450.876
 20
7239041.625
 30
0.0
 40
6.0
  1
SPEC
 50
358.7161
  7
ROMANS
 11
923451.010438
 21
7239047.623494
 31
0.0
210
0.0
220
0.0
230
1.0
 73
     3
  0
TEXT
  8
22
  6
CONTINUOUS
 62
     3
  5
2E4
 10
923180.086
 20
7239055.442
 30
0.0
 40
6.0
  1
TPE-
 50
358.7161
  7
ROMANS
 11
923180.220438
 21
7239061.440494
 31
0.0
210
0.0
220
0.0
230
1.0
 73
     3
  0
TEXT
  8
22
  6
CONTINUOUS
 62
     3
  5
2E5
 10
923179.906
 20
7239047.445
 30
0.0
 40
6.0
  1
SPEC
 50
358.7161
  7
ROMANS
 11
923180.040438
 21
7239053.443494
 31
0.0
210
0.0
220
0.0
230
1.0
 73
     3
  0
TEXT
  8
22
  6
CONTINUOUS
 62
     3
  5
2E6
 10
922909.14
 20
7239061.915
 30
0.0
 40
6.0
  1
TPE-
 50
358.7161
  7
ROMANS
 11
922909.274438
 21
7239067.913494
 31
0.0
210
0.0
220
0.0
230
1.0
 73
     3
  0
TEXT
  8
22
  6
CONTINUOUS
 62
     3
  5
2E7
 10
922908.96
 20
7239053.917
 30
0.0
 40
6.0
  1
SPEC
 50
358.7161
  7
ROMANS
 11
922909.094438
 21
7239059.915494
 31
0.0
210
0.0
220
0.0
230
1.0
 73
     3
  0
TEXT
  8
22
  6
CONTINUOUS
 62
     3
  5
2E8
 10
922747.523
 20
7239066.948
 30
0.0
 40
6.0
  1
TPE-
 50
358.7161
  7
ROMANS
 11
922747.657438
 21
7239072.946494
 31
0.0
210
0.0
220
0.0
230
1.0
 73
     3
  0
TEXT
  8
22
  6
CONTINUOUS
 62
     3
  5
2E9
 10
922747.344
 20
7239058.951
 30
0.0
 40
6.0
  1
SPEC
 50
358.7161
  7
ROMANS
 11
922747.478438
 21
7239064.949494
 31
0.0
210
0.0
220
0.0
230
1.0
 73
     3
  0
TEXT
  8
22
  6
CONTINUOUS
 62
     3
  5
2EA
 10
922736.164
 20
7238702.235
 30
0.0
 40
6.0
  1
TPE-
 50
358.7161
  7
ROMANS
 11
922736.298438
 21
7238708.233494
 31
0.0
210
0.0
220
0.0
230
1.0
 73
     3
  0
TEXT
  8
22
  6
CONTINUOUS
 62
     3
  5
2EB
 10
922735.985
 20
7238694.237
 30
0.0
 40
6.0
  1
SPEC
 50
358.7161
  7
ROMANS
 11
922736.119438
 21
7238700.235494
 31
0.0
210
0.0
220
0.0
230
1.0
 73
     3
  0
TEXT
  8
22
  6
CONTINUOUS
 62
     3
  5
2EC
 10
922897.822
 20
7238698.511
 30
0.0
 40
6.0
  1
TPE-
 50
358.7161
  7
ROMANS
 11
922897.956438
 21
7238704.509494
 31
0.0
210
0.0
220
0.0
230
1.0
 73
     3
  0
TEXT
  8
22
  6
CONTINUOUS
 62
     3
  5
2ED
 10
922897.642
 20
7238690.514
 30
0.0
 40
6.0
  1
SPEC
 50
358.7161
  7
ROMANS
 11
922897.776438
 21
7238696.512494
 31
0.0
210
0.0
220
0.0
230
1.0
 73
     3
  0
TEXT
  8
22
  6
CONTINUOUS
 62
     3
  5
2EE
 10
923169.095
 20
7238692.029
 30
0.0
 40
6.0
  1
TPE-
 50
358.7161
  7
ROMANS
 11
923169.229438
 21
7238698.027494
 31
0.0
210
0.0
220
0.0
230
1.0
 73
     3
  0
TEXT
  8
22
  6
CONTINUOUS
 62
     3
  5
2EF
 10
923168.916
 20
7238684.033
 30
0.0
 40
6.0
  1
SPEC
 50
358.7161
  7
ROMANS
 11
923169.050438
 21
7238690.031494
 31
0.0
210
0.0
220
0.0
230
1.0
 73
     3
  0
TEXT
  8
22
  6
CONTINUOUS
 62
     3
  5
2F0
 10
923439.389
 20
7238685.576
 30
0.0
 40
6.0
  1
TPE-
 50
358.7161
  7
ROMANS
 11
923439.523438
 21
7238691.574494
 31
0.0
210
0.0
220
0.0
230
1.0
 73
     3
  0
TEXT
  8
22
  6
CONTINUOUS
 62
     3
  5
2F1
 10
923439.21
 20
7238677.579
 30
0.0
 40
6.0
  1
SPEC
 50
358.7161
  7
ROMANS
 11
923439.344438
 21
7238683.577494
 31
0.0
210
0.0
220
0.0
230
1.0
 73
     3
  0
TEXT
  8
22
  6
CONTINUOUS
 62
     3
  5
2F2
 10
923710.375
 20
7238680.414
 30
0.0
 40
6.0
  1
TPE-
 50
358.7161
  7
ROMANS
 11
923710.509438
 21
7238686.412494
 31
0.0
210
0.0
220
0.0
230
1.0
 73
     3
  0
TEXT
  8
22
  6
CONTINUOUS
 62
     3
  5
2F3
 10
923710.195
 20
7238672.417
 30
0.0
 40
6.0
  1
SPEC
 50
358.7161
  7
ROMANS
 11
923710.329438
 21
7238678.415494
 31
0.0
210
0.0
220
0.0
230
1.0
 73
     3
  0
TEXT
  8
22
  6
CONTINUOUS
 62
     3
  5
2F4
 10
923980.629
 20
7238672.652
 30
0.0
 40
6.0
  1
TPE-
 50
358.7161
  7
ROMANS
 11
923980.763438
 21
7238678.650494
 31
0.0
210
0.0
220
0.0
230
1.0
 73
     3
  0
TEXT
  8
22
  6
CONTINUOUS
 62
     3
  5
2F5
 10
923980.449
 20
7238664.655
 30
0.0
 40
6.0
  1
SPEC
 50
358.7161
  7
ROMANS
 11
923980.583438
 21
7238670.653494
 31
0.0
210
0.0
220
0.0
230
1.0
 73
     3
  0
TEXT
  8
22
  6
CONTINUOUS
 62
     3
  5
2F6
 10
924251.594
 20
7238666.835
 30
0.0
 40
6.0
  1
TPE-
 50
358.7161
  7
ROMANS
 11
924251.728438
 21
7238672.833494
 31
0.0
210
0.0
220
0.0
230
1.0
 73
     3
  0
TEXT
  8
22
  6
CONTINUOUS
 62
     3
  5
2F7
 10
924251.416
 20
7238658.837
 30
0.0
 40
6.0
  1
SPEC
 50
358.7161
  7
ROMANS
 11
924251.550438
 21
7238664.835494
 31
0.0
210
0.0
220
0.0
230
1.0
 73
     3
  0
TEXT
  8
22
  6
CONTINUOUS
 62
     3
  5
2F8
 10
924522.563
 20
7238661.016
 30
0.0
 40
6.0
  1
TPE-
 50
358.7161
  7
ROMANS
 11
924522.697438
 21
7238667.014494
 31
0.0
210
0.0
220
0.0
230
1.0
 73
     3
  0
TEXT
  8
22
  6
CONTINUOUS
 62
     3
  5
2F9
 10
924522.384
 20
7238653.019
 30
0.0
 40
6.0
  1
SPEC
 50
358.7161
  7
ROMANS
 11
924522.518438
 21
7238659.017494
 31
0.0
210
0.0
220
0.0
230
1.0
 73
     3
  0
POLYLINE
  8
21
  6
DASHDOT
 62
     7
  5
2FA
 66
     1
 10
0.0
 20
0.0
 30
0.0
 70
     1
  0
VERTEX
  8
21
  6
DASHDOT
 62
     7
  5
2FB
 10
922641.007
 20
7238435.852
 30
0.0
  0
VERTEX
  8
21
  6
DASHDOT
 62
     7
  5
2FC
 10
922646.004
 20
7238435.697
 30
0.0
  0
VERTEX
  8
21
  6
DASHDOT
 62
     7
  5
2FD
 10
922645.849
 20
7238430.699
 30
0.0
  0
VERTEX
  8
21
  6
DASHDOT
 62
     7
  5
2FE
 10
922640.851
 20
7238430.854
 30
0.0
  0
SEQEND
  8
21
  6
DASHDOT
 62
     7
  5
2FF
  0
TEXT
  8
22
  6
CONTINUOUS
 62
     3
  5
300
 10
922630.607
 20
7238423.721
 30
0.0
 40
6.0
  1
H2O
 50
358.7161
  7
ROMANS
 11
922630.741438
 21
7238429.719494
 31
0.0
210
0.0
220
0.0
230
1.0
 73
     3
  0
TEXT
  8
22
  6
CONTINUOUS
 62
     3
  5
301
 10
922630.428
 20
7238415.724
 30
0.0
 40
6.0
  1
WELL
 50
358.7161
  7
ROMANS
 11
922630.562438
 21
7238421.722494
 31
0.0
210
0.0
220
0.0
230
1.0
 73
     3
  0
TEXT
  8
11
  6
CONTINUOUS
 62
     7
  5
302
 10
922580.92
 20
7238290.995
 30
0.0
 40
8.0
  1
40'
 50
358.716092
  7
ROMANS
 72
     1
 11
922590.250657
 21
7238290.78588
 31
0.0
210
0.0
220
0.0
230
1.0
  0
TEXT
  8
11
  6
CONTINUOUS
 62
     7
  5
303
 10
922618.226
 20
7239488.834
 30
0.0
 40
8.0
  1
40'
 50
358.716092
  7
ROMANS
 72
     1
 11
922627.556657
 21
7239488.62488
 31
0.0
210
0.0
220
0.0
230
1.0
  0
TEXT
  8
19
  6
CONTINUOUS
 62
     1
  5
304
 10
922596.771
 20
7238694.805
 30
0.0
 40
24.0
  1
CHICAGO   AVENUE
 50
88.2161
  7
ROMANC
 72
     4
 11
922591.288693
 21
7238904.261177
 31
0.0
210
0.0
220
0.0
230
1.0
  0
TEXT
  8
11
  6
CONTINUOUS
 62
     7
  5
305
 10
924707.68
 20
7238494.586
 30
0.0
 40
8.0
  1
511.22'
 50
88.2161
  7
ROMANS
 72
     1
 11
924700.472491
 21
7238520.155761
 31
0.0
210
0.0
220
0.0
230
1.0
 73
     3
  0
TEXT
  8
11
  6
CONTINUOUS
 62
     7
  5
306
 10
924730.211
 20
7238742.896
 30
0.0
 40
8.0
  1
30'
 50
88.243989
  7
ROMANS
 72
     1
 11
924730.496995
 21
7238752.224617
 31
0.0
210
0.0
220
0.0
230
1.0
  0
TEXT
  8
15
  6
CONTINUOUS
 62
    30
  5
308
 10
922799.168
 20
7238591.168
 30
0.0
 40
50.0
  1
SANDY MIRAH ESTATES
 50
28.2161
  7
ROMANC
 72
     4
 11
923248.547462
 21
7238860.657107
 31
0.0
210
0.0
220
0.0
230
1.0
  0
TEXT
  8
19
  6
CONTINUOUS
 62
     1
  5
309
 10
922849.509
 20
7242285.607
 30
0.0
 40
24.0
  1
114th STREET
 50
358.6706
  7
ROMANC
 72
     4
 11
922992.325028
 21
7242294.29596
 31
0.0
210
0.0
220
0.0
230
1.0
  0
TEXT
  8
19
  6
CONTINUOUS
 62
     1
  5
30A
 10
919983.641
 20
7238919.784
 30
0.0
 40
24.0
  1
FRANKFORD  AVENUE
 50
88.6681
  7
ROMANC
 72
     4
 11
919977.022612
 21
7239151.388412
 31
0.0
210
0.0
220
0.0
230
1.0
  0
TEXT
  8
19
  6
CONTINUOUS
 62
     1
  5
30B
 10
922619.145
 20
7237076.393
 30
0.0
 40
24.0
  1
FARM ROAD 1585
 50
358.2161
  7
ROMANC
 72
     4
 11
922801.312409
 21
7237082.725216
 31
0.0
210
0.0
220
0.0
230
1.0
  0
TEXT
  8
19
  6
CONTINUOUS
 62
     1
  5
30C
 10
925241.901
 20
7239523.656
 30
0.0
 40
24.0
  1
SLIDE ROAD
 50
88.2161
  7
ROMANC
 72
     4
 11
925233.718641
 21
7239646.419214
 31
0.0
210
0.0
220
0.0
230
1.0
  0
TEXT
  8
19
  6
CONTINUOUS
 62
     1
  5
30D
 10
925305.468
 20
7241302.136
 30
0.0
 40
24.0
  1
SLIDE ROAD
 50
88.2161
  7
ROMANC
 72
     4
 11
925297.285641
 21
7241424.899214
 31
0.0
210
0.0
220
0.0
230
1.0
  0
TEXT
  8
19
  6
CONTINUOUS
 62
     1
  5
30E
 10
925187.93
 20
7237768.039
 30
0.0
 40
24.0
  1
SLIDE ROAD
 50
88.2161
  7
ROMANC
 72
     4
 11
925179.747641
 21
7237890.802214
 31
0.0
210
0.0
220
0.0
230
1.0
  0
LINE
  8
6
  6
CONTINUOUS
 62
     7
  5
310
 10
920105.778
 20
7242337.579
 30
0.0
 11
921833.072
 21
7242297.489
 31
0.0
  0
LINE
  8
6
  6
CONTINUOUS
 62
     7
  5
311
 10
921833.072
 20
7242297.489
 30
0.0
 11
922008.025
 21
7242293.429
 31
0.0
  0
LINE
  8
6
  6
CONTINUOUS
 62
     7
  5
312
 10
922008.025
 20
7242293.429
 30
0.0
 11
922020.021
 21
7242293.15
 31
0.0
  0
LINE
  8
6
  6
CONTINUOUS
 62
     7
  5
313
 10
922020.021
 20
7242293.15
 30
0.0
 11
922244.361
 21
7242287.945
 31
0.0
  0
LINE
  8
6
  6
CONTINUOUS
 62
     7
  5
314
 10
922244.361
 20
7242287.945
 30
0.0
 11
922468.701
 21
7242282.739
 31
0.0
  0
LINE
  8
6
  6
CONTINUOUS
 62
     7
  5
315
 10
922468.701
 20
7242282.739
 30
0.0
 11
922693.04
 21
7242277.532
 31
0.0
  0
LINE
  8
6
  6
CONTINUOUS
 62
     7
  5
316
 10
922693.04
 20
7242277.532
 30
0.0
 11
922693.388
 21
7242292.529
 31
0.0
  0
LINE
  8
6
  6
CONTINUOUS
 62
     7
  5
317
 10
922693.388
 20
7242292.529
 30
0.0
 11
922793.361
 21
7242290.208
 31
0.0
  0
LINE
  8
6
  6
CONTINUOUS
 62
     7
  5
318
 10
922793.361
 20
7242290.208
 30
0.0
 11
922793.013
 21
7242275.212
 31
0.0
  0
LINE
  8
6
  6
CONTINUOUS
 62
     7
  5
319
 10
922793.013
 20
7242275.212
 30
0.0
 11
925292.34
 21
7242217.212
 31
0.0
  0
LINE
  8
6
  6
CONTINUOUS
 62
     7
  5
31A
 10
925292.34
 20
7242217.212
 30
0.0
 11
925243.329
 21
7240643.564
 31
0.0
  0
LINE
  8
6
  6
CONTINUOUS
 62
     7
  5
31B
 10
920032.719
 20
7239742.533
 30
0.0
 11
922612.349
 21
7239682.556
 31
0.0
  0
LINE
  8
6
  6
CONTINUOUS
 62
     7
  5
31C
 10
920046.589
 20
7239702.2
 30
0.0
 11
922556.434
 21
7239643.845
 31
0.0
  0
POLYLINE
  8
6
  6
CONTINUOUS
 62
     7
  5
31D
 66
     1
 10
0.0
 20
0.0
 30
0.0
  0
VERTEX
  8
6
  6
CONTINUOUS
 62
     7
  5
31E
 10
920046.552
 20
7239702.201
 30
0.0
  0
VERTEX
  8
6
  6
CONTINUOUS
 62
     7
  5
31F
 10
920044.984
 20
7239702.154
 30
0.0
  0
VERTEX
  8
6
  6
CONTINUOUS
 62
     7
  5
320
 10
920043.426
 20
7239701.945
 30
0.0
  0
VERTEX
  8
6
  6
CONTINUOUS
 62
     7
  5
321
 10
920041.901
 20
7239701.575
 30
0.0
  0
VERTEX
  8
6
  6
CONTINUOUS
 62
     7
  5
322
 10
920040.422
 20
7239701.045
 30
0.0
  0
VERTEX
  8
6
  6
CONTINUOUS
 62
     7
  5
323
 10
920039.007
 20
7239700.365
 30
0.0
  0
VERTEX
  8
6
  6
CONTINUOUS
 62
     7
  5
324
 10
920037.67
 20
7239699.54
 30
0.0
  0
VERTEX
  8
6
  6
CONTINUOUS
 62
     7
  5
325
 10
920036.428
 20
7239698.582
 30
0.0
  0
VERTEX
  8
6
  6
CONTINUOUS
 62
     7
  5
326
 10
920035.292
 20
7239697.498
 30
0.0
  0
VERTEX
  8
6
  6
CONTINUOUS
 62
     7
  5
327
 10
920034.277
 20
7239696.301
 30
0.0
  0
VERTEX
  8
6
  6
CONTINUOUS
 62
     7
  5
328
 10
920033.393
 20
7239695.003
 30
0.0
  0
VERTEX
  8
6
  6
CONTINUOUS
 62
     7
  5
329
 10
920032.646
 20
7239693.623
 30
0.0
  0
VERTEX
  8
6
  6
CONTINUOUS
 62
     7
  5
32A
 10
920032.049
 20
7239692.17
 30
0.0
  0
VERTEX
  8
6
  6
CONTINUOUS
 62
     7
  5
32B
 10
920031.608
 20
7239690.663
 30
0.0
  0
VERTEX
  8
6
  6
CONTINUOUS
 62
     7
  5
32C
 10
920031.326
 20
7239689.119
 30
0.0
  0
VERTEX
  8
6
  6
CONTINUOUS
 62
     7
  5
32D
 10
920031.208
 20
7239687.554
 30
0.0
  0
SEQEND
  8
6
  6
CONTINUOUS
 62
     7
  5
32E
  0
POLYLINE
  8
6
  6
CONTINUOUS
 62
     7
  5
32F
 66
     1
 10
0.0
 20
0.0
 30
0.0
  0
VERTEX
  8
6
  6
CONTINUOUS
 62
     7
  5
330
 10
922556.434
 20
7239643.845
 30
0.0
  0
VERTEX
  8
6
  6
CONTINUOUS
 62
     7
  5
331
 10
922557.999
 20
7239643.726
 30
0.0
  0
VERTEX
  8
6
  6
CONTINUOUS
 62
     7
  5
332
 10
922559.545
 20
7239643.444
 30
0.0
  0
VERTEX
  8
6
  6
CONTINUOUS
 62
     7
  5
333
 10
922561.051
 20
7239643.003
 30
0.0
  0
VERTEX
  8
6
  6
CONTINUOUS
 62
     7
  5
334
 10
922562.503
 20
7239642.407
 30
0.0
  0
VERTEX
  8
6
  6
CONTINUOUS
 62
     7
  5
335
 10
922563.885
 20
7239641.661
 30
0.0
  0
VERTEX
  8
6
  6
CONTINUOUS
 62
     7
  5
336
 10
922565.182
 20
7239640.775
 30
0.0
  0
VERTEX
  8
6
  6
CONTINUOUS
 62
     7
  5
337
 10
922566.379
 20
7239639.76
 30
0.0
  0
VERTEX
  8
6
  6
CONTINUOUS
 62
     7
  5
338
 10
922567.463
 20
7239638.623
 30
0.0
  0
VERTEX
  8
6
  6
CONTINUOUS
 62
     7
  5
339
 10
922568.422
 20
7239637.381
 30
0.0
  0
VERTEX
  8
6
  6
CONTINUOUS
 62
     7
  5
33A
 10
922569.246
 20
7239636.045
 30
0.0
  0
VERTEX
  8
6
  6
CONTINUOUS
 62
     7
  5
33B
 10
922569.926
 20
7239634.63
 30
0.0
  0
VERTEX
  8
6
  6
CONTINUOUS
 62
     7
  5
33C
 10
922570.455
 20
7239633.151
 30
0.0
  0
VERTEX
  8
6
  6
CONTINUOUS
 62
     7
  5
33D
 10
922570.825
 20
7239631.626
 30
0.0
  0
VERTEX
  8
6
  6
CONTINUOUS
 62
     7
  5
33E
 10
922571.036
 20
7239630.069
 30
0.0
  0
VERTEX
  8
6
  6
CONTINUOUS
 62
     7
  5
33F
 10
922571.081
 20
7239628.5
 30
0.0
  0
SEQEND
  8
6
  6
CONTINUOUS
 62
     7
  5
340
  0
LINE
  8
6
  6
CONTINUOUS
 62
     7
  5
341
 10
920031.208
 20
7239687.554
 30
0.0
 11
919959.398
 21
7237138.197
 31
0.0
  0
LINE
  8
6
  6
CONTINUOUS
 62
     7
  5
342
 10
920846.301
 20
7237134.314
 30
0.0
 11
922476.633
 21
7237098.644
 31
0.0
  0
LINE
  8
6
  6
CONTINUOUS
 62
     7
  5
343
 10
920846.301
 20
7237134.314
 30
0.0
 11
920845.818
 21
7237118.803
 31
0.0
  0
LINE
  8
6
  6
CONTINUOUS
 62
     7
  5
344
 10
922523.114
 20
7238259.289
 30
0.0
 11
920758.834
 21
7238306.176
 31
0.0
  0
POLYLINE
  8
6
  6
CONTINUOUS
 62
     7
  5
345
 66
     1
 10
0.0
 20
0.0
 30
0.0
  0
VERTEX
  8
6
  6
CONTINUOUS
 62
     7
  5
346
 10
922523.114
 20
7238259.289
 30
0.0
  0
VERTEX
  8
6
  6
CONTINUOUS
 62
     7
  5
347
 10
922524.678
 20
7238259.145
 30
0.0
  0
VERTEX
  8
6
  6
CONTINUOUS
 62
     7
  5
348
 10
922526.219
 20
7238258.839
 30
0.0
  0
VERTEX
  8
6
  6
CONTINUOUS
 62
     7
  5
349
 10
922527.716
 20
7238258.375
 30
0.0
  0
VERTEX
  8
6
  6
CONTINUOUS
 62
     7
  5
34A
 10
922529.16
 20
7238257.754
 30
0.0
  0
VERTEX
  8
6
  6
CONTINUOUS
 62
     7
  5
34B
 10
922530.529
 20
7238256.987
 30
0.0
  0
VERTEX
  8
6
  6
CONTINUOUS
 62
     7
  5
34C
 10
922531.812
 20
7238256.082
 30
0.0
  0
VERTEX
  8
6
  6
CONTINUOUS
 62
     7
  5
34D
 10
922532.993
 20
7238255.047
 30
0.0
  0
VERTEX
  8
6
  6
CONTINUOUS
 62
     7
  5
34E
 10
922534.059
 20
7238253.894
 30
0.0
  0
VERTEX
  8
6
  6
CONTINUOUS
 62
     7
  5
34F
 10
922535.0
 20
7238252.636
 30
0.0
  0
VERTEX
  8
6
  6
CONTINUOUS
 62
     7
  5
350
 10
922535.801
 20
7238251.287
 30
0.0
  0
VERTEX
  8
6
  6
CONTINUOUS
 62
     7
  5
351
 10
922536.459
 20
7238249.862
 30
0.0
  0
VERTEX
  8
6
  6
CONTINUOUS
 62
     7
  5
352
 10
922536.964
 20
7238248.375
 30
0.0
  0
VERTEX
  8
6
  6
CONTINUOUS
 62
     7
  5
353
 10
922537.311
 20
7238246.843
 30
0.0
  0
VERTEX
  8
6
  6
CONTINUOUS
 62
     7
  5
354
 10
922537.497
 20
7238245.284
 30
0.0
  0
VERTEX
  8
6
  6
CONTINUOUS
 62
     7
  5
355
 10
922537.518
 20
7238243.715
 30
0.0
  0
SEQEND
  8
6
  6
CONTINUOUS
 62
     7
  5
356
  0
LINE
  8
6
  6
CONTINUOUS
 62
     7
  5
357
 10
922526.12
 20
7238319.217
 30
0.0
 11
920761.176
 21
7238366.13
 31
0.0
  0
POLYLINE
  8
6
  6
CONTINUOUS
 62
     7
  5
358
 66
     1
 10
0.0
 20
0.0
 30
0.0
  0
VERTEX
  8
6
  6
CONTINUOUS
 62
     7
  5
359
 10
920761.176
 20
7238366.13
 30
0.0
  0
VERTEX
  8
6
  6
CONTINUOUS
 62
     7
  5
35A
 10
920757.979
 20
7238370.275
 30
0.0
  0
VERTEX
  8
6
  6
CONTINUOUS
 62
     7
  5
35B
 10
920754.368
 20
7238374.063
 30
0.0
  0
VERTEX
  8
6
  6
CONTINUOUS
 62
     7
  5
35C
 10
920750.381
 20
7238377.453
 30
0.0
  0
VERTEX
  8
6
  6
CONTINUOUS
 62
     7
  5
35D
 10
920746.06
 20
7238380.406
 30
0.0
  0
VERTEX
  8
6
  6
CONTINUOUS
 62
     7
  5
35E
 10
920741.456
 20
7238382.893
 30
0.0
  0
VERTEX
  8
6
  6
CONTINUOUS
 62
     7
  5
35F
 10
920736.615
 20
7238384.883
 30
0.0
  0
VERTEX
  8
6
  6
CONTINUOUS
 62
     7
  5
360
 10
920731.592
 20
7238386.36
 30
0.0
  0
VERTEX
  8
6
  6
CONTINUOUS
 62
     7
  5
361
 10
920726.445
 20
7238387.301
 30
0.0
  0
VERTEX
  8
6
  6
CONTINUOUS
 62
     7
  5
362
 10
920721.228
 20
7238387.699
 30
0.0
  0
VERTEX
  8
6
  6
CONTINUOUS
 62
     7
  5
363
 10
920715.994
 20
7238387.551
 30
0.0
  0
VERTEX
  8
6
  6
CONTINUOUS
 62
     7
  5
364
 10
920710.808
 20
7238386.855
 30
0.0
  0
VERTEX
  8
6
  6
CONTINUOUS
 62
     7
  5
365
 10
920705.722
 20
7238385.623
 30
0.0
  0
VERTEX
  8
6
  6
CONTINUOUS
 62
     7
  5
366
 10
920700.794
 20
7238383.861
 30
0.0
  0
VERTEX
  8
6
  6
CONTINUOUS
 62
     7
  5
367
 10
920696.074
 20
7238381.599
 30
0.0
  0
VERTEX
  8
6
  6
CONTINUOUS
 62
     7
  5
368
 10
920691.618
 20
7238378.853
 30
0.0
  0
VERTEX
  8
6
  6
CONTINUOUS
 62
     7
  5
369
 10
920687.473
 20
7238375.659
 30
0.0
  0
VERTEX
  8
6
  6
CONTINUOUS
 62
     7
  5
36A
 10
920683.686
 20
7238372.046
 30
0.0
  0
VERTEX
  8
6
  6
CONTINUOUS
 62
     7
  5
36B
 10
920680.295
 20
7238368.059
 30
0.0
  0
VERTEX
  8
6
  6
CONTINUOUS
 62
     7
  5
36C
 10
920677.343
 20
7238363.739
 30
0.0
  0
VERTEX
  8
6
  6
CONTINUOUS
 62
     7
  5
36D
 10
920674.856
 20
7238359.135
 30
0.0
  0
VERTEX
  8
6
  6
CONTINUOUS
 62
     7
  5
36E
 10
920672.864
 20
7238354.292
 30
0.0
  0
VERTEX
  8
6
  6
CONTINUOUS
 62
     7
  5
36F
 10
920671.389
 20
7238349.272
 30
0.0
  0
VERTEX
  8
6
  6
CONTINUOUS
 62
     7
  5
370
 10
920670.446
 20
7238344.123
 30
0.0
  0
VERTEX
  8
6
  6
CONTINUOUS
 62
     7
  5
371
 10
920670.049
 20
7238338.906
 30
0.0
  0
VERTEX
  8
6
  6
CONTINUOUS
 62
     7
  5
372
 10
920670.199
 20
7238333.674
 30
0.0
  0
VERTEX
  8
6
  6
CONTINUOUS
 62
     7
  5
373
 10
920670.893
 20
7238328.486
 30
0.0
  0
VERTEX
  8
6
  6
CONTINUOUS
 62
     7
  5
374
 10
920672.127
 20
7238323.4
 30
0.0
  0
VERTEX
  8
6
  6
CONTINUOUS
 62
     7
  5
375
 10
920673.886
 20
7238318.471
 30
0.0
  0
VERTEX
  8
6
  6
CONTINUOUS
 62
     7
  5
376
 10
920676.149
 20
7238313.752
 30
0.0
  0
VERTEX
  8
6
  6
CONTINUOUS
 62
     7
  5
377
 10
920678.895
 20
7238309.296
 30
0.0
  0
VERTEX
  8
6
  6
CONTINUOUS
 62
     7
  5
378
 10
920682.09
 20
7238305.151
 30
0.0
  0
VERTEX
  8
6
  6
CONTINUOUS
 62
     7
  5
379
 10
920685.702
 20
7238301.366
 30
0.0
  0
VERTEX
  8
6
  6
CONTINUOUS
 62
     7
  5
37A
 10
920689.69
 20
7238297.973
 30
0.0
  0
VERTEX
  8
6
  6
CONTINUOUS
 62
     7
  5
37B
 10
920694.011
 20
7238295.02
 30
0.0
  0
VERTEX
  8
6
  6
CONTINUOUS
 62
     7
  5
37C
 10
920698.614
 20
7238292.533
 30
0.0
  0
VERTEX
  8
6
  6
CONTINUOUS
 62
     7
  5
37D
 10
920703.457
 20
7238290.543
 30
0.0
  0
VERTEX
  8
6
  6
CONTINUOUS
 62
     7
  5
37E
 10
920708.476
 20
7238289.067
 30
0.0
  0
VERTEX
  8
6
  6
CONTINUOUS
 62
     7
  5
37F
 10
920713.625
 20
7238288.126
 30
0.0
  0
VERTEX
  8
6
  6
CONTINUOUS
 62
     7
  5
380
 10
920718.844
 20
7238287.728
 30
0.0
  0
VERTEX
  8
6
  6
CONTINUOUS
 62
     7
  5
381
 10
920724.074
 20
7238287.878
 30
0.0
  0
VERTEX
  8
6
  6
CONTINUOUS
 62
     7
  5
382
 10
920729.261
 20
7238288.572
 30
0.0
  0
VERTEX
  8
6
  6
CONTINUOUS
 62
     7
  5
383
 10
920734.35
 20
7238289.805
 30
0.0
  0
VERTEX
  8
6
  6
CONTINUOUS
 62
     7
  5
384
 10
920739.277
 20
7238291.565
 30
0.0
  0
VERTEX
  8
6
  6
CONTINUOUS
 62
     7
  5
385
 10
920743.995
 20
7238293.829
 30
0.0
  0
VERTEX
  8
6
  6
CONTINUOUS
 62
     7
  5
386
 10
920748.451
 20
7238296.573
 30
0.0
  0
VERTEX
  8
6
  6
CONTINUOUS
 62
     7
  5
387
 10
920752.596
 20
7238299.77
 30
0.0
  0
VERTEX
  8
6
  6
CONTINUOUS
 62
     7
  5
388
 10
920756.383
 20
7238303.381
 30
0.0
  0
VERTEX
  8
6
  6
CONTINUOUS
 62
     7
  5
389
 10
920758.834
 20
7238306.176
 30
0.0
  0
SEQEND
  8
6
  6
CONTINUOUS
 62
     7
  5
38A
  0
LINE
  8
6
  6
CONTINUOUS
 62
     7
  5
38B
 10
922571.081
 20
7239628.5
 30
0.0
 11
922541.694
 21
7238333.62
 31
0.0
  0
POLYLINE
  8
6
  6
CONTINUOUS
 62
     7
  5
38C
 66
     1
 10
0.0
 20
0.0
 30
0.0
  0
VERTEX
  8
6
  6
CONTINUOUS
 62
     7
  5
38D
 10
922526.12
 20
7238319.217
 30
0.0
  0
VERTEX
  8
6
  6
CONTINUOUS
 62
     7
  5
38E
 10
922527.69
 20
7238319.237
 30
0.0
  0
VERTEX
  8
6
  6
CONTINUOUS
 62
     7
  5
38F
 10
922529.249
 20
7238319.422
 30
0.0
  0
VERTEX
  8
6
  6
CONTINUOUS
 62
     7
  5
390
 10
922530.779
 20
7238319.77
 30
0.0
  0
VERTEX
  8
6
  6
CONTINUOUS
 62
     7
  5
391
 10
922532.266
 20
7238320.274
 30
0.0
  0
VERTEX
  8
6
  6
CONTINUOUS
 62
     7
  5
392
 10
922533.694
 20
7238320.932
 30
0.0
  0
VERTEX
  8
6
  6
CONTINUOUS
 62
     7
  5
393
 10
922535.043
 20
7238321.735
 30
0.0
  0
VERTEX
  8
6
  6
CONTINUOUS
 62
     7
  5
394
 10
922536.3
 20
7238322.676
 30
0.0
  0
VERTEX
  8
6
  6
CONTINUOUS
 62
     7
  5
395
 10
922537.452
 20
7238323.742
 30
0.0
  0
VERTEX
  8
6
  6
CONTINUOUS
 62
     7
  5
396
 10
922538.487
 20
7238324.921
 30
0.0
  0
VERTEX
  8
6
  6
CONTINUOUS
 62
     7
  5
397
 10
922539.392
 20
7238326.203
 30
0.0
  0
VERTEX
  8
6
  6
CONTINUOUS
 62
     7
  5
398
 10
922540.16
 20
7238327.575
 30
0.0
  0
VERTEX
  8
6
  6
CONTINUOUS
 62
     7
  5
399
 10
922540.781
 20
7238329.017
 30
0.0
  0
VERTEX
  8
6
  6
CONTINUOUS
 62
     7
  5
39A
 10
922541.244
 20
7238330.515
 30
0.0
  0
VERTEX
  8
6
  6
CONTINUOUS
 62
     7
  5
39B
 10
922541.552
 20
7238332.056
 30
0.0
  0
VERTEX
  8
6
  6
CONTINUOUS
 62
     7
  5
39C
 10
922541.694
 20
7238333.62
 30
0.0
  0
SEQEND
  8
6
  6
CONTINUOUS
 62
     7
  5
39D
  0
LINE
  8
6
  6
CONTINUOUS
 62
     7
  5
39E
 10
922689.653
 20
7240736.98
 30
0.0
 11
924988.539
 21
7240665.381
 31
0.0
  0
LINE
  8
6
  6
CONTINUOUS
 62
     7
  5
39F
 10
922689.653
 20
7240736.98
 30
0.0
 11
922671.676
 21
7240159.75
 31
0.0
  0
LINE
  8
6
  6
CONTINUOUS
 62
     7
  5
3A0
 10
922671.676
 20
7240159.75
 30
0.0
 11
924970.56
 21
7240088.151
 31
0.0
  0
LINE
  8
6
  6
CONTINUOUS
 62
     7
  5
3A1
 10
924970.56
 20
7240088.151
 30
0.0
 11
925215.441
 21
7240080.524
 31
0.0
  0
LINE
  8
6
  6
CONTINUOUS
 62
     7
  5
3A2
 10
925215.441
 20
7240080.524
 30
0.0
 11
925233.887
 21
7240672.747
 31
0.0
  0
LINE
  8
6
  6
CONTINUOUS
 62
     7
  5
3A3
 10
924988.539
 20
7240665.381
 30
0.0
 11
924989.005
 21
7240680.374
 31
0.0
  0
LINE
  8
6
  6
CONTINUOUS
 62
     7
  5
3A4
 10
924989.005
 20
7240680.374
 30
0.0
 11
925233.887
 21
7240672.747
 31
0.0
  0
LINE
  8
6
  6
CONTINUOUS
 62
     7
  5
3A5
 10
922669.807
 20
7240099.778
 30
0.0
 11
925213.574
 21
7240020.553
 31
0.0
  0
LINE
  8
6
  6
CONTINUOUS
 62
     7
  5
3A6
 10
922669.807
 20
7240099.778
 30
0.0
 11
922652.084
 21
7239519.195
 31
0.0
  0
LINE
  8
6
  6
CONTINUOUS
 62
     7
  5
3A7
 10
925196.521
 20
7239461.477
 30
0.0
 11
925213.574
 21
7240020.553
 31
0.0
  0
LINE
  8
6
  6
CONTINUOUS
 62
     7
  5
3A8
 10
922645.609
 20
7240768.366
 30
0.0
 11
922612.349
 21
7239682.556
 31
0.0
  0
LINE
  8
6
  6
CONTINUOUS
 62
     7
  5
3A9
 10
925183.831
 20
7238721.243
 30
0.0
 11
925144.823
 21
7237480.795
 31
0.0
  0
LINE
  8
6
  6
CONTINUOUS
 62
     7
  5
3AA
 10
922608.575
 20
7238271.184
 30
0.0
 11
922571.142
 21
7237081.589
 31
0.0
  0
LINE
  8
6
  6
CONTINUOUS
 62
     7
  5
3AB
 10
922571.142
 20
7237081.589
 30
0.0
 11
924420.875
 21
7237041.432
 31
0.0
  0
LINE
  8
6
  6
CONTINUOUS
 62
     7
  5
3AC
 10
924420.875
 20
7237041.432
 30
0.0
 11
924421.309
 21
7237056.7
 31
0.0
  0
LINE
  8
6
  6
CONTINUOUS
 62
     7
  5
3AD
 10
924421.309
 20
7237056.7
 30
0.0
 11
924921.18
 21
7237045.949
 31
0.0
  0
LINE
  8
6
  6
CONTINUOUS
 62
     7
  5
3AE
 10
925144.823
 20
7237480.795
 30
0.0
 11
925134.831
 21
7237481.208
 31
0.0
  0
LINE
  8
6
  6
CONTINUOUS
 62
     7
  5
3AF
 10
925134.831
 20
7237481.208
 30
0.0
 11
925126.641
 21
7237232.371
 31
0.0
  0
LINE
  8
6
  6
CONTINUOUS
 62
     7
  5
3B0
 10
924921.18
 20
7237045.949
 30
0.0
 11
925126.641
 21
7237232.371
 31
0.0
  0
POLYLINE
  8
6
  6
CONTINUOUS
 62
     7
  5
3B1
 66
     1
 10
0.0
 20
0.0
 30
0.0
  0
VERTEX
  8
6
  6
CONTINUOUS
 62
     7
  5
3B2
 10
922608.575
 20
7238271.184
 30
0.0
  0
VERTEX
  8
6
  6
CONTINUOUS
 62
     7
  5
3B3
 10
924703.021
 20
7238224.508
 30
0.0
  0
VERTEX
  8
6
  6
CONTINUOUS
 62
     7
  5
3B4
 10
924718.682
 20
7238735.488
 30
0.0
  0
SEQEND
  8
6
  6
CONTINUOUS
 62
     7
  5
3B5
  0
LINE
  8
6
  6
CONTINUOUS
 62
     7
  5
3B6
 10
924718.682
 20
7238735.488
 30
0.0
 11
925168.478
 21
7238721.714
 31
0.0
  0
LINE
  8
6
  6
CONTINUOUS
 62
     7
  5
3B7
 10
925168.478
 20
7238721.714
 30
0.0
 11
925183.472
 21
7238721.254
 31
0.0
  0
LINE
  8
6
  6
CONTINUOUS
 62
     7
  5
3B8
 10
925168.478
 20
7238721.714
 30
0.0
 11
925178.284
 21
7239036.546
 31
0.0
  0
LINE
  8
6
  6
CONTINUOUS
 62
     7
  5
3B9
 10
924718.682
 20
7238735.488
 30
0.0
 11
924728.228
 21
7239046.89
 31
0.0
  0
LINE
  8
6
  6
CONTINUOUS
 62
     7
  5
3BA
 10
924743.557
 20
7239061.426
 30
0.0
 11
925163.628
 21
7239052.011
 31
0.0
  0
LINE
  8
6
  6
CONTINUOUS
 62
     7
  5
3BB
 10
925190.899
 20
7239441.6
 30
0.0
 11
925181.086
 21
7239126.502
 31
0.0
  0
POLYLINE
  8
6
  6
CONTINUOUS
 62
     7
  5
3BC
 66
     1
 10
0.0
 20
0.0
 30
0.0
  0
VERTEX
  8
6
  6
CONTINUOUS
 62
     7
  5
3BD
 10
925181.086
 20
7239126.502
 30
0.0
  0
VERTEX
  8
6
  6
CONTINUOUS
 62
     7
  5
3BE
 10
925180.956
 20
7239124.938
 30
0.0
  0
VERTEX
  8
6
  6
CONTINUOUS
 62
     7
  5
3BF
 10
925180.661
 20
7239123.395
 30
0.0
  0
VERTEX
  8
6
  6
CONTINUOUS
 62
     7
  5
3C0
 10
925180.208
 20
7239121.893
 30
0.0
  0
VERTEX
  8
6
  6
CONTINUOUS
 62
     7
  5
3C1
 10
925179.6
 20
7239120.445
 30
0.0
  0
VERTEX
  8
6
  6
CONTINUOUS
 62
     7
  5
3C2
 10
925178.843
 20
7239119.069
 30
0.0
  0
VERTEX
  8
6
  6
CONTINUOUS
 62
     7
  5
3C3
 10
925177.947
 20
7239117.78
 30
0.0
  0
VERTEX
  8
6
  6
CONTINUOUS
 62
     7
  5
3C4
 10
925176.923
 20
7239116.591
 30
0.0
  0
VERTEX
  8
6
  6
CONTINUOUS
 62
     7
  5
3C5
 10
925175.778
 20
7239115.515
 30
0.0
  0
VERTEX
  8
6
  6
CONTINUOUS
 62
     7
  5
3C6
 10
925174.529
 20
7239114.566
 30
0.0
  0
VERTEX
  8
6
  6
CONTINUOUS
 62
     7
  5
3C7
 10
925173.185
 20
7239113.752
 30
0.0
  0
VERTEX
  8
6
  6
CONTINUOUS
 62
     7
  5
3C8
 10
925171.765
 20
7239113.084
 30
0.0
  0
VERTEX
  8
6
  6
CONTINUOUS
 62
     7
  5
3C9
 10
925170.283
 20
7239112.566
 30
0.0
  0
VERTEX
  8
6
  6
CONTINUOUS
 62
     7
  5
3CA
 10
925168.754
 20
7239112.207
 30
0.0
  0
VERTEX
  8
6
  6
CONTINUOUS
 62
     7
  5
3CB
 10
925167.196
 20
7239112.01
 30
0.0
  0
VERTEX
  8
6
  6
CONTINUOUS
 62
     7
  5
3CC
 10
925165.757
 20
7239111.974
 30
0.0
  0
SEQEND
  8
6
  6
CONTINUOUS
 62
     7
  5
3CD
  0
LINE
  8
6
  6
CONTINUOUS
 62
     7
  5
3CE
 10
925165.757
 20
7239111.974
 30
0.0
 11
924745.643
 21
7239121.389
 31
0.0
  0
POLYLINE
  8
6
  6
CONTINUOUS
 62
     7
  5
3CF
 66
     1
 10
0.0
 20
0.0
 30
0.0
  0
VERTEX
  8
6
  6
CONTINUOUS
 62
     7
  5
3D0
 10
924745.643
 20
7239121.389
 30
0.0
  0
VERTEX
  8
6
  6
CONTINUOUS
 62
     7
  5
3D1
 10
924744.077
 20
7239121.505
 30
0.0
  0
VERTEX
  8
6
  6
CONTINUOUS
 62
     7
  5
3D2
 10
924742.532
 20
7239121.788
 30
0.0
  0
VERTEX
  8
6
  6
CONTINUOUS
 62
     7
  5
3D3
 10
924741.026
 20
7239122.228
 30
0.0
  0
VERTEX
  8
6
  6
CONTINUOUS
 62
     7
  5
3D4
 10
924739.572
 20
7239122.822
 30
0.0
  0
VERTEX
  8
6
  6
CONTINUOUS
 62
     7
  5
3D5
 10
924738.19
 20
7239123.566
 30
0.0
  0
VERTEX
  8
6
  6
CONTINUOUS
 62
     7
  5
3D6
 10
924736.893
 20
7239124.45
 30
0.0
  0
VERTEX
  8
6
  6
CONTINUOUS
 62
     7
  5
3D7
 10
924735.695
 20
7239125.466
 30
0.0
  0
VERTEX
  8
6
  6
CONTINUOUS
 62
     7
  5
3D8
 10
924734.61
 20
7239126.601
 30
0.0
  0
VERTEX
  8
6
  6
CONTINUOUS
 62
     7
  5
3D9
 10
924733.65
 20
7239127.842
 30
0.0
  0
VERTEX
  8
6
  6
CONTINUOUS
 62
     7
  5
3DA
 10
924732.825
 20
7239129.178
 30
0.0
  0
VERTEX
  8
6
  6
CONTINUOUS
 62
     7
  5
3DB
 10
924732.143
 20
7239130.593
 30
0.0
  0
VERTEX
  8
6
  6
CONTINUOUS
 62
     7
  5
3DC
 10
924731.614
 20
7239132.071
 30
0.0
  0
VERTEX
  8
6
  6
CONTINUOUS
 62
     7
  5
3DD
 10
924731.241
 20
7239133.596
 30
0.0
  0
VERTEX
  8
6
  6
CONTINUOUS
 62
     7
  5
3DE
 10
924731.03
 20
7239135.151
 30
0.0
  0
VERTEX
  8
6
  6
CONTINUOUS
 62
     7
  5
3DF
 10
924730.983
 20
7239136.722
 30
0.0
  0
VERTEX
  8
6
  6
CONTINUOUS
 62
     7
  5
3E0
 10
924730.986
 20
7239136.845
 30
0.0
  0
SEQEND
  8
6
  6
CONTINUOUS
 62
     7
  5
3E1
  0
POLYLINE
  8
6
  6
CONTINUOUS
 62
     7
  5
3E2
 66
     1
 10
0.0
 20
0.0
 30
0.0
  0
VERTEX
  8
6
  6
CONTINUOUS
 62
     7
  5
3E3
 10
924730.986
 20
7239136.845
 30
0.0
  0
VERTEX
  8
6
  6
CONTINUOUS
 62
     7
  5
3E4
 10
924733.025
 20
7239203.344
 30
0.0
  0
VERTEX
  8
6
  6
CONTINUOUS
 62
     7
  5
3E5
 10
924740.643
 20
7239451.814
 30
0.0
  0
SEQEND
  8
6
  6
CONTINUOUS
 62
     7
  5
3E6
  0
POLYLINE
  8
6
  6
CONTINUOUS
 62
     7
  5
3E7
 66
     1
 10
0.0
 20
0.0
 30
0.0
  0
VERTEX
  8
6
  6
CONTINUOUS
 62
     7
  5
3E8
 10
924743.557
 20
7239061.426
 30
0.0
  0
VERTEX
  8
6
  6
CONTINUOUS
 62
     7
  5
3E9
 10
924741.986
 20
7239061.379
 30
0.0
  0
VERTEX
  8
6
  6
CONTINUOUS
 62
     7
  5
3EA
 10
924740.43
 20
7239061.168
 30
0.0
  0
VERTEX
  8
6
  6
CONTINUOUS
 62
     7
  5
3EB
 10
924738.905
 20
7239060.796
 30
0.0
  0
VERTEX
  8
6
  6
CONTINUOUS
 62
     7
  5
3EC
 10
924737.428
 20
7239060.266
 30
0.0
  0
VERTEX
  8
6
  6
CONTINUOUS
 62
     7
  5
3ED
 10
924736.014
 20
7239059.585
 30
0.0
  0
VERTEX
  8
6
  6
CONTINUOUS
 62
     7
  5
3EE
 10
924734.678
 20
7239058.76
 30
0.0
  0
VERTEX
  8
6
  6
CONTINUOUS
 62
     7
  5
3EF
 10
924733.435
 20
7239057.8
 30
0.0
  0
VERTEX
  8
6
  6
CONTINUOUS
 62
     7
  5
3F0
 10
924732.301
 20
7239056.715
 30
0.0
  0
VERTEX
  8
6
  6
CONTINUOUS
 62
     7
  5
3F1
 10
924731.285
 20
7239055.517
 30
0.0
  0
VERTEX
  8
6
  6
CONTINUOUS
 62
     7
  5
3F2
 10
924730.401
 20
7239054.219
 30
0.0
  0
VERTEX
  8
6
  6
CONTINUOUS
 62
     7
  5
3F3
 10
924729.657
 20
7239052.837
 30
0.0
  0
VERTEX
  8
6
  6
CONTINUOUS
 62
     7
  5
3F4
 10
924729.062
 20
7239051.383
 30
0.0
  0
VERTEX
  8
6
  6
CONTINUOUS
 62
     7
  5
3F5
 10
924728.621
 20
7239049.876
 30
0.0
  0
VERTEX
  8
6
  6
CONTINUOUS
 62
     7
  5
3F6
 10
924728.341
 20
7239048.332
 30
0.0
  0
VERTEX
  8
6
  6
CONTINUOUS
 62
     7
  5
3F7
 10
924728.228
 20
7239046.89
 30
0.0
  0
SEQEND
  8
6
  6
CONTINUOUS
 62
     7
  5
3F8
  0
POLYLINE
  8
6
  6
CONTINUOUS
 62
     7
  5
3F9
 66
     1
 10
0.0
 20
0.0
 30
0.0
  0
VERTEX
  8
6
  6
CONTINUOUS
 62
     7
  5
3FA
 10
925163.628
 20
7239052.011
 30
0.0
  0
VERTEX
  8
6
  6
CONTINUOUS
 62
     7
  5
3FB
 10
925165.194
 20
7239051.894
 30
0.0
  0
VERTEX
  8
6
  6
CONTINUOUS
 62
     7
  5
3FC
 10
925166.739
 20
7239051.612
 30
0.0
  0
VERTEX
  8
6
  6
CONTINUOUS
 62
     7
  5
3FD
 10
925168.246
 20
7239051.173
 30
0.0
  0
VERTEX
  8
6
  6
CONTINUOUS
 62
     7
  5
3FE
 10
925169.698
 20
7239050.578
 30
0.0
  0
VERTEX
  8
6
  6
CONTINUOUS
 62
     7
  5
3FF
 10
925171.081
 20
7239049.834
 30
0.0
  0
VERTEX
  8
6
  6
CONTINUOUS
 62
     7
  5
400
 10
925172.378
 20
7239048.949
 30
0.0
  0
VERTEX
  8
6
  6
CONTINUOUS
 62
     7
  5
401
 10
925173.575
 20
7239047.934
 30
0.0
  0
VERTEX
  8
6
  6
CONTINUOUS
 62
     7
  5
402
 10
925174.66
 20
7239046.799
 30
0.0
  0
VERTEX
  8
6
  6
CONTINUOUS
 62
     7
  5
403
 10
925175.621
 20
7239045.557
 30
0.0
  0
VERTEX
  8
6
  6
CONTINUOUS
 62
     7
  5
404
 10
925176.446
 20
7239044.221
 30
0.0
  0
VERTEX
  8
6
  6
CONTINUOUS
 62
     7
  5
405
 10
925177.127
 20
7239042.808
 30
0.0
  0
VERTEX
  8
6
  6
CONTINUOUS
 62
     7
  5
406
 10
925177.658
 20
7239041.329
 30
0.0
  0
VERTEX
  8
6
  6
CONTINUOUS
 62
     7
  5
407
 10
925178.029
 20
7239039.804
 30
0.0
  0
VERTEX
  8
6
  6
CONTINUOUS
 62
     7
  5
408
 10
925178.241
 20
7239038.248
 30
0.0
  0
VERTEX
  8
6
  6
CONTINUOUS
 62
     7
  5
409
 10
925178.287
 20
7239036.677
 30
0.0
  0
VERTEX
  8
6
  6
CONTINUOUS
 62
     7
  5
40A
 10
925178.284
 20
7239036.546
 30
0.0
  0
SEQEND
  8
6
  6
CONTINUOUS
 62
     7
  5
40B
  0
LINE
  8
6
  6
CONTINUOUS
 62
     7
  5
40C
 10
924469.256
 20
7239284.89
 30
0.0
 11
924338.79
 21
7239287.813
 31
0.0
  0
LINE
  8
6
  6
CONTINUOUS
 62
     7
  5
40D
 10
924338.79
 20
7239287.813
 30
0.0
 11
924208.322
 21
7239290.737
 31
0.0
  0
LINE
  8
6
  6
CONTINUOUS
 62
     7
  5
40E
 10
924208.322
 20
7239290.737
 30
0.0
 11
924077.855
 21
7239293.661
 31
0.0
  0
LINE
  8
6
  6
CONTINUOUS
 62
     7
  5
40F
 10
924077.855
 20
7239293.661
 30
0.0
 11
923947.388
 21
7239296.585
 31
0.0
  0
LINE
  8
6
  6
CONTINUOUS
 62
     7
  5
410
 10
923947.388
 20
7239296.585
 30
0.0
 11
923816.92
 21
7239299.509
 31
0.0
  0
LINE
  8
6
  6
CONTINUOUS
 62
     7
  5
411
 10
923816.92
 20
7239299.509
 30
0.0
 11
923686.453
 21
7239302.432
 31
0.0
  0
LINE
  8
6
  6
CONTINUOUS
 62
     7
  5
412
 10
923686.453
 20
7239302.432
 30
0.0
 11
923555.986
 21
7239305.356
 31
0.0
  0
LINE
  8
6
  6
CONTINUOUS
 62
     7
  5
413
 10
923555.986
 20
7239305.356
 30
0.0
 11
923425.519
 21
7239308.28
 31
0.0
  0
LINE
  8
6
  6
CONTINUOUS
 62
     7
  5
414
 10
923425.519
 20
7239308.28
 30
0.0
 11
923295.052
 21
7239311.204
 31
0.0
  0
LINE
  8
6
  6
CONTINUOUS
 62
     7
  5
415
 10
923295.052
 20
7239311.204
 30
0.0
 11
923164.584
 21
7239314.129
 31
0.0
  0
LINE
  8
6
  6
CONTINUOUS
 62
     7
  5
416
 10
923164.584
 20
7239314.129
 30
0.0
 11
923034.117
 21
7239317.052
 31
0.0
  0
LINE
  8
6
  6
CONTINUOUS
 62
     7
  5
417
 10
923034.117
 20
7239317.052
 30
0.0
 11
922903.65
 21
7239319.976
 31
0.0
  0
LINE
  8
6
  6
CONTINUOUS
 62
     7
  5
418
 10
922903.65
 20
7239319.976
 30
0.0
 11
922773.183
 21
7239322.9
 31
0.0
  0
LINE
  8
6
  6
CONTINUOUS
 62
     7
  5
419
 10
922773.183
 20
7239322.9
 30
0.0
 11
922760.545
 21
7239323.183
 31
0.0
  0
LINE
  8
6
  6
CONTINUOUS
 62
     7
  5
41A
 10
922646.116
 20
7239499.325
 30
0.0
 11
922633.93
 21
7239100.47
 31
0.0
  0
LINE
  8
6
  6
CONTINUOUS
 62
     7
  5
41B
 10
922773.155
 20
7239097.351
 30
0.0
 11
922633.93
 21
7239100.47
 31
0.0
  0
LINE
  8
6
  6
CONTINUOUS
 62
     7
  5
41C
 10
922907.952
 20
7239094.329
 30
0.0
 11
922772.536
 21
7239097.365
 31
0.0
  0
LINE
  8
6
  6
CONTINUOUS
 62
     7
  5
41D
 10
923043.368
 20
7239091.296
 30
0.0
 11
922907.952
 21
7239094.329
 31
0.0
  0
LINE
  8
6
  6
CONTINUOUS
 62
     7
  5
41E
 10
923178.784
 20
7239088.261
 30
0.0
 11
923043.368
 21
7239091.296
 31
0.0
  0
LINE
  8
6
  6
CONTINUOUS
 62
     7
  5
41F
 10
923314.2
 20
7239085.226
 30
0.0
 11
923178.784
 21
7239088.261
 31
0.0
  0
LINE
  8
6
  6
CONTINUOUS
 62
     7
  5
420
 10
923449.617
 20
7239082.19
 30
0.0
 11
923314.2
 21
7239085.226
 31
0.0
  0
LINE
  8
6
  6
CONTINUOUS
 62
     7
  5
421
 10
923585.033
 20
7239079.155
 30
0.0
 11
923449.617
 21
7239082.19
 31
0.0
  0
LINE
  8
6
  6
CONTINUOUS
 62
     7
  5
422
 10
923720.449
 20
7239076.12
 30
0.0
 11
923585.033
 21
7239079.155
 31
0.0
  0
LINE
  8
6
  6
CONTINUOUS
 62
     7
  5
423
 10
923855.865
 20
7239073.086
 30
0.0
 11
923720.449
 21
7239076.12
 31
0.0
  0
LINE
  8
6
  6
CONTINUOUS
 62
     7
  5
424
 10
923991.281
 20
7239070.051
 30
0.0
 11
923855.865
 21
7239073.086
 31
0.0
  0
LINE
  8
6
  6
CONTINUOUS
 62
     7
  5
425
 10
924126.697
 20
7239067.016
 30
0.0
 11
923991.281
 21
7239070.051
 31
0.0
  0
LINE
  8
6
  6
CONTINUOUS
 62
     7
  5
426
 10
924262.113
 20
7239063.981
 30
0.0
 11
924126.697
 21
7239067.016
 31
0.0
  0
LINE
  8
6
  6
CONTINUOUS
 62
     7
  5
427
 10
924397.53
 20
7239060.945
 30
0.0
 11
924262.113
 21
7239063.981
 31
0.0
  0
LINE
  8
6
  6
CONTINUOUS
 62
     7
  5
428
 10
924532.946
 20
7239057.91
 30
0.0
 11
924397.53
 21
7239060.945
 31
0.0
  0
LINE
  8
6
  6
CONTINUOUS
 62
     7
  5
429
 10
924668.444
 20
7239054.873
 30
0.0
 11
924532.946
 21
7239057.91
 31
0.0
  0
LINE
  8
6
  6
CONTINUOUS
 62
     7
  5
42A
 10
924658.394
 20
7239220.646
 30
0.0
 11
922777.696
 21
7239262.797
 31
0.0
  0
LINE
  8
6
  6
CONTINUOUS
 62
     7
  5
42B
 10
922777.688
 20
7239262.785
 30
0.0
 11
922759.193
 21
7239263.2
 31
0.0
  0
POLYLINE
  8
6
  6
CONTINUOUS
 62
     7
  5
42C
 66
     1
 10
0.0
 20
0.0
 30
0.0
  0
VERTEX
  8
6
  6
CONTINUOUS
 62
     7
  5
42D
 10
924469.256
 20
7239284.89
 30
0.0
  0
VERTEX
  8
6
  6
CONTINUOUS
 62
     7
  5
42E
 10
924599.724
 20
7239281.966
 30
0.0
  0
VERTEX
  8
6
  6
CONTINUOUS
 62
     7
  5
42F
 10
924659.74
 20
7239280.621
 30
0.0
  0
SEQEND
  8
6
  6
CONTINUOUS
 62
     7
  5
430
  0
POLYLINE
  8
6
  6
CONTINUOUS
 62
     7
  5
431
 66
     1
 10
0.0
 20
0.0
 30
0.0
  0
VERTEX
  8
6
  6
CONTINUOUS
 62
     7
  5
432
 10
924659.74
 20
7239280.621
 30
0.0
  0
VERTEX
  8
6
  6
CONTINUOUS
 62
     7
  5
433
 10
924667.568
 20
7239280.034
 30
0.0
  0
VERTEX
  8
6
  6
CONTINUOUS
 62
     7
  5
434
 10
924675.291
 20
7239278.633
 30
0.0
  0
VERTEX
  8
6
  6
CONTINUOUS
 62
     7
  5
435
 10
924682.826
 20
7239276.432
 30
0.0
  0
VERTEX
  8
6
  6
CONTINUOUS
 62
     7
  5
436
 10
924690.092
 20
7239273.455
 30
0.0
  0
VERTEX
  8
6
  6
CONTINUOUS
 62
     7
  5
437
 10
924697.003
 20
7239269.735
 30
0.0
  0
VERTEX
  8
6
  6
CONTINUOUS
 62
     7
  5
438
 10
924703.491
 20
7239265.314
 30
0.0
  0
VERTEX
  8
6
  6
CONTINUOUS
 62
     7
  5
439
 10
924709.479
 20
7239260.237
 30
0.0
  0
VERTEX
  8
6
  6
CONTINUOUS
 62
     7
  5
43A
 10
924714.904
 20
7239254.563
 30
0.0
  0
VERTEX
  8
6
  6
CONTINUOUS
 62
     7
  5
43B
 10
924719.708
 20
7239248.353
 30
0.0
  0
VERTEX
  8
6
  6
CONTINUOUS
 62
     7
  5
43C
 10
924723.835
 20
7239241.676
 30
0.0
  0
VERTEX
  8
6
  6
CONTINUOUS
 62
     7
  5
43D
 10
924727.241
 20
7239234.602
 30
0.0
  0
VERTEX
  8
6
  6
CONTINUOUS
 62
     7
  5
43E
 10
924729.889
 20
7239227.212
 30
0.0
  0
VERTEX
  8
6
  6
CONTINUOUS
 62
     7
  5
43F
 10
924731.751
 20
7239219.585
 30
0.0
  0
VERTEX
  8
6
  6
CONTINUOUS
 62
     7
  5
440
 10
924732.805
 20
7239211.806
 30
0.0
  0
VERTEX
  8
6
  6
CONTINUOUS
 62
     7
  5
441
 10
924733.04
 20
7239203.96
 30
0.0
  0
VERTEX
  8
6
  6
CONTINUOUS
 62
     7
  5
442
 10
924733.024
 20
7239203.344
 30
0.0
  0
SEQEND
  8
6
  6
CONTINUOUS
 62
     7
  5
443
  0
LINE
  8
6
  6
CONTINUOUS
 62
     7
  5
444
 10
922771.915
 20
7239077.373
 30
0.0
 11
922633.319
 21
7239080.48
 31
0.0
  0
LINE
  8
6
  6
CONTINUOUS
 62
     7
  5
445
 10
922907.331
 20
7239074.34
 30
0.0
 11
922771.915
 21
7239077.373
 31
0.0
  0
LINE
  8
6
  6
CONTINUOUS
 62
     7
  5
446
 10
923042.747
 20
7239071.305
 30
0.0
 11
922907.331
 21
7239074.34
 31
0.0
  0
LINE
  8
6
  6
CONTINUOUS
 62
     7
  5
447
 10
923178.164
 20
7239068.269
 30
0.0
 11
923042.747
 21
7239071.305
 31
0.0
  0
LINE
  8
6
  6
CONTINUOUS
 62
     7
  5
448
 10
923313.58
 20
7239065.234
 30
0.0
 11
923178.164
 21
7239068.269
 31
0.0
  0
LINE
  8
6
  6
CONTINUOUS
 62
     7
  5
449
 10
923448.996
 20
7239062.199
 30
0.0
 11
923313.58
 21
7239065.234
 31
0.0
  0
LINE
  8
6
  6
CONTINUOUS
 62
     7
  5
44A
 10
923584.412
 20
7239059.163
 30
0.0
 11
923448.996
 21
7239062.199
 31
0.0
  0
LINE
  8
6
  6
CONTINUOUS
 62
     7
  5
44B
 10
923719.828
 20
7239056.129
 30
0.0
 11
923584.412
 21
7239059.163
 31
0.0
  0
LINE
  8
6
  6
CONTINUOUS
 62
     7
  5
44C
 10
923855.244
 20
7239053.094
 30
0.0
 11
923719.828
 21
7239056.129
 31
0.0
  0
LINE
  8
6
  6
CONTINUOUS
 62
     7
  5
44D
 10
923990.66
 20
7239050.06
 30
0.0
 11
923855.244
 21
7239053.094
 31
0.0
  0
LINE
  8
6
  6
CONTINUOUS
 62
     7
  5
44E
 10
924126.077
 20
7239047.024
 30
0.0
 11
923990.66
 21
7239050.06
 31
0.0
  0
LINE
  8
6
  6
CONTINUOUS
 62
     7
  5
44F
 10
924261.493
 20
7239043.989
 30
0.0
 11
924126.077
 21
7239047.024
 31
0.0
  0
LINE
  8
6
  6
CONTINUOUS
 62
     7
  5
450
 10
924396.908
 20
7239040.955
 30
0.0
 11
924261.493
 21
7239043.989
 31
0.0
  0
LINE
  8
6
  6
CONTINUOUS
 62
     7
  5
451
 10
924532.324
 20
7239037.919
 30
0.0
 11
924396.908
 21
7239040.955
 31
0.0
  0
LINE
  8
6
  6
CONTINUOUS
 62
     7
  5
452
 10
924667.833
 20
7239034.882
 30
0.0
 11
924532.324
 21
7239037.919
 31
0.0
  0
LINE
  8
6
  6
CONTINUOUS
 62
     7
  5
453
 10
922766.763
 20
7238911.955
 30
0.0
 11
922747.988
 21
7238912.376
 31
0.0
  0
LINE
  8
6
  6
CONTINUOUS
 62
     7
  5
454
 10
924647.888
 20
7238869.794
 30
0.0
 11
922766.763
 21
7238911.955
 31
0.0
  0
LINE
  8
6
  6
CONTINUOUS
 62
     7
  5
455
 10
924663.218
 20
7238884.331
 30
0.0
 11
924667.833
 21
7239034.882
 31
0.0
  0
LINE
  8
6
  6
CONTINUOUS
 62
     7
  5
456
 10
924668.444
 20
7239054.873
 30
0.0
 11
924673.052
 21
7239205.189
 31
0.0
  0
POLYLINE
  8
6
  6
CONTINUOUS
 62
     7
  5
457
 66
     1
 10
0.0
 20
0.0
 30
0.0
  0
VERTEX
  8
6
  6
CONTINUOUS
 62
     7
  5
458
 10
922760.545
 20
7239323.183
 30
0.0
  0
VERTEX
  8
6
  6
CONTINUOUS
 62
     7
  5
459
 10
922757.283
 20
7239327.275
 30
0.0
  0
VERTEX
  8
6
  6
CONTINUOUS
 62
     7
  5
45A
 10
922753.609
 20
7239331.002
 30
0.0
  0
VERTEX
  8
6
  6
CONTINUOUS
 62
     7
  5
45B
 10
922749.566
 20
7239334.326
 30
0.0
  0
VERTEX
  8
6
  6
CONTINUOUS
 62
     7
  5
45C
 10
922745.197
 20
7239337.208
 30
0.0
  0
VERTEX
  8
6
  6
CONTINUOUS
 62
     7
  5
45D
 10
922740.553
 20
7239339.619
 30
0.0
  0
VERTEX
  8
6
  6
CONTINUOUS
 62
     7
  5
45E
 10
922735.681
 20
7239341.532
 30
0.0
  0
VERTEX
  8
6
  6
CONTINUOUS
 62
     7
  5
45F
 10
922730.636
 20
7239342.923
 30
0.0
  0
VERTEX
  8
6
  6
CONTINUOUS
 62
     7
  5
460
 10
922725.473
 20
7239343.78
 30
0.0
  0
VERTEX
  8
6
  6
CONTINUOUS
 62
     7
  5
461
 10
922720.248
 20
7239344.092
 30
0.0
  0
VERTEX
  8
6
  6
CONTINUOUS
 62
     7
  5
462
 10
922715.02
 20
7239343.857
 30
0.0
  0
VERTEX
  8
6
  6
CONTINUOUS
 62
     7
  5
463
 10
922709.845
 20
7239343.076
 30
0.0
  0
VERTEX
  8
6
  6
CONTINUOUS
 62
     7
  5
464
 10
922704.78
 20
7239341.759
 30
0.0
  0
VERTEX
  8
6
  6
CONTINUOUS
 62
     7
  5
465
 10
922699.88
 20
7239339.921
 30
0.0
  0
VERTEX
  8
6
  6
CONTINUOUS
 62
     7
  5
466
 10
922695.199
 20
7239337.578
 30
0.0
  0
VERTEX
  8
6
  6
CONTINUOUS
 62
     7
  5
467
 10
922690.789
 20
7239334.76
 30
0.0
  0
VERTEX
  8
6
  6
CONTINUOUS
 62
     7
  5
468
 10
922686.697
 20
7239331.497
 30
0.0
  0
VERTEX
  8
6
  6
CONTINUOUS
 62
     7
  5
469
 10
922682.969
 20
7239327.823
 30
0.0
  0
VERTEX
  8
6
  6
CONTINUOUS
 62
     7
  5
46A
 10
922679.646
 20
7239323.781
 30
0.0
  0
VERTEX
  8
6
  6
CONTINUOUS
 62
     7
  5
46B
 10
922676.764
 20
7239319.412
 30
0.0
  0
VERTEX
  8
6
  6
CONTINUOUS
 62
     7
  5
46C
 10
922674.352
 20
7239314.767
 30
0.0
  0
VERTEX
  8
6
  6
CONTINUOUS
 62
     7
  5
46D
 10
922672.441
 20
7239309.895
 30
0.0
  0
VERTEX
  8
6
  6
CONTINUOUS
 62
     7
  5
46E
 10
922671.05
 20
7239304.85
 30
0.0
  0
VERTEX
  8
6
  6
CONTINUOUS
 62
     7
  5
46F
 10
922670.192
 20
7239299.688
 30
0.0
  0
VERTEX
  8
6
  6
CONTINUOUS
 62
     7
  5
470
 10
922669.88
 20
7239294.462
 30
0.0
  0
VERTEX
  8
6
  6
CONTINUOUS
 62
     7
  5
471
 10
922670.114
 20
7239289.234
 30
0.0
  0
VERTEX
  8
6
  6
CONTINUOUS
 62
     7
  5
472
 10
922670.896
 20
7239284.06
 30
0.0
  0
VERTEX
  8
6
  6
CONTINUOUS
 62
     7
  5
473
 10
922672.213
 20
7239278.994
 30
0.0
  0
VERTEX
  8
6
  6
CONTINUOUS
 62
     7
  5
474
 10
922674.052
 20
7239274.096
 30
0.0
  0
VERTEX
  8
6
  6
CONTINUOUS
 62
     7
  5
475
 10
922676.394
 20
7239269.414
 30
0.0
  0
VERTEX
  8
6
  6
CONTINUOUS
 62
     7
  5
476
 10
922679.212
 20
7239265.004
 30
0.0
  0
VERTEX
  8
6
  6
CONTINUOUS
 62
     7
  5
477
 10
922682.475
 20
7239260.912
 30
0.0
  0
VERTEX
  8
6
  6
CONTINUOUS
 62
     7
  5
478
 10
922686.149
 20
7239257.183
 30
0.0
  0
VERTEX
  8
6
  6
CONTINUOUS
 62
     7
  5
479
 10
922690.192
 20
7239253.86
 30
0.0
  0
VERTEX
  8
6
  6
CONTINUOUS
 62
     7
  5
47A
 10
922694.56
 20
7239250.978
 30
0.0
  0
VERTEX
  8
6
  6
CONTINUOUS
 62
     7
  5
47B
 10
922699.205
 20
7239248.567
 30
0.0
  0
VERTEX
  8
6
  6
CONTINUOUS
 62
     7
  5
47C
 10
922704.077
 20
7239246.656
 30
0.0
  0
VERTEX
  8
6
  6
CONTINUOUS
 62
     7
  5
47D
 10
922709.122
 20
7239245.264
 30
0.0
  0
VERTEX
  8
6
  6
CONTINUOUS
 62
     7
  5
47E
 10
922714.285
 20
7239244.407
 30
0.0
  0
VERTEX
  8
6
  6
CONTINUOUS
 62
     7
  5
47F
 10
922719.51
 20
7239244.095
 30
0.0
  0
VERTEX
  8
6
  6
CONTINUOUS
 62
     7
  5
480
 10
922724.738
 20
7239244.33
 30
0.0
  0
VERTEX
  8
6
  6
CONTINUOUS
 62
     7
  5
481
 10
922729.913
 20
7239245.111
 30
0.0
  0
VERTEX
  8
6
  6
CONTINUOUS
 62
     7
  5
482
 10
922734.978
 20
7239246.427
 30
0.0
  0
VERTEX
  8
6
  6
CONTINUOUS
 62
     7
  5
483
 10
922739.878
 20
7239248.268
 30
0.0
  0
VERTEX
  8
6
  6
CONTINUOUS
 62
     7
  5
484
 10
922744.559
 20
7239250.609
 30
0.0
  0
VERTEX
  8
6
  6
CONTINUOUS
 62
     7
  5
485
 10
922748.969
 20
7239253.427
 30
0.0
  0
VERTEX
  8
6
  6
CONTINUOUS
 62
     7
  5
486
 10
922753.06
 20
7239256.69
 30
0.0
  0
VERTEX
  8
6
  6
CONTINUOUS
 62
     7
  5
487
 10
922756.788
 20
7239260.363
 30
0.0
  0
VERTEX
  8
6
  6
CONTINUOUS
 62
     7
  5
488
 10
922759.192
 20
7239263.198
 30
0.0
  0
SEQEND
  8
6
  6
CONTINUOUS
 62
     7
  5
489
  0
LINE
  8
6
  6
CONTINUOUS
 62
     7
  5
48A
 10
922633.319
 20
7239080.48
 30
0.0
 11
922627.349
 21
7238885.071
 31
0.0
  0
LINE
  8
6
  6
CONTINUOUS
 62
     7
  5
48B
 10
922620.768
 20
7238669.671
 30
0.0
 11
922614.798
 21
7238474.262
 31
0.0
  0
LINE
  8
6
  6
CONTINUOUS
 62
     7
  5
48C
 10
922627.349
 20
7238885.071
 30
0.0
 11
922621.378
 21
7238689.662
 31
0.0
  0
POLYLINE
  8
6
  6
CONTINUOUS
 62
     7
  5
48D
 66
     1
 10
0.0
 20
0.0
 30
0.0
  0
VERTEX
  8
6
  6
CONTINUOUS
 62
     7
  5
48E
 10
924673.052
 20
7239205.189
 30
0.0
  0
VERTEX
  8
6
  6
CONTINUOUS
 62
     7
  5
48F
 10
924673.017
 20
7239206.76
 30
0.0
  0
VERTEX
  8
6
  6
CONTINUOUS
 62
     7
  5
490
 10
924672.819
 20
7239208.316
 30
0.0
  0
VERTEX
  8
6
  6
CONTINUOUS
 62
     7
  5
491
 10
924672.461
 20
7239209.845
 30
0.0
  0
VERTEX
  8
6
  6
CONTINUOUS
 62
     7
  5
492
 10
924671.942
 20
7239211.327
 30
0.0
  0
VERTEX
  8
6
  6
CONTINUOUS
 62
     7
  5
493
 10
924671.273
 20
7239212.748
 30
0.0
  0
VERTEX
  8
6
  6
CONTINUOUS
 62
     7
  5
494
 10
924670.458
 20
7239214.09
 30
0.0
  0
VERTEX
  8
6
  6
CONTINUOUS
 62
     7
  5
495
 10
924669.507
 20
7239215.34
 30
0.0
  0
VERTEX
  8
6
  6
CONTINUOUS
 62
     7
  5
496
 10
924668.432
 20
7239216.483
 30
0.0
  0
VERTEX
  8
6
  6
CONTINUOUS
 62
     7
  5
497
 10
924667.243
 20
7239217.508
 30
0.0
  0
VERTEX
  8
6
  6
CONTINUOUS
 62
     7
  5
498
 10
924665.953
 20
7239218.403
 30
0.0
  0
VERTEX
  8
6
  6
CONTINUOUS
 62
     7
  5
499
 10
924664.576
 20
7239219.159
 30
0.0
  0
VERTEX
  8
6
  6
CONTINUOUS
 62
     7
  5
49A
 10
924663.128
 20
7239219.766
 30
0.0
  0
VERTEX
  8
6
  6
CONTINUOUS
 62
     7
  5
49B
 10
924661.625
 20
7239220.219
 30
0.0
  0
VERTEX
  8
6
  6
CONTINUOUS
 62
     7
  5
49C
 10
924660.083
 20
7239220.512
 30
0.0
  0
VERTEX
  8
6
  6
CONTINUOUS
 62
     7
  5
49D
 10
924658.518
 20
7239220.642
 30
0.0
  0
VERTEX
  8
6
  6
CONTINUOUS
 62
     7
  5
49E
 10
924658.394
 20
7239220.646
 30
0.0
  0
SEQEND
  8
6
  6
CONTINUOUS
 62
     7
  5
49F
  0
POLYLINE
  8
6
  6
CONTINUOUS
 62
     7
  5
4A0
 66
     1
 10
0.0
 20
0.0
 30
0.0
  0
VERTEX
  8
6
  6
CONTINUOUS
 62
     7
  5
4A1
 10
924663.218
 20
7238884.331
 30
0.0
  0
VERTEX
  8
6
  6
CONTINUOUS
 62
     7
  5
4A2
 10
924663.086
 20
7238882.767
 30
0.0
  0
VERTEX
  8
6
  6
CONTINUOUS
 62
     7
  5
4A3
 10
924662.795
 20
7238881.224
 30
0.0
  0
VERTEX
  8
6
  6
CONTINUOUS
 62
     7
  5
4A4
 10
924662.341
 20
7238879.72
 30
0.0
  0
VERTEX
  8
6
  6
CONTINUOUS
 62
     7
  5
4A5
 10
924661.734
 20
7238878.273
 30
0.0
  0
VERTEX
  8
6
  6
CONTINUOUS
 62
     7
  5
4A6
 10
924660.979
 20
7238876.896
 30
0.0
  0
VERTEX
  8
6
  6
CONTINUOUS
 62
     7
  5
4A7
 10
924660.083
 20
7238875.606
 30
0.0
  0
VERTEX
  8
6
  6
CONTINUOUS
 62
     7
  5
4A8
 10
924659.059
 20
7238874.417
 30
0.0
  0
VERTEX
  8
6
  6
CONTINUOUS
 62
     7
  5
4A9
 10
924657.915
 20
7238873.341
 30
0.0
  0
VERTEX
  8
6
  6
CONTINUOUS
 62
     7
  5
4AA
 10
924656.665
 20
7238872.39
 30
0.0
  0
VERTEX
  8
6
  6
CONTINUOUS
 62
     7
  5
4AB
 10
924655.323
 20
7238871.577
 30
0.0
  0
VERTEX
  8
6
  6
CONTINUOUS
 62
     7
  5
4AC
 10
924653.902
 20
7238870.907
 30
0.0
  0
VERTEX
  8
6
  6
CONTINUOUS
 62
     7
  5
4AD
 10
924652.42
 20
7238870.39
 30
0.0
  0
VERTEX
  8
6
  6
CONTINUOUS
 62
     7
  5
4AE
 10
924650.892
 20
7238870.03
 30
0.0
  0
VERTEX
  8
6
  6
CONTINUOUS
 62
     7
  5
4AF
 10
924649.335
 20
7238869.831
 30
0.0
  0
VERTEX
  8
6
  6
CONTINUOUS
 62
     7
  5
4B0
 10
924647.888
 20
7238869.794
 30
0.0
  0
SEQEND
  8
6
  6
CONTINUOUS
 62
     7
  5
4B1
  0
LINE
  8
6
  6
CONTINUOUS
 62
     7
  5
4B2
 10
924645.802
 20
7238809.827
 30
0.0
 11
922765.42
 21
7238851.969
 31
0.0
  0
LINE
  8
6
  6
CONTINUOUS
 62
     7
  5
4B3
 10
922765.42
 20
7238851.969
 30
0.0
 11
922747.174
 21
7238852.379
 31
0.0
  0
POLYLINE
  8
6
  6
CONTINUOUS
 62
     7
  5
4B4
 66
     1
 10
0.0
 20
0.0
 30
0.0
  0
VERTEX
  8
6
  6
CONTINUOUS
 62
     7
  5
4B5
 10
922747.988
 20
7238912.376
 30
0.0
  0
VERTEX
  8
6
  6
CONTINUOUS
 62
     7
  5
4B6
 10
922744.688
 20
7238916.438
 30
0.0
  0
VERTEX
  8
6
  6
CONTINUOUS
 62
     7
  5
4B7
 10
922740.981
 20
7238920.132
 30
0.0
  0
VERTEX
  8
6
  6
CONTINUOUS
 62
     7
  5
4B8
 10
922736.909
 20
7238923.419
 30
0.0
  0
VERTEX
  8
6
  6
CONTINUOUS
 62
     7
  5
4B9
 10
922732.514
 20
7238926.262
 30
0.0
  0
VERTEX
  8
6
  6
CONTINUOUS
 62
     7
  5
4BA
 10
922727.847
 20
7238928.631
 30
0.0
  0
VERTEX
  8
6
  6
CONTINUOUS
 62
     7
  5
4BB
 10
922722.958
 20
7238930.499
 30
0.0
  0
VERTEX
  8
6
  6
CONTINUOUS
 62
     7
  5
4BC
 10
922717.901
 20
7238931.844
 30
0.0
  0
VERTEX
  8
6
  6
CONTINUOUS
 62
     7
  5
4BD
 10
922712.73
 20
7238932.656
 30
0.0
  0
VERTEX
  8
6
  6
CONTINUOUS
 62
     7
  5
4BE
 10
922707.503
 20
7238932.919
 30
0.0
  0
VERTEX
  8
6
  6
CONTINUOUS
 62
     7
  5
4BF
 10
922702.278
 20
7238932.638
 30
0.0
  0
VERTEX
  8
6
  6
CONTINUOUS
 62
     7
  5
4C0
 10
922697.109
 20
7238931.81
 30
0.0
  0
VERTEX
  8
6
  6
CONTINUOUS
 62
     7
  5
4C1
 10
922692.056
 20
7238930.448
 30
0.0
  0
VERTEX
  8
6
  6
CONTINUOUS
 62
     7
  5
4C2
 10
922687.173
 20
7238928.564
 30
0.0
  0
VERTEX
  8
6
  6
CONTINUOUS
 62
     7
  5
4C3
 10
922682.514
 20
7238926.179
 30
0.0
  0
VERTEX
  8
6
  6
CONTINUOUS
 62
     7
  5
4C4
 10
922678.13
 20
7238923.323
 30
0.0
  0
VERTEX
  8
6
  6
CONTINUOUS
 62
     7
  5
4C5
 10
922674.068
 20
7238920.023
 30
0.0
  0
VERTEX
  8
6
  6
CONTINUOUS
 62
     7
  5
4C6
 10
922670.372
 20
7238916.315
 30
0.0
  0
VERTEX
  8
6
  6
CONTINUOUS
 62
     7
  5
4C7
 10
922667.087
 20
7238912.243
 30
0.0
  0
VERTEX
  8
6
  6
CONTINUOUS
 62
     7
  5
4C8
 10
922664.244
 20
7238907.849
 30
0.0
  0
VERTEX
  8
6
  6
CONTINUOUS
 62
     7
  5
4C9
 10
922661.875
 20
7238903.182
 30
0.0
  0
VERTEX
  8
6
  6
CONTINUOUS
 62
     7
  5
4CA
 10
922660.007
 20
7238898.293
 30
0.0
  0
VERTEX
  8
6
  6
CONTINUOUS
 62
     7
  5
4CB
 10
922658.662
 20
7238893.236
 30
0.0
  0
VERTEX
  8
6
  6
CONTINUOUS
 62
     7
  5
4CC
 10
922657.851
 20
7238888.065
 30
0.0
  0
VERTEX
  8
6
  6
CONTINUOUS
 62
     7
  5
4CD
 10
922657.586
 20
7238882.838
 30
0.0
  0
VERTEX
  8
6
  6
CONTINUOUS
 62
     7
  5
4CE
 10
922657.868
 20
7238877.611
 30
0.0
  0
VERTEX
  8
6
  6
CONTINUOUS
 62
     7
  5
4CF
 10
922658.696
 20
7238872.445
 30
0.0
  0
VERTEX
  8
6
  6
CONTINUOUS
 62
     7
  5
4D0
 10
922660.058
 20
7238867.391
 30
0.0
  0
VERTEX
  8
6
  6
CONTINUOUS
 62
     7
  5
4D1
 10
922661.942
 20
7238862.509
 30
0.0
  0
VERTEX
  8
6
  6
CONTINUOUS
 62
     7
  5
4D2
 10
922664.325
 20
7238857.849
 30
0.0
  0
VERTEX
  8
6
  6
CONTINUOUS
 62
     7
  5
4D3
 10
922667.183
 20
7238853.464
 30
0.0
  0
VERTEX
  8
6
  6
CONTINUOUS
 62
     7
  5
4D4
 10
922670.482
 20
7238849.401
 30
0.0
  0
VERTEX
  8
6
  6
CONTINUOUS
 62
     7
  5
4D5
 10
922674.19
 20
7238845.708
 30
0.0
  0
VERTEX
  8
6
  6
CONTINUOUS
 62
     7
  5
4D6
 10
922678.263
 20
7238842.42
 30
0.0
  0
VERTEX
  8
6
  6
CONTINUOUS
 62
     7
  5
4D7
 10
922682.657
 20
7238839.577
 30
0.0
  0
VERTEX
  8
6
  6
CONTINUOUS
 62
     7
  5
4D8
 10
922687.323
 20
7238837.209
 30
0.0
  0
VERTEX
  8
6
  6
CONTINUOUS
 62
     7
  5
4D9
 10
922692.214
 20
7238835.342
 30
0.0
  0
VERTEX
  8
6
  6
CONTINUOUS
 62
     7
  5
4DA
 10
922697.27
 20
7238833.996
 30
0.0
  0
VERTEX
  8
6
  6
CONTINUOUS
 62
     7
  5
4DB
 10
922702.441
 20
7238833.185
 30
0.0
  0
VERTEX
  8
6
  6
CONTINUOUS
 62
     7
  5
4DC
 10
922707.669
 20
7238832.921
 30
0.0
  0
VERTEX
  8
6
  6
CONTINUOUS
 62
     7
  5
4DD
 10
922712.894
 20
7238833.203
 30
0.0
  0
VERTEX
  8
6
  6
CONTINUOUS
 62
     7
  5
4DE
 10
922718.061
 20
7238834.031
 30
0.0
  0
VERTEX
  8
6
  6
CONTINUOUS
 62
     7
  5
4DF
 10
922723.115
 20
7238835.393
 30
0.0
  0
VERTEX
  8
6
  6
CONTINUOUS
 62
     7
  5
4E0
 10
922727.997
 20
7238837.277
 30
0.0
  0
VERTEX
  8
6
  6
CONTINUOUS
 62
     7
  5
4E1
 10
922732.657
 20
7238839.659
 30
0.0
  0
VERTEX
  8
6
  6
CONTINUOUS
 62
     7
  5
4E2
 10
922737.042
 20
7238842.517
 30
0.0
  0
VERTEX
  8
6
  6
CONTINUOUS
 62
     7
  5
4E3
 10
922741.104
 20
7238845.818
 30
0.0
  0
VERTEX
  8
6
  6
CONTINUOUS
 62
     7
  5
4E4
 10
922744.798
 20
7238849.525
 30
0.0
  0
VERTEX
  8
6
  6
CONTINUOUS
 62
     7
  5
4E5
 10
922747.177
 20
7238852.384
 30
0.0
  0
SEQEND
  8
6
  6
CONTINUOUS
 62
     7
  5
4E6
  0
LINE
  8
6
  6
CONTINUOUS
 62
     7
  5
4E7
 10
922759.744
 20
7238686.561
 30
0.0
 11
922621.378
 21
7238689.662
 31
0.0
  0
LINE
  8
6
  6
CONTINUOUS
 62
     7
  5
4E8
 10
922895.16
 20
7238683.527
 30
0.0
 11
922759.744
 21
7238686.561
 31
0.0
  0
LINE
  8
6
  6
CONTINUOUS
 62
     7
  5
4E9
 10
923030.576
 20
7238680.492
 30
0.0
 11
922895.16
 21
7238683.527
 31
0.0
  0
LINE
  8
6
  6
CONTINUOUS
 62
     7
  5
4EA
 10
923165.991
 20
7238677.456
 30
0.0
 11
923030.576
 21
7238680.492
 31
0.0
  0
LINE
  8
6
  6
CONTINUOUS
 62
     7
  5
4EB
 10
923301.408
 20
7238674.421
 30
0.0
 11
923165.991
 21
7238677.456
 31
0.0
  0
LINE
  8
6
  6
CONTINUOUS
 62
     7
  5
4EC
 10
923436.824
 20
7238671.386
 30
0.0
 11
923301.408
 21
7238674.421
 31
0.0
  0
LINE
  8
6
  6
CONTINUOUS
 62
     7
  5
4ED
 10
923572.241
 20
7238668.352
 30
0.0
 11
923436.824
 21
7238671.386
 31
0.0
  0
LINE
  8
6
  6
CONTINUOUS
 62
     7
  5
4EE
 10
923707.656
 20
7238665.316
 30
0.0
 11
923572.241
 21
7238668.352
 31
0.0
  0
LINE
  8
6
  6
CONTINUOUS
 62
     7
  5
4EF
 10
923843.072
 20
7238662.282
 30
0.0
 11
923707.656
 21
7238665.316
 31
0.0
  0
LINE
  8
6
  6
CONTINUOUS
 62
     7
  5
4F0
 10
923978.489
 20
7238659.247
 30
0.0
 11
923843.072
 21
7238662.282
 31
0.0
  0
LINE
  8
6
  6
CONTINUOUS
 62
     7
  5
4F1
 10
924113.905
 20
7238656.212
 30
0.0
 11
923978.489
 21
7238659.247
 31
0.0
  0
LINE
  8
6
  6
CONTINUOUS
 62
     7
  5
4F2
 10
924249.321
 20
7238653.177
 30
0.0
 11
924113.905
 21
7238656.212
 31
0.0
  0
LINE
  8
6
  6
CONTINUOUS
 62
     7
  5
4F3
 10
924384.737
 20
7238650.142
 30
0.0
 11
924249.321
 21
7238653.177
 31
0.0
  0
LINE
  8
6
  6
CONTINUOUS
 62
     7
  5
4F4
 10
924520.154
 20
7238647.107
 30
0.0
 11
924384.737
 21
7238650.142
 31
0.0
  0
LINE
  8
6
  6
CONTINUOUS
 62
     7
  5
4F5
 10
924655.853
 20
7238644.065
 30
0.0
 11
924520.154
 21
7238647.107
 31
0.0
  0
LINE
  8
6
  6
CONTINUOUS
 62
     7
  5
4F6
 10
924655.853
 20
7238644.065
 30
0.0
 11
924660.459
 21
7238794.369
 31
0.0
  0
POLYLINE
  8
6
  6
CONTINUOUS
 62
     7
  5
4F7
 66
     1
 10
0.0
 20
0.0
 30
0.0
  0
VERTEX
  8
6
  6
CONTINUOUS
 62
     7
  5
4F8
 10
924660.459
 20
7238794.369
 30
0.0
  0
VERTEX
  8
6
  6
CONTINUOUS
 62
     7
  5
4F9
 10
924660.425
 20
7238795.94
 30
0.0
  0
VERTEX
  8
6
  6
CONTINUOUS
 62
     7
  5
4FA
 10
924660.227
 20
7238797.497
 30
0.0
  0
VERTEX
  8
6
  6
CONTINUOUS
 62
     7
  5
4FB
 10
924659.868
 20
7238799.025
 30
0.0
  0
VERTEX
  8
6
  6
CONTINUOUS
 62
     7
  5
4FC
 10
924659.35
 20
7238800.508
 30
0.0
  0
VERTEX
  8
6
  6
CONTINUOUS
 62
     7
  5
4FD
 10
924658.68
 20
7238801.928
 30
0.0
  0
VERTEX
  8
6
  6
CONTINUOUS
 62
     7
  5
4FE
 10
924657.866
 20
7238803.27
 30
0.0
  0
VERTEX
  8
6
  6
CONTINUOUS
 62
     7
  5
4FF
 10
924656.916
 20
7238804.521
 30
0.0
  0
VERTEX
  8
6
  6
CONTINUOUS
 62
     7
  5
500
 10
924655.84
 20
7238805.664
 30
0.0
  0
VERTEX
  8
6
  6
CONTINUOUS
 62
     7
  5
501
 10
924654.651
 20
7238806.689
 30
0.0
  0
VERTEX
  8
6
  6
CONTINUOUS
 62
     7
  5
502
 10
924653.361
 20
7238807.584
 30
0.0
  0
VERTEX
  8
6
  6
CONTINUOUS
 62
     7
  5
503
 10
924651.984
 20
7238808.339
 30
0.0
  0
VERTEX
  8
6
  6
CONTINUOUS
 62
     7
  5
504
 10
924650.537
 20
7238808.947
 30
0.0
  0
VERTEX
  8
6
  6
CONTINUOUS
 62
     7
  5
505
 10
924649.032
 20
7238809.4
 30
0.0
  0
VERTEX
  8
6
  6
CONTINUOUS
 62
     7
  5
506
 10
924647.492
 20
7238809.693
 30
0.0
  0
VERTEX
  8
6
  6
CONTINUOUS
 62
     7
  5
507
 10
924645.926
 20
7238809.823
 30
0.0
  0
VERTEX
  8
6
  6
CONTINUOUS
 62
     7
  5
508
 10
924645.802
 20
7238809.827
 30
0.0
  0
SEQEND
  8
6
  6
CONTINUOUS
 62
     7
  5
509
  0
LINE
  8
6
  6
CONTINUOUS
 62
     7
  5
50A
 10
922759.124
 20
7238666.571
 30
0.0
 11
922620.768
 21
7238669.671
 31
0.0
  0
LINE
  8
6
  6
CONTINUOUS
 62
     7
  5
50B
 10
922894.539
 20
7238663.535
 30
0.0
 11
922759.124
 21
7238666.571
 31
0.0
  0
LINE
  8
6
  6
CONTINUOUS
 62
     7
  5
50C
 10
923029.956
 20
7238660.5
 30
0.0
 11
922894.539
 21
7238663.535
 31
0.0
  0
LINE
  8
6
  6
CONTINUOUS
 62
     7
  5
50D
 10
923165.372
 20
7238657.465
 30
0.0
 11
923029.956
 21
7238660.5
 31
0.0
  0
LINE
  8
6
  6
CONTINUOUS
 62
     7
  5
50E
 10
923300.789
 20
7238654.429
 30
0.0
 11
923165.372
 21
7238657.465
 31
0.0
  0
LINE
  8
6
  6
CONTINUOUS
 62
     7
  5
50F
 10
923436.204
 20
7238651.395
 30
0.0
 11
923300.789
 21
7238654.429
 31
0.0
  0
LINE
  8
6
  6
CONTINUOUS
 62
     7
  5
510
 10
923571.62
 20
7238648.36
 30
0.0
 11
923436.204
 21
7238651.395
 31
0.0
  0
LINE
  8
6
  6
CONTINUOUS
 62
     7
  5
511
 10
923707.037
 20
7238645.326
 30
0.0
 11
923571.62
 21
7238648.36
 31
0.0
  0
LINE
  8
6
  6
CONTINUOUS
 62
     7
  5
512
 10
923842.452
 20
7238642.29
 30
0.0
 11
923707.037
 21
7238645.326
 31
0.0
  0
LINE
  8
6
  6
CONTINUOUS
 62
     7
  5
513
 10
923977.869
 20
7238639.255
 30
0.0
 11
923842.452
 21
7238642.29
 31
0.0
  0
LINE
  8
6
  6
CONTINUOUS
 62
     7
  5
514
 10
924113.285
 20
7238636.221
 30
0.0
 11
923977.869
 21
7238639.255
 31
0.0
  0
LINE
  8
6
  6
CONTINUOUS
 62
     7
  5
515
 10
924248.702
 20
7238633.186
 30
0.0
 11
924113.285
 21
7238636.221
 31
0.0
  0
LINE
  8
6
  6
CONTINUOUS
 62
     7
  5
516
 10
924384.117
 20
7238630.15
 30
0.0
 11
924248.702
 21
7238633.186
 31
0.0
  0
LINE
  8
6
  6
CONTINUOUS
 62
     7
  5
517
 10
924519.533
 20
7238627.115
 30
0.0
 11
924384.117
 21
7238630.15
 31
0.0
  0
LINE
  8
6
  6
CONTINUOUS
 62
     7
  5
518
 10
924655.239
 20
7238624.074
 30
0.0
 11
924519.533
 21
7238627.115
 31
0.0
  0
LINE
  8
6
  6
CONTINUOUS
 62
     7
  5
519
 10
924650.625
 20
7238473.523
 30
0.0
 11
924655.239
 21
7238624.074
 31
0.0
  0
LINE
  8
6
  6
CONTINUOUS
 62
     7
  5
51A
 10
924635.295
 20
7238458.986
 30
0.0
 11
922753.972
 21
7238501.15
 31
0.0
  0
LINE
  8
6
  6
CONTINUOUS
 62
     7
  5
51B
 10
922753.972
 20
7238501.15
 30
0.0
 11
922735.446
 21
7238501.567
 31
0.0
  0
POLYLINE
  8
6
  6
CONTINUOUS
 62
     7
  5
51C
 66
     1
 10
0.0
 20
0.0
 30
0.0
  0
VERTEX
  8
6
  6
CONTINUOUS
 62
     7
  5
51D
 10
924650.625
 20
7238473.523
 30
0.0
  0
VERTEX
  8
6
  6
CONTINUOUS
 62
     7
  5
51E
 10
924650.495
 20
7238471.958
 30
0.0
  0
VERTEX
  8
6
  6
CONTINUOUS
 62
     7
  5
51F
 10
924650.201
 20
7238470.416
 30
0.0
  0
VERTEX
  8
6
  6
CONTINUOUS
 62
     7
  5
520
 10
924649.748
 20
7238468.912
 30
0.0
  0
VERTEX
  8
6
  6
CONTINUOUS
 62
     7
  5
521
 10
924649.141
 20
7238467.465
 30
0.0
  0
VERTEX
  8
6
  6
CONTINUOUS
 62
     7
  5
522
 10
924648.387
 20
7238466.088
 30
0.0
  0
VERTEX
  8
6
  6
CONTINUOUS
 62
     7
  5
523
 10
924647.492
 20
7238464.798
 30
0.0
  0
VERTEX
  8
6
  6
CONTINUOUS
 62
     7
  5
524
 10
924646.466
 20
7238463.609
 30
0.0
  0
VERTEX
  8
6
  6
CONTINUOUS
 62
     7
  5
525
 10
924645.323
 20
7238462.533
 30
0.0
  0
VERTEX
  8
6
  6
CONTINUOUS
 62
     7
  5
526
 10
924644.073
 20
7238461.583
 30
0.0
  0
VERTEX
  8
6
  6
CONTINUOUS
 62
     7
  5
527
 10
924642.731
 20
7238460.769
 30
0.0
  0
VERTEX
  8
6
  6
CONTINUOUS
 62
     7
  5
528
 10
924641.31
 20
7238460.099
 30
0.0
  0
VERTEX
  8
6
  6
CONTINUOUS
 62
     7
  5
529
 10
924639.828
 20
7238459.582
 30
0.0
  0
VERTEX
  8
6
  6
CONTINUOUS
 62
     7
  5
52A
 10
924638.299
 20
7238459.222
 30
0.0
  0
VERTEX
  8
6
  6
CONTINUOUS
 62
     7
  5
52B
 10
924636.742
 20
7238459.024
 30
0.0
  0
VERTEX
  8
6
  6
CONTINUOUS
 62
     7
  5
52C
 10
924635.295
 20
7238458.986
 30
0.0
  0
SEQEND
  8
6
  6
CONTINUOUS
 62
     7
  5
52D
  0
LINE
  8
6
  6
CONTINUOUS
 62
     7
  5
52E
 10
922609.204
 20
7238291.175
 30
0.0
 11
922759.167
 21
7238287.833
 31
0.0
  0
LINE
  8
6
  6
CONTINUOUS
 62
     7
  5
52F
 10
922614.798
 20
7238474.262
 30
0.0
 11
922609.204
 21
7238291.175
 31
0.0
  0
LINE
  8
6
  6
CONTINUOUS
 62
     7
  5
530
 10
924683.944
 20
7238254.939
 30
0.0
 11
924688.322
 21
7238397.783
 31
0.0
  0
LINE
  8
6
  6
CONTINUOUS
 62
     7
  5
531
 10
924688.322
 20
7238397.783
 30
0.0
 11
922763.936
 21
7238440.911
 31
0.0
  0
LINE
  8
6
  6
CONTINUOUS
 62
     7
  5
532
 10
922763.936
 20
7238440.911
 30
0.0
 11
922734.091
 21
7238441.583
 31
0.0
  0
LINE
  8
6
  6
CONTINUOUS
 62
     7
  5
533
 10
922759.167
 20
7238287.833
 30
0.0
 11
922901.832
 21
7238284.654
 31
0.0
  0
LINE
  8
6
  6
CONTINUOUS
 62
     7
  5
534
 10
922901.832
 20
7238284.654
 30
0.0
 11
923044.496
 21
7238281.474
 31
0.0
  0
LINE
  8
6
  6
CONTINUOUS
 62
     7
  5
535
 10
923044.496
 20
7238281.474
 30
0.0
 11
923187.16
 21
7238278.294
 31
0.0
  0
LINE
  8
6
  6
CONTINUOUS
 62
     7
  5
536
 10
923187.16
 20
7238278.294
 30
0.0
 11
923329.825
 21
7238275.115
 31
0.0
  0
LINE
  8
6
  6
CONTINUOUS
 62
     7
  5
537
 10
923329.825
 20
7238275.115
 30
0.0
 11
923472.488
 21
7238271.934
 31
0.0
  0
LINE
  8
6
  6
CONTINUOUS
 62
     7
  5
538
 10
923472.488
 20
7238271.934
 30
0.0
 11
923615.152
 21
7238268.756
 31
0.0
  0
LINE
  8
6
  6
CONTINUOUS
 62
     7
  5
539
 10
923615.152
 20
7238268.756
 30
0.0
 11
923757.816
 21
7238265.575
 31
0.0
  0
LINE
  8
6
  6
CONTINUOUS
 62
     7
  5
53A
 10
923757.816
 20
7238265.575
 30
0.0
 11
923900.481
 21
7238262.396
 31
0.0
  0
LINE
  8
6
  6
CONTINUOUS
 62
     7
  5
53B
 10
923900.481
 20
7238262.396
 30
0.0
 11
924043.145
 21
7238259.216
 31
0.0
  0
LINE
  8
6
  6
CONTINUOUS
 62
     7
  5
53C
 10
924043.145
 20
7238259.216
 30
0.0
 11
924185.808
 21
7238256.037
 31
0.0
  0
LINE
  8
6
  6
CONTINUOUS
 62
     7
  5
53D
 10
924185.808
 20
7238256.037
 30
0.0
 11
924328.473
 21
7238252.857
 31
0.0
  0
LINE
  8
6
  6
CONTINUOUS
 62
     7
  5
53E
 10
924328.473
 20
7238252.857
 30
0.0
 11
924471.138
 21
7238249.677
 31
0.0
  0
LINE
  8
6
  6
CONTINUOUS
 62
     7
  5
53F
 10
924471.138
 20
7238249.677
 30
0.0
 11
924613.802
 21
7238246.497
 31
0.0
  0
LINE
  8
6
  6
CONTINUOUS
 62
     7
  5
540
 10
924613.802
 20
7238246.497
 30
0.0
 11
924673.638
 21
7238245.164
 31
0.0
  0
POLYLINE
  8
6
  6
CONTINUOUS
 62
     7
  5
541
 66
     1
 10
0.0
 20
0.0
 30
0.0
  0
VERTEX
  8
6
  6
CONTINUOUS
 62
     7
  5
542
 10
922735.446
 20
7238501.567
 30
0.0
  0
VERTEX
  8
6
  6
CONTINUOUS
 62
     7
  5
543
 10
922732.184
 20
7238505.658
 30
0.0
  0
VERTEX
  8
6
  6
CONTINUOUS
 62
     7
  5
544
 10
922728.51
 20
7238509.387
 30
0.0
  0
VERTEX
  8
6
  6
CONTINUOUS
 62
     7
  5
545
 10
922724.466
 20
7238512.711
 30
0.0
  0
VERTEX
  8
6
  6
CONTINUOUS
 62
     7
  5
546
 10
922720.099
 20
7238515.593
 30
0.0
  0
VERTEX
  8
6
  6
CONTINUOUS
 62
     7
  5
547
 10
922715.454
 20
7238518.004
 30
0.0
  0
VERTEX
  8
6
  6
CONTINUOUS
 62
     7
  5
548
 10
922710.582
 20
7238519.915
 30
0.0
  0
VERTEX
  8
6
  6
CONTINUOUS
 62
     7
  5
549
 10
922705.537
 20
7238521.307
 30
0.0
  0
VERTEX
  8
6
  6
CONTINUOUS
 62
     7
  5
54A
 10
922700.374
 20
7238522.164
 30
0.0
  0
VERTEX
  8
6
  6
CONTINUOUS
 62
     7
  5
54B
 10
922695.149
 20
7238522.477
 30
0.0
  0
VERTEX
  8
6
  6
CONTINUOUS
 62
     7
  5
54C
 10
922689.921
 20
7238522.242
 30
0.0
  0
VERTEX
  8
6
  6
CONTINUOUS
 62
     7
  5
54D
 10
922684.746
 20
7238521.461
 30
0.0
  0
VERTEX
  8
6
  6
CONTINUOUS
 62
     7
  5
54E
 10
922679.681
 20
7238520.144
 30
0.0
  0
VERTEX
  8
6
  6
CONTINUOUS
 62
     7
  5
54F
 10
922674.781
 20
7238518.305
 30
0.0
  0
VERTEX
  8
6
  6
CONTINUOUS
 62
     7
  5
550
 10
922670.099
 20
7238515.963
 30
0.0
  0
VERTEX
  8
6
  6
CONTINUOUS
 62
     7
  5
551
 10
922665.689
 20
7238513.145
 30
0.0
  0
VERTEX
  8
6
  6
CONTINUOUS
 62
     7
  5
552
 10
922661.598
 20
7238509.882
 30
0.0
  0
VERTEX
  8
6
  6
CONTINUOUS
 62
     7
  5
553
 10
922657.871
 20
7238506.21
 30
0.0
  0
VERTEX
  8
6
  6
CONTINUOUS
 62
     7
  5
554
 10
922654.546
 20
7238502.165
 30
0.0
  0
VERTEX
  8
6
  6
CONTINUOUS
 62
     7
  5
555
 10
922651.664
 20
7238497.799
 30
0.0
  0
VERTEX
  8
6
  6
CONTINUOUS
 62
     7
  5
556
 10
922649.254
 20
7238493.154
 30
0.0
  0
VERTEX
  8
6
  6
CONTINUOUS
 62
     7
  5
557
 10
922647.342
 20
7238488.281
 30
0.0
  0
VERTEX
  8
6
  6
CONTINUOUS
 62
     7
  5
558
 10
922645.949
 20
7238483.236
 30
0.0
  0
VERTEX
  8
6
  6
CONTINUOUS
 62
     7
  5
559
 10
922645.093
 20
7238478.072
 30
0.0
  0
VERTEX
  8
6
  6
CONTINUOUS
 62
     7
  5
55A
 10
922644.781
 20
7238472.849
 30
0.0
  0
VERTEX
  8
6
  6
CONTINUOUS
 62
     7
  5
55B
 10
922645.016
 20
7238467.619
 30
0.0
  0
VERTEX
  8
6
  6
CONTINUOUS
 62
     7
  5
55C
 10
922645.796
 20
7238462.445
 30
0.0
  0
VERTEX
  8
6
  6
CONTINUOUS
 62
     7
  5
55D
 10
922647.113
 20
7238457.38
 30
0.0
  0
VERTEX
  8
6
  6
CONTINUOUS
 62
     7
  5
55E
 10
922648.952
 20
7238452.48
 30
0.0
  0
VERTEX
  8
6
  6
CONTINUOUS
 62
     7
  5
55F
 10
922651.294
 20
7238447.799
 30
0.0
  0
VERTEX
  8
6
  6
CONTINUOUS
 62
     7
  5
560
 10
922654.112
 20
7238443.389
 30
0.0
  0
VERTEX
  8
6
  6
CONTINUOUS
 62
     7
  5
561
 10
922657.375
 20
7238439.297
 30
0.0
  0
VERTEX
  8
6
  6
CONTINUOUS
 62
     7
  5
562
 10
922661.048
 20
7238435.57
 30
0.0
  0
VERTEX
  8
6
  6
CONTINUOUS
 62
     7
  5
563
 10
922665.092
 20
7238432.245
 30
0.0
  0
VERTEX
  8
6
  6
CONTINUOUS
 62
     7
  5
564
 10
922669.459
 20
7238429.363
 30
0.0
  0
VERTEX
  8
6
  6
CONTINUOUS
 62
     7
  5
565
 10
922674.104
 20
7238426.952
 30
0.0
  0
VERTEX
  8
6
  6
CONTINUOUS
 62
     7
  5
566
 10
922678.976
 20
7238425.041
 30
0.0
  0
VERTEX
  8
6
  6
CONTINUOUS
 62
     7
  5
567
 10
922684.022
 20
7238423.649
 30
0.0
  0
VERTEX
  8
6
  6
CONTINUOUS
 62
     7
  5
568
 10
922689.185
 20
7238422.792
 30
0.0
  0
VERTEX
  8
6
  6
CONTINUOUS
 62
     7
  5
569
 10
922694.41
 20
7238422.479
 30
0.0
  0
VERTEX
  8
6
  6
CONTINUOUS
 62
     7
  5
56A
 10
922699.638
 20
7238422.715
 30
0.0
  0
VERTEX
  8
6
  6
CONTINUOUS
 62
     7
  5
56B
 10
922704.812
 20
7238423.495
 30
0.0
  0
VERTEX
  8
6
  6
CONTINUOUS
 62
     7
  5
56C
 10
922709.878
 20
7238424.813
 30
0.0
  0
VERTEX
  8
6
  6
CONTINUOUS
 62
     7
  5
56D
 10
922714.777
 20
7238426.652
 30
0.0
  0
VERTEX
  8
6
  6
CONTINUOUS
 62
     7
  5
56E
 10
922719.459
 20
7238428.994
 30
0.0
  0
VERTEX
  8
6
  6
CONTINUOUS
 62
     7
  5
56F
 10
922723.869
 20
7238431.811
 30
0.0
  0
VERTEX
  8
6
  6
CONTINUOUS
 62
     7
  5
570
 10
922727.96
 20
7238435.075
 30
0.0
  0
VERTEX
  8
6
  6
CONTINUOUS
 62
     7
  5
571
 10
922731.689
 20
7238438.747
 30
0.0
  0
VERTEX
  8
6
  6
CONTINUOUS
 62
     7
  5
572
 10
922734.091
 20
7238441.583
 30
0.0
  0
SEQEND
  8
6
  6
CONTINUOUS
 62
     7
  5
573
  0
LINE
  8
6
  6
CONTINUOUS
 62
     7
  5
574
 10
924673.638
 20
7238245.164
 30
0.0
 11
924683.944
 21
7238254.939
 31
0.0
  0
LINE
  8
6
  6
CONTINUOUS
 62
     7
  5
575
 10
925190.899
 20
7239441.6
 30
0.0
 11
922646.116
 21
7239499.325
 31
0.0
  0
LINE
  8
6
  6
CONTINUOUS
 62
     7
  5
576
 10
925196.521
 20
7239461.477
 30
0.0
 11
922652.084
 21
7239519.195
 31
0.0
  0
LINE
  8
6
  6
CONTINUOUS
 62
     7
  5
577
 10
920105.778
 20
7242337.579
 30
0.0
 11
920032.719
 21
7239742.533
 31
0.0
  0
LINE
  8
6
  6
CONTINUOUS
 62
     7
  5
578
 10
922528.615
 20
7238273.7
 30
0.0
 11
922492.101
 21
7237113.309
 31
0.0
  0
POLYLINE
  8
6
  6
CONTINUOUS
 62
     7
  5
579
 66
     1
 10
0.0
 20
0.0
 30
0.0
  0
VERTEX
  8
6
  6
CONTINUOUS
 62
     7
  5
57A
 10
922491.976
 20
7237113.287
 30
0.0
  0
VERTEX
  8
6
  6
CONTINUOUS
 62
     7
  5
57B
 10
922491.858
 20
7237111.722
 30
0.0
  0
VERTEX
  8
6
  6
CONTINUOUS
 62
     7
  5
57C
 10
922491.576
 20
7237110.179
 30
0.0
  0
VERTEX
  8
6
  6
CONTINUOUS
 62
     7
  5
57D
 10
922491.135
 20
7237108.671
 30
0.0
  0
VERTEX
  8
6
  6
CONTINUOUS
 62
     7
  5
57E
 10
922490.537
 20
7237107.219
 30
0.0
  0
VERTEX
  8
6
  6
CONTINUOUS
 62
     7
  5
57F
 10
922489.79
 20
7237105.839
 30
0.0
  0
VERTEX
  8
6
  6
CONTINUOUS
 62
     7
  5
580
 10
922488.906
 20
7237104.542
 30
0.0
  0
VERTEX
  8
6
  6
CONTINUOUS
 62
     7
  5
581
 10
922487.889
 20
7237103.344
 30
0.0
  0
VERTEX
  8
6
  6
CONTINUOUS
 62
     7
  5
582
 10
922486.753
 20
7237102.26
 30
0.0
  0
VERTEX
  8
6
  6
CONTINUOUS
 62
     7
  5
583
 10
922485.511
 20
7237101.301
 30
0.0
  0
VERTEX
  8
6
  6
CONTINUOUS
 62
     7
  5
584
 10
922484.174
 20
7237100.479
 30
0.0
  0
VERTEX
  8
6
  6
CONTINUOUS
 62
     7
  5
585
 10
922482.759
 20
7237099.798
 30
0.0
  0
VERTEX
  8
6
  6
CONTINUOUS
 62
     7
  5
586
 10
922481.28
 20
7237099.27
 30
0.0
  0
VERTEX
  8
6
  6
CONTINUOUS
 62
     7
  5
587
 10
922479.753
 20
7237098.899
 30
0.0
  0
VERTEX
  8
6
  6
CONTINUOUS
 62
     7
  5
588
 10
922478.197
 20
7237098.69
 30
0.0
  0
VERTEX
  8
6
  6
CONTINUOUS
 62
     7
  5
589
 10
922476.633
 20
7237098.644
 30
0.0
  0
SEQEND
  8
6
  6
CONTINUOUS
 62
     7
  5
58A
  0
LINE
  8
6
  6
CONTINUOUS
 62
     7
  5
58B
 10
919959.398
 20
7237138.197
 30
0.0
 11
920845.818
 21
7237118.803
 31
0.0
  0
LINE
  8
58
  6
DIVIDE
 62
   216
  5
58D
 10
920043.192
 20
7241762.613
 30
0.0
 11
925320.105
 21
7241628.904
 31
0.0
  0
LINE
  8
6
  6
CONTINUOUS
 62
     7
  5
58E
 10
925244.349
 20
7240687.428
 30
0.0
 11
922645.609
 21
7240768.366
 31
0.0
  0
ENDSEC
  0
EOF
