  0
SECTION
  2
HEADER
  9
$ACADVER
  1
AC1009
  9
$INSBASE
 10
0.0
 20
0.0
 30
0.0
  9
$EXTMIN
 10
940992.51
 20
7236282.859
 30
0.0
  9
$EXTMAX
 10
946444.149
 20
7241797.895
 30
0.0
  9
$LIMMIN
 10
0.0
 20
0.0
  9
$LIMMAX
 10
12.0
 20
9.0
  9
$ORTHOMODE
 70
     0
  9
$REGENMODE
 70
     1
  9
$FILLMODE
 70
     1
  9
$QTEXTMODE
 70
     0
  9
$MIRRTEXT
 70
     1
  9
$DRAGMODE
 70
     2
  9
$LTSCALE
 40
1.0
  9
$OSMODE
 70
     0
  9
$ATTMODE
 70
     1
  9
$TEXTSIZE
 40
0.2
  9
$TRACEWID
 40
0.05
  9
$TEXTSTYLE
  7
STANDARD
  9
$CLAYER
  8
0
  9
$CELTYPE
  6
CONTINUOUS
  9
$CECOLOR
 62
   256
  9
$DIMSCALE
 40
1.0
  9
$DIMASZ
 40
0.18
  9
$DIMEXO
 40
0.0625
  9
$DIMDLI
 40
0.38
  9
$DIMRND
 40
0.0
  9
$DIMDLE
 40
0.0
  9
$DIMEXE
 40
0.18
  9
$DIMTP
 40
0.0
  9
$DIMTM
 40
0.0
  9
$DIMTXT
 40
0.18
  9
$DIMCEN
 40
0.09
  9
$DIMTSZ
 40
0.0
  9
$DIMTOL
 70
     0
  9
$DIMLIM
 70
     0
  9
$DIMTIH
 70
     1
  9
$DIMTOH
 70
     1
  9
$DIMSE1
 70
     0
  9
$DIMSE2
 70
     0
  9
$DIMTAD
 70
     0
  9
$DIMZIN
 70
     0
  9
$DIMBLK
  1

  9
$DIMASO
 70
     1
  9
$DIMSHO
 70
     1
  9
$DIMPOST
  1

  9
$DIMAPOST
  1

  9
$DIMALT
 70
     0
  9
$DIMALTD
 70
     2
  9
$DIMALTF
 40
25.4
  9
$DIMLFAC
 40
1.0
  9
$DIMTOFL
 70
     0
  9
$DIMTVP
 40
0.0
  9
$DIMTIX
 70
     0
  9
$DIMSOXD
 70
     0
  9
$DIMSAH
 70
     0
  9
$DIMBLK1
  1

  9
$DIMBLK2
  1

  9
$DIMSTYLE
  2
STANDARD
  9
$DIMCLRD
 70
     0
  9
$DIMCLRE
 70
     0
  9
$DIMCLRT
 70
     0
  9
$DIMTFAC
 40
1.0
  9
$DIMGAP
 40
0.09
  9
$LUNITS
 70
     2
  9
$LUPREC
 70
     4
  9
$AXISMODE
 70
     0
  9
$AXISUNIT
 10
0.0
 20
0.0
  9
$SKETCHINC
 40
0.1
  9
$FILLETRAD
 40
0.0
  9
$AUNITS
 70
     0
  9
$AUPREC
 70
     0
  9
$MENU
  1
acad
  9
$ELEVATION
 40
0.0
  9
$PELEVATION
 40
0.0
  9
$THICKNESS
 40
0.0
  9
$LIMCHECK
 70
     0
  9
$BLIPMODE
 70
     1
  9
$CHAMFERA
 40
0.0
  9
$CHAMFERB
 40
0.0
  9
$SKPOLY
 70
     0
  9
$TDCREATE
 40
2453013.904398148
  9
$TDUPDATE
 40
2453013.904398148
  9
$TDINDWG
 40
0.0000000000
  9
$TDUSRTIMER
 40
0.0000000000
  9
$USRTIMER
 70
     1
  9
$ANGBASE
 50
0.0
  9
$ANGDIR
 70
     0
  9
$PDMODE
 70
     0
  9
$PDSIZE
 40
0.0
  9
$PLINEWID
 40
0.0
  9
$COORDS
 70
     0
  9
$SPLFRAME
 70
     0
  9
$SPLINETYPE
 70
     6
  9
$SPLINESEGS
 70
    10
  9
$ATTDIA
 70
     0
  9
$ATTREQ
 70
     1
  9
$HANDLING
 70
     1
  9
$HANDSEED
  5
33A
  9
$SURFTAB1
 70
     6
  9
$SURFTAB2
 70
     6
  9
$SURFTYPE
 70
     6
  9
$SURFU
 70
     6
  9
$SURFV
 70
     6
  9
$UCSNAME
  2

  9
$UCSORG
 10
0.0
 20
0.0
 30
0.0
  9
$UCSXDIR
 10
1.0
 20
0.0
 30
0.0
  9
$UCSYDIR
 10
0.0
 20
1.0
 30
0.0
  9
$PUCSNAME
  2

  9
$PUCSORG
 10
0.0
 20
0.0
 30
0.0
  9
$PUCSXDIR
 10
1.0
 20
0.0
 30
0.0
  9
$PUCSYDIR
 10
0.0
 20
1.0
 30
0.0
  9
$USERI1
 70
     0
  9
$USERI2
 70
     0
  9
$USERI3
 70
     0
  9
$USERI4
 70
     0
  9
$USERI5
 70
     0
  9
$USERR1
 40
0.0
  9
$USERR2
 40
0.0
  9
$USERR3
 40
0.0
  9
$USERR4
 40
0.0
  9
$USERR5
 40
0.0
  9
$WORLDVIEW
 70
     1
  9
$SHADEDGE
 70
     3
  9
$SHADEDIF
 70
    70
  9
$TILEMODE
 70
     1
  9
$MAXACTVP
 70
    16
  9
$PINSBASE
 10
0.0
 20
0.0
 30
0.0
  9
$PLIMCHECK
 70
     0
  9
$PEXTMIN
 10
-1.000000E+20
 20
-1.000000E+20
 30
-1.000000E+20
  9
$PEXTMAX
 10
-1.000000E+20
 20
-1.000000E+20
 30
-1.000000E+20
  9
$PLIMMIN
 10
0.0
 20
0.0
  9
$PLIMMAX
 10
12.0
 20
9.0
  9
$UNITMODE
 70
     0
  9
$VISRETAIN
 70
     0
  9
$PLINEGEN
 70
     1
  9
$PSLTSCALE
 70
     0
  9
$TREEDEPTH
 70
  3020
  9
$DWGCODEPAGE
  3
ansi_1252
  0
ENDSEC
  0
SECTION
  2
TABLES
  0
TABLE
  2
VPORT
 70
     1
  0
VPORT
  2
*ACTIVE
 70
     0
 10
0.0
 20
0.0
 11
1.0
 21
1.0
 12
0.0
 22
0.0
 13
0.0
 23
0.0
 14
0.0
 24
0.0
 15
0.0
 25
0.0
 16
0.0
 26
0.0
 36
1.0
 17
943408.233439
 27
7238868.542
 37
0.0
 40
5309.242
 41
1.109817
 42
50.0
 43
0.004
 44
0.0
 50
0.0
 51
0.0
 71
     0
 72
   100
 73
     1
 74
     0
 75
     0
 76
     0
 77
     0
 78
     0
  0
ENDTAB
  0
TABLE
  2
LTYPE
 70
     7
  0
LTYPE
  2
CONTINUOUS
 70
     0
  3
Solid line
 72
    65
 73
     0
 40
0.0
  0
LTYPE
  2
DOT
 70
    64
  3
. . . . . . . . . . . . . . . . . . . . . . . . . . . . . . . . .
 72
    65
 73
     2
 40
0.25
 49
0.0
 49
-0.25
  0
LTYPE
  2
HIDDEN
 70
    64
  3
__ __ __ __ __ __ __ __ __ __ __ __ __ __ __ __ __ __ __ __ __ 
 72
    65
 73
     2
 40
0.375
 49
0.25
 49
-0.125
  0
LTYPE
  2
DASHED
 70
    64
  3
__ __ __ __ __ __ __ __ __ __ __ __ __ __ __ __ __ __ __ __ __
 72
    65
 73
     2
 40
0.75
 49
0.5
 49
-0.25
  0
LTYPE
  2
DASHDOT
 70
    64
  3
__ . __ . __ . __ . __ . __ . __ . __ . __ . __ . __ . __ . _
 72
    65
 73
     4
 40
1.0
 49
0.5
 49
-0.25
 49
0.0
 49
-0.25
  0
LTYPE
  2
DIVIDE
 70
    64
  3
____ . . ____ . . ____ . . ____ . . ____ . . ____ . . ____ . .
 72
    65
 73
     6
 40
1.25
 49
0.5
 49
-0.25
 49
0.0
 49
-0.25
 49
0.0
 49
-0.25
  0
LTYPE
  2
CENTER
 70
    64
  3
____ _ ____ _ ____ _ ____ _ ____ _ ____ _ ____ _ ____ _ ____ _
 72
    65
 73
     4
 40
2.0
 49
1.25
 49
-0.25
 49
0.25
 49
-0.25
  0
ENDTAB
  0
TABLE
  2
LAYER
 70
    11
  0
LAYER
  2
0
 70
     0
 62
     7
  6
CONTINUOUS
  0
LAYER
  2
CONSTRUCTION_CLASS
 70
     1
 62
     7
  6
CONTINUOUS
  0
LAYER
  2
PATTERN_CLASS
 70
     0
 62
     7
  6
CONTINUOUS
  0
LAYER
  2
6
 70
    64
 62
     7
  6
CONTINUOUS
  0
LAYER
  2
7
 70
    64
 62
     7
  6
CONTINUOUS
  0
LAYER
  2
10
 70
    64
 62
     7
  6
CONTINUOUS
  0
LAYER
  2
15
 70
    64
 62
     7
  6
CONTINUOUS
  0
LAYER
  2
11
 70
    64
 62
     7
  6
CONTINUOUS
  0
LAYER
  2
19
 70
    64
 62
     7
  6
CONTINUOUS
  0
LAYER
  2
1
 70
    64
 62
     7
  6
CONTINUOUS
  0
LAYER
  2
58
 70
    64
 62
     7
  6
CONTINUOUS
  0
ENDTAB
  0
TABLE
  2
STYLE
 70
     3
  0
STYLE
  2
STANDARD
 70
     0
 40
0.0
 41
1.0
 50
0.0
 71
     0
 42
0.0
  3
txt
  4

  0
STYLE
  2
ROMANS
 70
     0
 40
0.2
 41
1.0
 50
0.0
 71
     0
 42
0.2
  3
ROMANS
  4

  0
STYLE
  2
ROMANC
 70
     0
 40
0.2
 41
1.0
 50
0.0
 71
     0
 42
0.2
  3
ROMANC
  4

  0
ENDTAB
  0
TABLE
  2
VIEW
 70
     0
  0
ENDTAB
  0
TABLE
  2
UCS
 70
     0
  0
ENDTAB
  0
TABLE
  2
APPID
 70
     1
  0
APPID
  2
ACAD
 70
     0
  0
ENDTAB
  0
TABLE
  2
DIMSTYLE
 70
     1
  0
DIMSTYLE
  2
STANDARD
 70
     0
  3

  4

  5

  6

  7

 40
1.0
 41
0.18
 42
0.0625
 43
0.38
 44
0.18
 45
0.0
 46
0.0
 47
0.0
 48
0.0
140
0.18
141
0.09
142
0.0
143
25.4
144
1.0
145
0.0
146
1.0
147
0.09
 71
     0
 72
     0
 73
     1
 74
     1
 75
     0
 76
     0
 77
     0
 78
     0
170
     0
171
     2
172
     0
173
     0
174
     0
175
     0
176
     0
177
     0
178
     0
  0
ENDTAB
  0
ENDSEC
  0
SECTION
  2
BLOCKS
  0
ENDSEC
  0
SECTION
  2
ENTITIES
  0
ARC
  8
6
  6
CONTINUOUS
 62
     7
  5
29
 10
946224.045475
 20
7236421.401237
 30
0.0
 40
15.0
 50
268.1499
 51
358.1499
210
0.0
220
0.0
230
1.0
  0
LINE
  8
6
  6
CONTINUOUS
 62
     7
  5
2A
 10
946351.994
 20
7238988.609
 30
0.0
 11
943713.37
 21
7239073.84
 31
0.0
  0
LINE
  8
6
  6
CONTINUOUS
 62
     7
  5
2B
 10
946311.046
 20
7238959.916
 30
0.0
 11
943742.386
 21
7239042.887
 31
0.0
  0
ARC
  8
6
  6
CONTINUOUS
 62
     7
  5
2C
 10
943675.374759
 20
7236503.727287
 30
0.0
 40
15.0
 50
178.1499
 51
268.1499
210
0.0
220
0.0
230
1.0
  0
LINE
  8
6
  6
CONTINUOUS
 62
     7
  5
2D
 10
943668.785
 20
7236764.326
 30
0.0
 11
943660.382
 21
7236504.212
 31
0.0
  0
LINE
  8
6
  6
CONTINUOUS
 62
     7
  5
2E
 10
943699.576
 20
7237717.578
 30
0.0
 11
943690.786
 21
7237445.474
 31
0.0
  0
LINE
  8
6
  6
CONTINUOUS
 62
     7
  5
2F
 10
943710.525
 20
7238078.664
 30
0.0
 11
943701.639
 21
7237803.557
 31
0.0
  0
LINE
  8
6
  6
CONTINUOUS
 62
     7
  5
30
 10
943719.993
 20
7238371.76
 30
0.0
 11
943711.171
 21
7238098.653
 31
0.0
  0
LINE
  8
6
  6
CONTINUOUS
 62
     7
  5
31
 10
943742.386
 20
7239042.887
 30
0.0
 11
943733.015
 21
7238752.789
 31
0.0
  0
LINE
  8
6
  6
CONTINUOUS
 62
     7
  5
32
 10
943731.72
 20
7238734.821
 30
0.0
 11
943722.898
 21
7238461.714
 31
0.0
  0
LINE
  8
6
  6
CONTINUOUS
 62
     7
  5
33
 10
943629.914
 20
7236490.187
 30
0.0
 11
941621.462
 21
7236555.064
 31
0.0
  0
LINE
  8
7
  6
CONTINUOUS
 62
     7
  5
35
 10
942487.476
 20
7241724.712
 30
0.0
 11
942316.839
 21
7236502.499
 31
0.0
  0
LINE
  8
6
  6
CONTINUOUS
 62
     7
  5
36
 10
946301.675
 20
7238669.817
 30
0.0
 11
943733.015
 21
7238752.789
 31
0.0
  0
ARC
  8
6
  6
CONTINUOUS
 62
     7
  5
37
 10
943737.890766
 20
7238461.229397
 30
0.0
 40
15.0
 50
178.1499
 51
268.1499
210
0.0
220
0.0
230
1.0
  0
ARC
  8
6
  6
CONTINUOUS
 62
     7
  5
38
 10
943734.98514
 20
7238371.276313
 30
0.0
 40
15.0
 50
88.1499
 51
178.1499
210
0.0
220
0.0
230
1.0
  0
ARC
  8
6
  6
CONTINUOUS
 62
     7
  5
39
 10
943716.631274
 20
7237803.072665
 30
0.0
 40
15.0
 50
178.1499
 51
268.1499
210
0.0
220
0.0
230
1.0
  0
ARC
  8
6
  6
CONTINUOUS
 62
     7
  5
3A
 10
943714.568415
 20
7237717.094444
 30
0.0
 40
15.0
 50
88.1499
 51
178.1499
210
0.0
220
0.0
230
1.0
  0
LINE
  8
6
  6
CONTINUOUS
 62
     7
  5
3B
 10
943690.044
 20
7237422.483
 30
0.0
 11
943681.158
 21
7237147.376
 31
0.0
  0
LINE
  8
7
  6
CONTINUOUS
 62
     7
  5
3C
 10
943838.717
 20
7237069.249
 30
0.0
 11
943829.347
 21
7236779.15
 31
0.0
  0
ARC
  8
6
  6
CONTINUOUS
 62
     7
  5
3D
 10
943696.149979
 20
7237146.891839
 30
0.0
 40
15.0
 50
178.1499
 51
268.1499
210
0.0
220
0.0
230
1.0
  0
ARC
  8
6
  6
CONTINUOUS
 62
     7
  5
3E
 10
943693.308924
 20
7237058.937712
 30
0.0
 40
15.0
 50
88.1499
 51
178.1499
210
0.0
220
0.0
230
1.0
  0
LINE
  8
6
  6
CONTINUOUS
 62
     7
  5
3F
 10
943678.317
 20
7237059.422
 30
0.0
 11
943669.43
 21
7236784.315
 31
0.0
  0
LINE
  8
7
  6
CONTINUOUS
 62
     7
  5
40
 10
943828.701
 20
7236759.161
 30
0.0
 11
943819.814
 21
7236484.054
 31
0.0
  0
LINE
  8
7
  6
CONTINUOUS
 62
     7
  5
41
 10
943902.302
 20
7239037.722
 30
0.0
 11
943892.932
 21
7238747.623
 31
0.0
  0
LINE
  8
7
  6
CONTINUOUS
 62
     7
  5
42
 10
943891.637
 20
7238729.656
 30
0.0
 11
943882.331
 21
7238441.556
 31
0.0
  0
LINE
  8
7
  6
CONTINUOUS
 62
     7
  5
43
 10
943880.394
 20
7238381.587
 30
0.0
 11
943871.088
 21
7238093.488
 31
0.0
  0
LINE
  8
7
  6
CONTINUOUS
 62
     7
  5
44
 10
943870.442
 20
7238073.498
 30
0.0
 11
943861.071
 21
7237783.4
 31
0.0
  0
LINE
  8
7
  6
CONTINUOUS
 62
     7
  5
45
 10
943859.977
 20
7237727.405
 30
0.0
 11
943850.607
 21
7237437.307
 31
0.0
  0
LINE
  8
7
  6
CONTINUOUS
 62
     7
  5
46
 10
943849.961
 20
7237417.317
 30
0.0
 11
943840.59
 21
7237127.219
 31
0.0
  0
LINE
  8
7
  6
CONTINUOUS
 62
     7
  5
47
 10
943985.62
 20
7236754.091
 30
0.0
 11
943976.733
 21
7236478.985
 31
0.0
  0
LINE
  8
7
  6
CONTINUOUS
 62
     7
  5
48
 10
944142.537
 20
7236749.023
 30
0.0
 11
944133.651
 21
7236473.917
 31
0.0
  0
LINE
  8
7
  6
CONTINUOUS
 62
     7
  5
49
 10
944299.456
 20
7236743.954
 30
0.0
 11
944290.57
 21
7236468.847
 31
0.0
  0
LINE
  8
7
  6
CONTINUOUS
 62
     7
  5
4A
 10
944456.374
 20
7236738.886
 30
0.0
 11
944447.488
 21
7236463.779
 31
0.0
  0
LINE
  8
7
  6
CONTINUOUS
 62
     7
  5
4B
 10
944613.292
 20
7236733.817
 30
0.0
 11
944604.405
 21
7236458.711
 31
0.0
  0
LINE
  8
7
  6
CONTINUOUS
 62
     7
  5
4C
 10
944770.211
 20
7236728.748
 30
0.0
 11
944761.324
 21
7236453.641
 31
0.0
  0
LINE
  8
6
  6
CONTINUOUS
 62
     7
  5
4D
 10
946310.375
 20
7238651.527
 30
0.0
 11
945049.033
 21
7238692.27
 31
0.0
  0
LINE
  8
6
  6
CONTINUOUS
 62
     7
  5
4E
 10
944993.062
 20
7238694.078
 30
0.0
 11
943731.72
 21
7238734.821
 31
0.0
  0
LINE
  8
6
  6
CONTINUOUS
 62
     7
  5
4F
 10
946286.077
 20
7238363.911
 30
0.0
 11
945054.719
 21
7238403.686
 31
0.0
  0
LINE
  8
6
  6
CONTINUOUS
 62
     7
  5
50
 10
944968.765
 20
7238406.463
 30
0.0
 11
943737.406
 21
7238446.237
 31
0.0
  0
LINE
  8
6
  6
CONTINUOUS
 62
     7
  5
51
 10
946284.14
 20
7238303.942
 30
0.0
 11
945052.783
 21
7238343.718
 31
0.0
  0
LINE
  8
6
  6
CONTINUOUS
 62
     7
  5
52
 10
944966.827
 20
7238346.494
 30
0.0
 11
943735.469
 21
7238386.268
 31
0.0
  0
LINE
  8
6
  6
CONTINUOUS
 62
     7
  5
53
 10
946289.18
 20
7237995.369
 30
0.0
 11
945027.839
 21
7238036.112
 31
0.0
  0
LINE
  8
6
  6
CONTINUOUS
 62
     7
  5
54
 10
944971.867
 20
7238037.92
 30
0.0
 11
943710.525
 21
7238078.664
 31
0.0
  0
LINE
  8
6
  6
CONTINUOUS
 62
     7
  5
55
 10
946289.826
 20
7238015.358
 30
0.0
 11
945028.484
 21
7238056.102
 31
0.0
  0
LINE
  8
6
  6
CONTINUOUS
 62
     7
  5
56
 10
944972.513
 20
7238057.91
 30
0.0
 11
943711.171
 21
7238098.653
 31
0.0
  0
LINE
  8
6
  6
CONTINUOUS
 62
     7
  5
57
 10
946264.818
 20
7237705.755
 30
0.0
 11
945033.46
 21
7237745.529
 31
0.0
  0
LINE
  8
6
  6
CONTINUOUS
 62
     7
  5
58
 10
944947.504
 20
7237748.306
 30
0.0
 11
943716.147
 21
7237788.081
 31
0.0
  0
LINE
  8
6
  6
CONTINUOUS
 62
     7
  5
59
 10
946263.723
 20
7237649.76
 30
0.0
 11
945032.366
 21
7237689.536
 31
0.0
  0
LINE
  8
6
  6
CONTINUOUS
 62
     7
  5
5A
 10
944946.411
 20
7237692.312
 30
0.0
 11
943715.052
 21
7237732.086
 31
0.0
  0
LINE
  8
6
  6
CONTINUOUS
 62
     7
  5
5B
 10
946268.699
 20
7237339.188
 30
0.0
 11
945007.357
 21
7237379.931
 31
0.0
  0
LINE
  8
6
  6
CONTINUOUS
 62
     7
  5
5C
 10
944951.386
 20
7237381.739
 30
0.0
 11
943690.044
 21
7237422.483
 31
0.0
  0
LINE
  8
6
  6
CONTINUOUS
 62
     7
  5
5D
 10
946269.345
 20
7237359.177
 30
0.0
 11
945008.003
 21
7237399.921
 31
0.0
  0
LINE
  8
6
  6
CONTINUOUS
 62
     7
  5
5E
 10
944952.032
 20
7237401.729
 30
0.0
 11
943690.69
 21
7237442.473
 31
0.0
  0
LINE
  8
6
  6
CONTINUOUS
 62
     7
  5
5F
 10
946244.336
 20
7237049.573
 30
0.0
 11
945012.979
 21
7237089.348
 31
0.0
  0
LINE
  8
6
  6
CONTINUOUS
 62
     7
  5
60
 10
944927.023
 20
7237092.125
 30
0.0
 11
943695.666
 21
7237131.9
 31
0.0
  0
LINE
  8
6
  6
CONTINUOUS
 62
     7
  5
61
 10
946242.464
 20
7236991.604
 30
0.0
 11
945011.106
 21
7237031.378
 31
0.0
  0
LINE
  8
6
  6
CONTINUOUS
 62
     7
  5
62
 10
944925.151
 20
7237034.155
 30
0.0
 11
943693.793
 21
7237073.93
 31
0.0
  0
LINE
  8
6
  6
CONTINUOUS
 62
     7
  5
63
 10
946247.44
 20
7236681.031
 30
0.0
 11
944986.098
 21
7236721.775
 31
0.0
  0
LINE
  8
6
  6
CONTINUOUS
 62
     7
  5
64
 10
944930.127
 20
7236723.583
 30
0.0
 11
943668.785
 21
7236764.326
 31
0.0
  0
LINE
  8
6
  6
CONTINUOUS
 62
     7
  5
65
 10
946248.085
 20
7236701.021
 30
0.0
 11
944986.744
 21
7236741.765
 31
0.0
  0
LINE
  8
6
  6
CONTINUOUS
 62
     7
  5
66
 10
944930.772
 20
7236743.572
 30
0.0
 11
943669.43
 21
7236784.315
 31
0.0
  0
LINE
  8
6
  6
CONTINUOUS
 62
     7
  5
67
 10
944993.062
 20
7238694.078
 30
0.0
 11
944984.241
 21
7238420.97
 31
0.0
  0
LINE
  8
6
  6
CONTINUOUS
 62
     7
  5
68
 10
944981.335
 20
7238331.018
 30
0.0
 11
944972.513
 21
7238057.91
 31
0.0
  0
LINE
  8
6
  6
CONTINUOUS
 62
     7
  5
69
 10
944971.867
 20
7238037.92
 30
0.0
 11
944962.981
 21
7237762.814
 31
0.0
  0
LINE
  8
6
  6
CONTINUOUS
 62
     7
  5
6A
 10
944960.918
 20
7237676.836
 30
0.0
 11
944952.032
 21
7237401.729
 31
0.0
  0
LINE
  8
6
  6
CONTINUOUS
 62
     7
  5
6B
 10
944951.386
 20
7237381.739
 30
0.0
 11
944942.499
 21
7237106.633
 31
0.0
  0
LINE
  8
6
  6
CONTINUOUS
 62
     7
  5
6C
 10
944939.659
 20
7237018.678
 30
0.0
 11
944930.772
 21
7236743.572
 31
0.0
  0
LINE
  8
6
  6
CONTINUOUS
 62
     7
  5
6D
 10
944930.127
 20
7236723.583
 30
0.0
 11
944921.725
 21
7236463.468
 31
0.0
  0
LINE
  8
6
  6
CONTINUOUS
 62
     7
  5
6E
 10
945049.033
 20
7238692.27
 30
0.0
 11
945040.211
 21
7238419.163
 31
0.0
  0
LINE
  8
6
  6
CONTINUOUS
 62
     7
  5
6F
 10
945037.306
 20
7238329.21
 30
0.0
 11
945028.484
 21
7238056.102
 31
0.0
  0
LINE
  8
6
  6
CONTINUOUS
 62
     7
  5
70
 10
945027.839
 20
7238036.112
 30
0.0
 11
945018.952
 21
7237761.005
 31
0.0
  0
LINE
  8
6
  6
CONTINUOUS
 62
     7
  5
71
 10
945016.889
 20
7237675.028
 30
0.0
 11
945008.003
 21
7237399.921
 31
0.0
  0
LINE
  8
6
  6
CONTINUOUS
 62
     7
  5
72
 10
945007.357
 20
7237379.931
 30
0.0
 11
944998.471
 21
7237104.825
 31
0.0
  0
LINE
  8
6
  6
CONTINUOUS
 62
     7
  5
73
 10
944995.63
 20
7237016.871
 30
0.0
 11
944986.744
 21
7236741.765
 31
0.0
  0
LINE
  8
6
  6
CONTINUOUS
 62
     7
  5
74
 10
944986.098
 20
7236721.775
 30
0.0
 11
944977.695
 21
7236461.66
 31
0.0
  0
LINE
  8
6
  6
CONTINUOUS
 62
     7
  5
75
 10
946223.562
 20
7236406.409
 30
0.0
 11
944992.203
 21
7236446.184
 31
0.0
  0
LINE
  8
6
  6
CONTINUOUS
 62
     7
  5
76
 10
944906.249
 20
7236448.96
 30
0.0
 11
943674.89
 21
7236488.735
 31
0.0
  0
ARC
  8
6
  6
CONTINUOUS
 62
     7
  5
77
 10
944906.732532
 20
7236463.952505
 30
0.0
 40
15.0
 50
268.1499
 51
358.1499
210
0.0
220
0.0
230
1.0
  0
ARC
  8
6
  6
CONTINUOUS
 62
     7
  5
78
 10
944992.687702
 20
7236461.176019
 30
0.0
 40
15.0
 50
178.1499
 51
268.1499
210
0.0
220
0.0
230
1.0
  0
ARC
  8
6
  6
CONTINUOUS
 62
     7
  5
79
 10
944924.666697
 20
7237019.16293
 30
0.0
 40
15.0
 50
358.1499
 51
88.1499
210
0.0
220
0.0
230
1.0
  0
ARC
  8
6
  6
CONTINUOUS
 62
     7
  5
7A
 10
945010.621867
 20
7237016.386444
 30
0.0
 40
15.0
 50
88.1499
 51
178.1499
210
0.0
220
0.0
230
1.0
  0
ARC
  8
6
  6
CONTINUOUS
 62
     7
  5
7B
 10
945013.462922
 20
7237104.34057
 30
0.0
 40
15.0
 50
178.1499
 51
268.1499
210
0.0
220
0.0
230
1.0
  0
ARC
  8
6
  6
CONTINUOUS
 62
     7
  5
7C
 10
944927.507753
 20
7237107.117057
 30
0.0
 40
15.0
 50
268.1499
 51
358.1499
210
0.0
220
0.0
230
1.0
  0
ARC
  8
6
  6
CONTINUOUS
 62
     7
  5
7D
 10
944945.926189
 20
7237677.319662
 30
0.0
 40
15.0
 50
358.1499
 51
88.1499
210
0.0
220
0.0
230
1.0
  0
ARC
  8
6
  6
CONTINUOUS
 62
     7
  5
7E
 10
945031.881358
 20
7237674.543176
 30
0.0
 40
15.0
 50
88.1499
 51
178.1499
210
0.0
220
0.0
230
1.0
  0
ARC
  8
6
  6
CONTINUOUS
 62
     7
  5
7F
 10
945033.944217
 20
7237760.521396
 30
0.0
 40
15.0
 50
178.1499
 51
268.1499
210
0.0
220
0.0
230
1.0
  0
ARC
  8
6
  6
CONTINUOUS
 62
     7
  5
80
 10
944947.989048
 20
7237763.297883
 30
0.0
 40
15.0
 50
268.1499
 51
358.1499
210
0.0
220
0.0
230
1.0
  0
ARC
  8
6
  6
CONTINUOUS
 62
     7
  5
81
 10
944966.342914
 20
7238331.501531
 30
0.0
 40
15.0
 50
358.1499
 51
88.1499
210
0.0
220
0.0
230
1.0
  0
ARC
  8
6
  6
CONTINUOUS
 62
     7
  5
82
 10
945052.298083
 20
7238328.725044
 30
0.0
 40
15.0
 50
88.1499
 51
178.1499
210
0.0
220
0.0
230
1.0
  0
ARC
  8
6
  6
CONTINUOUS
 62
     7
  5
83
 10
945055.203709
 20
7238418.678129
 30
0.0
 40
15.0
 50
178.1499
 51
268.1499
210
0.0
220
0.0
230
1.0
  0
ARC
  8
6
  6
CONTINUOUS
 62
     7
  5
84
 10
944969.248539
 20
7238421.454615
 30
0.0
 40
15.0
 50
268.1499
 51
358.1499
210
0.0
220
0.0
230
1.0
  0
LINE
  8
7
  6
CONTINUOUS
 62
     7
  5
85
 10
944048.555
 20
7238724.587
 30
0.0
 11
944039.249
 21
7238436.488
 31
0.0
  0
LINE
  8
7
  6
CONTINUOUS
 62
     7
  5
86
 10
944205.473
 20
7238719.518
 30
0.0
 11
944196.167
 21
7238431.418
 31
0.0
  0
LINE
  8
7
  6
CONTINUOUS
 62
     7
  5
87
 10
944362.392
 20
7238714.45
 30
0.0
 11
944353.085
 21
7238426.35
 31
0.0
  0
LINE
  8
7
  6
CONTINUOUS
 62
     7
  5
88
 10
944519.31
 20
7238709.381
 30
0.0
 11
944510.004
 21
7238421.281
 31
0.0
  0
LINE
  8
7
  6
CONTINUOUS
 62
     7
  5
89
 10
944676.227
 20
7238704.312
 30
0.0
 11
944666.922
 21
7238416.212
 31
0.0
  0
LINE
  8
7
  6
CONTINUOUS
 62
     7
  5
8A
 10
944833.146
 20
7238699.244
 30
0.0
 11
944823.839
 21
7238411.144
 31
0.0
  0
LINE
  8
7
  6
CONTINUOUS
 62
     7
  5
8B
 10
944037.312
 20
7238376.519
 30
0.0
 11
944028.006
 21
7238088.419
 31
0.0
  0
LINE
  8
7
  6
CONTINUOUS
 62
     7
  5
8C
 10
944194.23
 20
7238371.449
 30
0.0
 11
944184.924
 21
7238083.35
 31
0.0
  0
LINE
  8
7
  6
CONTINUOUS
 62
     7
  5
8D
 10
944351.148
 20
7238366.381
 30
0.0
 11
944341.842
 21
7238078.282
 31
0.0
  0
LINE
  8
7
  6
CONTINUOUS
 62
     7
  5
8E
 10
944508.067
 20
7238361.313
 30
0.0
 11
944498.76
 21
7238073.212
 31
0.0
  0
LINE
  8
7
  6
CONTINUOUS
 62
     7
  5
8F
 10
944664.985
 20
7238356.244
 30
0.0
 11
944655.679
 21
7238068.144
 31
0.0
  0
LINE
  8
7
  6
CONTINUOUS
 62
     7
  5
90
 10
944821.903
 20
7238351.175
 30
0.0
 11
944812.597
 21
7238063.076
 31
0.0
  0
LINE
  8
7
  6
CONTINUOUS
 62
     7
  5
91
 10
944027.36
 20
7238068.43
 30
0.0
 11
944017.989
 21
7237778.33
 31
0.0
  0
LINE
  8
7
  6
CONTINUOUS
 62
     7
  5
92
 10
944184.278
 20
7238063.36
 30
0.0
 11
944174.908
 21
7237773.262
 31
0.0
  0
LINE
  8
7
  6
CONTINUOUS
 62
     7
  5
93
 10
944341.197
 20
7238058.292
 30
0.0
 11
944331.826
 21
7237768.193
 31
0.0
  0
LINE
  8
7
  6
CONTINUOUS
 62
     7
  5
94
 10
944498.115
 20
7238053.223
 30
0.0
 11
944488.745
 21
7237763.124
 31
0.0
  0
LINE
  8
7
  6
CONTINUOUS
 62
     7
  5
95
 10
944655.032
 20
7238048.154
 30
0.0
 11
944645.662
 21
7237758.056
 31
0.0
  0
LINE
  8
7
  6
CONTINUOUS
 62
     7
  5
96
 10
944811.951
 20
7238043.086
 30
0.0
 11
944802.58
 21
7237752.987
 31
0.0
  0
LINE
  8
7
  6
CONTINUOUS
 62
     7
  5
97
 10
944016.896
 20
7237722.337
 30
0.0
 11
944007.524
 21
7237432.237
 31
0.0
  0
LINE
  8
7
  6
CONTINUOUS
 62
     7
  5
98
 10
944173.813
 20
7237717.267
 30
0.0
 11
944164.443
 21
7237427.169
 31
0.0
  0
LINE
  8
7
  6
CONTINUOUS
 62
     7
  5
99
 10
944330.731
 20
7237712.199
 30
0.0
 11
944321.361
 21
7237422.101
 31
0.0
  0
LINE
  8
7
  6
CONTINUOUS
 62
     7
  5
9A
 10
944487.65
 20
7237707.131
 30
0.0
 11
944478.279
 21
7237417.032
 31
0.0
  0
LINE
  8
7
  6
CONTINUOUS
 62
     7
  5
9B
 10
944644.568
 20
7237702.062
 30
0.0
 11
944635.198
 21
7237411.963
 31
0.0
  0
LINE
  8
7
  6
CONTINUOUS
 62
     7
  5
9C
 10
944801.486
 20
7237696.993
 30
0.0
 11
944792.116
 21
7237406.895
 31
0.0
  0
LINE
  8
7
  6
CONTINUOUS
 62
     7
  5
9D
 10
944006.879
 20
7237412.249
 30
0.0
 11
943997.509
 21
7237122.15
 31
0.0
  0
LINE
  8
7
  6
CONTINUOUS
 62
     7
  5
9E
 10
944163.797
 20
7237407.18
 30
0.0
 11
944154.427
 21
7237117.081
 31
0.0
  0
LINE
  8
7
  6
CONTINUOUS
 62
     7
  5
9F
 10
944320.715
 20
7237402.111
 30
0.0
 11
944311.344
 21
7237112.012
 31
0.0
  0
LINE
  8
7
  6
CONTINUOUS
 62
     7
  5
A0
 10
944477.633
 20
7237397.042
 30
0.0
 11
944468.263
 21
7237106.944
 31
0.0
  0
LINE
  8
7
  6
CONTINUOUS
 62
     7
  5
A1
 10
944634.551
 20
7237391.974
 30
0.0
 11
944625.181
 21
7237101.875
 31
0.0
  0
LINE
  8
7
  6
CONTINUOUS
 62
     7
  5
A2
 10
944791.47
 20
7237386.905
 30
0.0
 11
944782.099
 21
7237096.806
 31
0.0
  0
LINE
  8
7
  6
CONTINUOUS
 62
     7
  5
A3
 10
943995.635
 20
7237064.179
 30
0.0
 11
943986.265
 21
7236774.081
 31
0.0
  0
LINE
  8
7
  6
CONTINUOUS
 62
     7
  5
A4
 10
944152.554
 20
7237059.111
 30
0.0
 11
944143.183
 21
7236769.013
 31
0.0
  0
LINE
  8
7
  6
CONTINUOUS
 62
     7
  5
A5
 10
944309.472
 20
7237054.043
 30
0.0
 11
944300.102
 21
7236763.943
 31
0.0
  0
LINE
  8
7
  6
CONTINUOUS
 62
     7
  5
A6
 10
944466.39
 20
7237048.973
 30
0.0
 11
944457.02
 21
7236758.875
 31
0.0
  0
LINE
  8
7
  6
CONTINUOUS
 62
     7
  5
A7
 10
944623.309
 20
7237043.905
 30
0.0
 11
944613.937
 21
7236753.807
 31
0.0
  0
LINE
  8
7
  6
CONTINUOUS
 62
     7
  5
A8
 10
944780.226
 20
7237038.837
 30
0.0
 11
944770.856
 21
7236748.738
 31
0.0
  0
LINE
  8
6
  6
CONTINUOUS
 62
     7
  5
A9
 10
946301.553
 20
7238378.419
 30
0.0
 11
946310.375
 21
7238651.527
 31
0.0
  0
LINE
  8
6
  6
CONTINUOUS
 62
     7
  5
AA
 10
946289.826
 20
7238015.358
 30
0.0
 11
946298.648
 21
7238288.466
 31
0.0
  0
LINE
  8
6
  6
CONTINUOUS
 62
     7
  5
AB
 10
946280.294
 20
7237720.262
 30
0.0
 11
946289.18
 21
7237995.369
 31
0.0
  0
LINE
  8
6
  6
CONTINUOUS
 62
     7
  5
AC
 10
946269.345
 20
7237359.177
 30
0.0
 11
946278.231
 21
7237634.284
 31
0.0
  0
LINE
  8
6
  6
CONTINUOUS
 62
     7
  5
AD
 10
946259.813
 20
7237064.081
 30
0.0
 11
946268.699
 21
7237339.188
 31
0.0
  0
LINE
  8
6
  6
CONTINUOUS
 62
     7
  5
AE
 10
946239.038
 20
7236420.916
 30
0.0
 11
946247.44
 21
7236681.031
 31
0.0
  0
LINE
  8
6
  6
CONTINUOUS
 62
     7
  5
AF
 10
946248.085
 20
7236701.021
 30
0.0
 11
946256.972
 21
7236976.128
 31
0.0
  0
LINE
  8
7
  6
CONTINUOUS
 62
     7
  5
B0
 10
946078.636
 20
7236411.091
 30
0.0
 11
946087.523
 21
7236686.197
 31
0.0
  0
LINE
  8
7
  6
CONTINUOUS
 62
     7
  5
B1
 10
946088.168
 20
7236706.187
 30
0.0
 11
946097.54
 21
7236996.285
 31
0.0
  0
LINE
  8
7
  6
CONTINUOUS
 62
     7
  5
B2
 10
946141.153
 20
7238368.592
 30
0.0
 11
946150.459
 21
7238656.692
 31
0.0
  0
LINE
  8
7
  6
CONTINUOUS
 62
     7
  5
B3
 10
946129.91
 20
7238020.524
 30
0.0
 11
946139.216
 21
7238308.624
 31
0.0
  0
LINE
  8
7
  6
CONTINUOUS
 62
     7
  5
B4
 10
946119.893
 20
7237710.436
 30
0.0
 11
946129.264
 21
7238000.534
 31
0.0
  0
LINE
  8
7
  6
CONTINUOUS
 62
     7
  5
B5
 10
946099.412
 20
7237054.255
 30
0.0
 11
946108.783
 21
7237344.354
 31
0.0
  0
LINE
  8
7
  6
CONTINUOUS
 62
     7
  5
B6
 10
946109.429
 20
7237364.343
 30
0.0
 11
946118.799
 21
7237654.442
 31
0.0
  0
ARC
  8
6
  6
CONTINUOUS
 62
     7
  5
B7
 10
946286.561482
 20
7238378.903347
 30
0.0
 40
15.0
 50
268.1499
 51
358.1499
210
0.0
220
0.0
230
1.0
  0
ARC
  8
6
  6
CONTINUOUS
 62
     7
  5
B8
 10
946283.655857
 20
7238288.950263
 30
0.0
 40
15.0
 50
358.1499
 51
88.1499
210
0.0
220
0.0
230
1.0
  0
ARC
  8
6
  6
CONTINUOUS
 62
     7
  5
B9
 10
946265.301991
 20
7237720.746615
 30
0.0
 40
15.0
 50
268.1499
 51
358.1499
210
0.0
220
0.0
230
1.0
  0
ARC
  8
6
  6
CONTINUOUS
 62
     7
  5
BA
 10
946263.239132
 20
7237634.768394
 30
0.0
 40
15.0
 50
358.1499
 51
88.1499
210
0.0
220
0.0
230
1.0
  0
ARC
  8
6
  6
CONTINUOUS
 62
     7
  5
BB
 10
946244.820696
 20
7237064.565789
 30
0.0
 40
15.0
 50
268.1499
 51
358.1499
210
0.0
220
0.0
230
1.0
  0
ARC
  8
6
  6
CONTINUOUS
 62
     7
  5
BC
 10
946241.97964
 20
7236976.611662
 30
0.0
 40
15.0
 50
358.1499
 51
88.1499
210
0.0
220
0.0
230
1.0
  0
LINE
  8
7
  6
CONTINUOUS
 62
     7
  5
BD
 10
945984.235
 20
7238373.661
 30
0.0
 11
945993.54
 21
7238661.761
 31
0.0
  0
LINE
  8
7
  6
CONTINUOUS
 62
     7
  5
BE
 10
945827.317
 20
7238378.73
 30
0.0
 11
945836.623
 21
7238666.83
 31
0.0
  0
LINE
  8
7
  6
CONTINUOUS
 62
     7
  5
BF
 10
945670.398
 20
7238383.798
 30
0.0
 11
945679.705
 21
7238671.898
 31
0.0
  0
LINE
  8
7
  6
CONTINUOUS
 62
     7
  5
C0
 10
945513.48
 20
7238388.868
 30
0.0
 11
945522.786
 21
7238676.967
 31
0.0
  0
LINE
  8
7
  6
CONTINUOUS
 62
     7
  5
C1
 10
945356.562
 20
7238393.936
 30
0.0
 11
945365.868
 21
7238682.036
 31
0.0
  0
LINE
  8
7
  6
CONTINUOUS
 62
     7
  5
C2
 10
945199.644
 20
7238399.004
 30
0.0
 11
945208.95
 21
7238687.105
 31
0.0
  0
LINE
  8
7
  6
CONTINUOUS
 62
     7
  5
C3
 10
945972.991
 20
7238025.592
 30
0.0
 11
945982.298
 21
7238313.693
 31
0.0
  0
LINE
  8
7
  6
CONTINUOUS
 62
     7
  5
C4
 10
945816.073
 20
7238030.662
 30
0.0
 11
945825.379
 21
7238318.761
 31
0.0
  0
LINE
  8
7
  6
CONTINUOUS
 62
     7
  5
C5
 10
945659.156
 20
7238035.73
 30
0.0
 11
945668.461
 21
7238323.829
 31
0.0
  0
LINE
  8
7
  6
CONTINUOUS
 62
     7
  5
C6
 10
945502.237
 20
7238040.799
 30
0.0
 11
945511.543
 21
7238328.899
 31
0.0
  0
LINE
  8
7
  6
CONTINUOUS
 62
     7
  5
C7
 10
945345.319
 20
7238045.868
 30
0.0
 11
945354.625
 21
7238333.967
 31
0.0
  0
LINE
  8
7
  6
CONTINUOUS
 62
     7
  5
C8
 10
945188.401
 20
7238050.936
 30
0.0
 11
945197.707
 21
7238339.036
 31
0.0
  0
LINE
  8
7
  6
CONTINUOUS
 62
     7
  5
C9
 10
945962.975
 20
7237715.504
 30
0.0
 11
945972.346
 21
7238005.603
 31
0.0
  0
LINE
  8
7
  6
CONTINUOUS
 62
     7
  5
CA
 10
945806.057
 20
7237720.573
 30
0.0
 11
945815.428
 21
7238010.672
 31
0.0
  0
LINE
  8
7
  6
CONTINUOUS
 62
     7
  5
CB
 10
945649.139
 20
7237725.642
 30
0.0
 11
945658.51
 21
7238015.74
 31
0.0
  0
LINE
  8
7
  6
CONTINUOUS
 62
     7
  5
CC
 10
945492.221
 20
7237730.71
 30
0.0
 11
945501.591
 21
7238020.81
 31
0.0
  0
LINE
  8
7
  6
CONTINUOUS
 62
     7
  5
CD
 10
945335.302
 20
7237735.78
 30
0.0
 11
945344.673
 21
7238025.878
 31
0.0
  0
LINE
  8
7
  6
CONTINUOUS
 62
     7
  5
CE
 10
945178.384
 20
7237740.848
 30
0.0
 11
945187.755
 21
7238030.946
 31
0.0
  0
LINE
  8
7
  6
CONTINUOUS
 62
     7
  5
CF
 10
945952.51
 20
7237369.412
 30
0.0
 11
945961.881
 21
7237659.511
 31
0.0
  0
LINE
  8
7
  6
CONTINUOUS
 62
     7
  5
D0
 10
945795.592
 20
7237374.481
 30
0.0
 11
945804.963
 21
7237664.579
 31
0.0
  0
LINE
  8
7
  6
CONTINUOUS
 62
     7
  5
D1
 10
945638.674
 20
7237379.549
 30
0.0
 11
945648.044
 21
7237669.648
 31
0.0
  0
LINE
  8
7
  6
CONTINUOUS
 62
     7
  5
D2
 10
945481.755
 20
7237384.617
 30
0.0
 11
945491.126
 21
7237674.717
 31
0.0
  0
LINE
  8
7
  6
CONTINUOUS
 62
     7
  5
D3
 10
945324.838
 20
7237389.687
 30
0.0
 11
945334.209
 21
7237679.785
 31
0.0
  0
LINE
  8
7
  6
CONTINUOUS
 62
     7
  5
D4
 10
945167.92
 20
7237394.755
 30
0.0
 11
945177.29
 21
7237684.854
 31
0.0
  0
LINE
  8
7
  6
CONTINUOUS
 62
     7
  5
D5
 10
945942.494
 20
7237059.324
 30
0.0
 11
945951.864
 21
7237349.422
 31
0.0
  0
LINE
  8
7
  6
CONTINUOUS
 62
     7
  5
D6
 10
945785.575
 20
7237064.392
 30
0.0
 11
945794.946
 21
7237354.491
 31
0.0
  0
LINE
  8
7
  6
CONTINUOUS
 62
     7
  5
D7
 10
945628.658
 20
7237069.461
 30
0.0
 11
945638.029
 21
7237359.56
 31
0.0
  0
LINE
  8
7
  6
CONTINUOUS
 62
     7
  5
D8
 10
945471.74
 20
7237074.53
 30
0.0
 11
945481.11
 21
7237364.629
 31
0.0
  0
LINE
  8
7
  6
CONTINUOUS
 62
     7
  5
D9
 10
945314.821
 20
7237079.599
 30
0.0
 11
945324.192
 21
7237369.697
 31
0.0
  0
LINE
  8
7
  6
CONTINUOUS
 62
     7
  5
DA
 10
945157.903
 20
7237084.667
 30
0.0
 11
945167.274
 21
7237374.765
 31
0.0
  0
LINE
  8
7
  6
CONTINUOUS
 62
     7
  5
DB
 10
945931.251
 20
7236711.255
 30
0.0
 11
945940.622
 21
7237001.354
 31
0.0
  0
LINE
  8
7
  6
CONTINUOUS
 62
     7
  5
DC
 10
945774.333
 20
7236716.323
 30
0.0
 11
945783.703
 21
7237006.423
 31
0.0
  0
LINE
  8
7
  6
CONTINUOUS
 62
     7
  5
DD
 10
945617.414
 20
7236721.393
 30
0.0
 11
945626.785
 21
7237011.491
 31
0.0
  0
LINE
  8
7
  6
CONTINUOUS
 62
     7
  5
DE
 10
945460.496
 20
7236726.461
 30
0.0
 11
945469.867
 21
7237016.559
 31
0.0
  0
LINE
  8
7
  6
CONTINUOUS
 62
     7
  5
DF
 10
945303.578
 20
7236731.53
 30
0.0
 11
945312.948
 21
7237021.629
 31
0.0
  0
LINE
  8
7
  6
CONTINUOUS
 62
     7
  5
E0
 10
945146.66
 20
7236736.599
 30
0.0
 11
945156.031
 21
7237026.697
 31
0.0
  0
LINE
  8
7
  6
CONTINUOUS
 62
     7
  5
E1
 10
945921.719
 20
7236416.159
 30
0.0
 11
945930.605
 21
7236691.266
 31
0.0
  0
LINE
  8
7
  6
CONTINUOUS
 62
     7
  5
E2
 10
945764.801
 20
7236421.227
 30
0.0
 11
945773.687
 21
7236696.334
 31
0.0
  0
LINE
  8
7
  6
CONTINUOUS
 62
     7
  5
E3
 10
945607.882
 20
7236426.297
 30
0.0
 11
945616.768
 21
7236701.403
 31
0.0
  0
LINE
  8
7
  6
CONTINUOUS
 62
     7
  5
E4
 10
945450.964
 20
7236431.365
 30
0.0
 11
945459.851
 21
7236706.471
 31
0.0
  0
LINE
  8
7
  6
CONTINUOUS
 62
     7
  5
E5
 10
945294.046
 20
7236436.434
 30
0.0
 11
945302.933
 21
7236711.541
 31
0.0
  0
LINE
  8
7
  6
CONTINUOUS
 62
     7
  5
E6
 10
945137.128
 20
7236441.502
 30
0.0
 11
945146.014
 21
7236716.609
 31
0.0
  0
LINE
  8
7
  6
CONTINUOUS
 62
     7
  5
E7
 10
945367.163
 20
7238700.003
 30
0.0
 11
945376.394
 21
7238985.774
 31
0.0
  0
LINE
  8
7
  6
CONTINUOUS
 62
     7
  5
E8
 10
945681.0
 20
7238689.866
 30
0.0
 11
945690.375
 21
7238980.126
 31
0.0
  0
LINE
  8
7
  6
CONTINUOUS
 62
     7
  5
E9
 10
945994.835
 20
7238679.728
 30
0.0
 11
946004.211
 21
7238969.988
 31
0.0
  0
LINE
  8
7
  6
CONTINUOUS
 62
     7
  5
EA
 10
946137.761
 20
7238675.112
 30
0.0
 11
946147.136
 21
7238965.371
 31
0.0
  0
LINE
  8
6
  6
CONTINUOUS
 62
     7
  5
EB
 10
946301.675
 20
7238669.817
 30
0.0
 11
946311.046
 21
7238959.916
 31
0.0
  0
LINE
  8
7
  6
CONTINUOUS
 62
     7
  5
EC
 10
944994.357
 20
7238712.046
 30
0.0
 11
945003.588
 21
7238997.817
 31
0.0
  0
LINE
  8
7
  6
CONTINUOUS
 62
     7
  5
ED
 10
944677.522
 20
7238722.28
 30
0.0
 11
944686.753
 21
7239008.051
 31
0.0
  0
LINE
  8
7
  6
CONTINUOUS
 62
     7
  5
EE
 10
944049.85
 20
7238742.555
 30
0.0
 11
944059.081
 21
7239028.326
 31
0.0
  0
LINE
  8
6
  6
CONTINUOUS
 62
     7
  5
EF
 10
941114.929
 20
7238646.407
 30
0.0
 11
941072.262
 21
7237325.555
 31
0.0
  0
LINE
  8
6
  6
CONTINUOUS
 62
     7
  5
F0
 10
941057.658
 20
7236536.827
 30
0.0
 11
941621.462
 21
7236555.064
 31
0.0
  0
LINE
  8
7
  6
CONTINUOUS
 62
     7
  5
F1
 10
941611.15
 20
7239230.691
 30
0.0
 11
941620.836
 21
7239530.534
 31
0.0
  0
LINE
  8
7
  6
CONTINUOUS
 62
     7
  5
F2
 10
941819.087
 20
7238921.816
 30
0.0
 11
941857.893
 21
7240123.189
 31
0.0
  0
LINE
  8
7
  6
CONTINUOUS
 62
     7
  5
F3
 10
941393.464
 20
7239237.722
 30
0.0
 11
941403.149
 21
7239537.565
 31
0.0
  0
LINE
  8
7
  6
CONTINUOUS
 62
     7
  5
F4
 10
942465.923
 20
7241065.071
 30
0.0
 11
941164.397
 21
7241107.112
 31
0.0
  0
LINE
  8
7
  6
CONTINUOUS
 62
     7
  5
F5
 10
942473.107
 20
7241284.954
 30
0.0
 11
942152.335
 21
7241295.314
 31
0.0
  0
LINE
  8
7
  6
CONTINUOUS
 62
     7
  5
F6
 10
942476.699
 20
7241394.895
 30
0.0
 11
941175.051
 21
7241436.94
 31
0.0
  0
LINE
  8
7
  6
CONTINUOUS
 62
     7
  5
F7
 10
942312.427
 20
7240708.821
 30
0.0
 11
942293.056
 21
7240109.133
 31
0.0
  0
LINE
  8
7
  6
CONTINUOUS
 62
     7
  5
F8
 10
942167.302
 20
7240713.508
 30
0.0
 11
942147.931
 21
7240113.821
 31
0.0
  0
LINE
  8
7
  6
CONTINUOUS
 62
     7
  5
F9
 10
942022.377
 20
7240718.189
 30
0.0
 11
942003.006
 21
7240118.503
 31
0.0
  0
LINE
  8
7
  6
CONTINUOUS
 62
     7
  5
FA
 10
941877.253
 20
7240722.877
 30
0.0
 11
941857.882
 21
7240123.19
 31
0.0
  0
LINE
  8
7
  6
CONTINUOUS
 62
     7
  5
FB
 10
942454.132
 20
7240704.243
 30
0.0
 11
941152.742
 21
7240746.28
 31
0.0
  0
LINE
  8
7
  6
CONTINUOUS
 62
     7
  5
FC
 10
942302.741
 20
7240408.976
 30
0.0
 11
941143.057
 21
7240446.437
 31
0.0
  0
LINE
  8
7
  6
CONTINUOUS
 62
     7
  5
FD
 10
942434.537
 20
7240104.563
 30
0.0
 11
941133.371
 21
7240146.593
 31
0.0
  0
LINE
  8
7
  6
CONTINUOUS
 62
     7
  5
FE
 10
942212.162
 20
7239811.589
 30
0.0
 11
941123.686
 21
7239846.749
 31
0.0
  0
LINE
  8
7
  6
CONTINUOUS
 62
     7
  5
FF
 10
942413.822
 20
7239504.919
 30
0.0
 11
941114.0
 21
7239546.906
 31
0.0
  0
LINE
  8
7
  6
CONTINUOUS
 62
     7
  5
100
 10
942405.145
 20
7239205.043
 30
0.0
 11
941104.314
 21
7239247.062
 31
0.0
  0
LINE
  8
7
  6
CONTINUOUS
 62
     7
  5
101
 10
941819.087
 20
7238921.816
 30
0.0
 11
941094.565
 21
7238945.22
 31
0.0
  0
LINE
  8
7
  6
CONTINUOUS
 62
     7
  5
102
 10
942385.551
 20
7238605.363
 30
0.0
 11
941084.944
 21
7238647.375
 31
0.0
  0
LINE
  8
7
  6
CONTINUOUS
 62
     7
  5
103
 10
942342.392
 20
7237284.528
 30
0.0
 11
941072.262
 21
7237325.555
 31
0.0
  0
LINE
  8
7
  6
CONTINUOUS
 62
     7
  5
104
 10
942277.055
 20
7241401.417
 30
0.0
 11
942287.832
 21
7241731.236
 31
0.0
  0
LINE
  8
7
  6
CONTINUOUS
 62
     7
  5
105
 10
942377.002
 20
7241398.152
 30
0.0
 11
942387.779
 21
7241727.97
 31
0.0
  0
LINE
  8
7
  6
CONTINUOUS
 62
     7
  5
106
 10
942155.891
 20
7241405.376
 30
0.0
 11
942166.667
 21
7241735.195
 31
0.0
  0
LINE
  8
7
  6
CONTINUOUS
 62
     7
  5
107
 10
942034.725
 20
7241409.335
 30
0.0
 11
942045.502
 21
7241739.153
 31
0.0
  0
LINE
  8
7
  6
CONTINUOUS
 62
     7
  5
108
 10
941934.779
 20
7241412.601
 30
0.0
 11
941945.555
 21
7241742.418
 31
0.0
  0
LINE
  8
7
  6
CONTINUOUS
 62
     7
  5
109
 10
941834.832
 20
7241415.866
 30
0.0
 11
941845.608
 21
7241745.684
 31
0.0
  0
LINE
  8
7
  6
CONTINUOUS
 62
     7
  5
10A
 10
942155.891
 20
7241405.376
 30
0.0
 11
942152.335
 21
7241295.314
 31
0.0
  0
LINE
  8
7
  6
CONTINUOUS
 62
     7
  5
10B
 10
941966.19
 20
7241081.4
 30
0.0
 11
941954.4
 21
7240720.572
 31
0.0
  0
LINE
  8
7
  6
CONTINUOUS
 62
     7
  5
10C
 10
941841.258
 20
7241085.482
 30
0.0
 11
941829.467
 21
7240724.655
 31
0.0
  0
LINE
  8
7
  6
CONTINUOUS
 62
     7
  5
10D
 10
941716.326
 20
7241089.565
 30
0.0
 11
941704.535
 21
7240728.738
 31
0.0
  0
LINE
  8
7
  6
CONTINUOUS
 62
     7
  5
10E
 10
941591.392
 20
7241093.647
 30
0.0
 11
941579.602
 21
7240732.82
 31
0.0
  0
LINE
  8
7
  6
CONTINUOUS
 62
     7
  5
10F
 10
941466.459
 20
7241097.73
 30
0.0
 11
941454.668
 21
7240736.903
 31
0.0
  0
LINE
  8
7
  6
CONTINUOUS
 62
     7
  5
110
 10
941587.304
 20
7240732.243
 30
0.0
 11
941567.933
 21
7240132.556
 31
0.0
  0
LINE
  8
7
  6
CONTINUOUS
 62
     7
  5
111
 10
941442.18
 20
7240736.931
 30
0.0
 11
941422.809
 21
7240137.244
 31
0.0
  0
LINE
  8
7
  6
CONTINUOUS
 62
     7
  5
112
 10
941147.899
 20
7240596.358
 30
0.0
 11
941437.338
 21
7240587.009
 31
0.0
  0
LINE
  8
7
  6
CONTINUOUS
 62
     7
  5
113
 10
941138.214
 20
7240296.515
 30
0.0
 11
941427.651
 21
7240287.166
 31
0.0
  0
LINE
  8
7
  6
CONTINUOUS
 62
     7
  5
114
 10
942221.848
 20
7240111.434
 30
0.0
 11
942212.162
 21
7239811.589
 31
0.0
  0
LINE
  8
7
  6
CONTINUOUS
 62
     7
  5
115
 10
942076.723
 20
7240116.121
 30
0.0
 11
942057.353
 21
7239516.434
 31
0.0
  0
LINE
  8
7
  6
CONTINUOUS
 62
     7
  5
116
 10
941931.599
 20
7240120.809
 30
0.0
 11
941912.229
 21
7239521.121
 31
0.0
  0
LINE
  8
7
  6
CONTINUOUS
 62
     7
  5
117
 10
941703.284
 20
7239828.027
 30
0.0
 11
941722.654
 21
7240427.715
 31
0.0
  0
LINE
  8
7
  6
CONTINUOUS
 62
     7
  5
118
 10
941558.358
 20
7239832.708
 30
0.0
 11
941568.044
 21
7240132.553
 31
0.0
  0
LINE
  8
7
  6
CONTINUOUS
 62
     7
  5
119
 10
941413.434
 20
7239837.389
 30
0.0
 11
941423.12
 21
7240137.234
 31
0.0
  0
LINE
  8
7
  6
CONTINUOUS
 62
     7
  5
11A
 10
941798.543
 20
7239524.794
 30
0.0
 11
941808.229
 21
7239824.637
 31
0.0
  0
LINE
  8
7
  6
CONTINUOUS
 62
     7
  5
11B
 10
941696.597
 20
7239528.087
 30
0.0
 11
941706.282
 21
7239827.931
 31
0.0
  0
LINE
  8
7
  6
CONTINUOUS
 62
     7
  5
11C
 10
941555.639
 20
7239562.655
 30
0.0
 11
941564.356
 21
7239832.515
 31
0.0
  0
LINE
  8
7
  6
CONTINUOUS
 62
     7
  5
11D
 10
941413.713
 20
7239567.24
 30
0.0
 11
941422.43
 21
7239837.1
 31
0.0
  0
LINE
  8
7
  6
CONTINUOUS
 62
     7
  5
11E
 10
941330.133
 20
7239690.002
 30
0.0
 11
941334.976
 21
7239839.924
 31
0.0
  0
LINE
  8
7
  6
CONTINUOUS
 62
     7
  5
11F
 10
941417.586
 20
7239687.178
 30
0.0
 11
941118.842
 21
7239696.827
 31
0.0
  0
LINE
  8
7
  6
CONTINUOUS
 62
     7
  5
120
 10
941418.277
 20
7239987.312
 30
0.0
 11
941128.529
 21
7239996.671
 31
0.0
  0
LINE
  8
7
  6
CONTINUOUS
 62
     7
  5
121
 10
941463.686
 20
7241012.882
 30
0.0
 11
941713.555
 21
7241004.811
 31
0.0
  0
LINE
  8
7
  6
CONTINUOUS
 62
     7
  5
122
 10
941457.587
 20
7240826.253
 30
0.0
 11
941707.457
 21
7240818.181
 31
0.0
  0
LINE
  8
7
  6
CONTINUOUS
 62
     7
  5
123
 10
941460.438
 20
7240913.481
 30
0.0
 11
941710.308
 21
7240905.41
 31
0.0
  0
LINE
  8
7
  6
CONTINUOUS
 62
     7
  5
124
 10
941460.809
 20
7240922.821
 30
0.0
 11
941158.759
 21
7240932.578
 31
0.0
  0
TEXT
  8
10
  6
CONTINUOUS
 62
   134
  5
127
 10
943732.773
 20
7236622.284
 30
0.0
 40
13.999
  1
1
 50
358.1499
  7
ROMANS
210
0.0
220
0.0
230
1.0
  0
TEXT
  8
10
  6
CONTINUOUS
 62
   134
  5
128
 10
943901.521
 20
7236616.833
 30
0.0
 40
13.999
  1
2
 50
358.1499
  7
ROMANS
210
0.0
220
0.0
230
1.0
  0
TEXT
  8
10
  6
CONTINUOUS
 62
   134
  5
129
 10
944055.596
 20
7236611.856
 30
0.0
 40
13.999
  1
3
 50
358.1499
  7
ROMANS
210
0.0
220
0.0
230
1.0
  0
TEXT
  8
10
  6
CONTINUOUS
 62
   134
  5
12A
 10
944209.67
 20
7236606.88
 30
0.0
 40
13.999
  1
4
 50
358.1499
  7
ROMANS
210
0.0
220
0.0
230
1.0
  0
TEXT
  8
10
  6
CONTINUOUS
 62
   134
  5
12B
 10
944367.415
 20
7236601.784
 30
0.0
 40
13.999
  1
5
 50
358.1499
  7
ROMANS
210
0.0
220
0.0
230
1.0
  0
TEXT
  8
10
  6
CONTINUOUS
 62
   134
  5
12C
 10
944521.489
 20
7236596.807
 30
0.0
 40
13.999
  1
6
 50
358.1499
  7
ROMANS
210
0.0
220
0.0
230
1.0
  0
TEXT
  8
10
  6
CONTINUOUS
 62
   134
  5
12D
 10
944675.564
 20
7236591.83
 30
0.0
 40
13.999
  1
7
 50
358.1499
  7
ROMANS
210
0.0
220
0.0
230
1.0
  0
TEXT
  8
10
  6
CONTINUOUS
 62
   134
  5
12E
 10
944840.643
 20
7236586.498
 30
0.0
 40
13.999
  1
8
 50
358.1499
  7
ROMANS
210
0.0
220
0.0
230
1.0
  0
TEXT
  8
10
  6
CONTINUOUS
 62
   134
  5
12F
 10
945046.076
 20
7236579.862
 30
0.0
 40
13.999
  1
9
 50
358.1499
  7
ROMANS
210
0.0
220
0.0
230
1.0
  0
TEXT
  8
10
  6
CONTINUOUS
 62
   134
  5
130
 10
945214.826
 20
7236574.412
 30
0.0
 40
13.999
  1
10
 50
358.1499
  7
ROMANS
210
0.0
220
0.0
230
1.0
  0
TEXT
  8
10
  6
CONTINUOUS
 62
   134
  5
131
 10
945365.231
 20
7236569.553
 30
0.0
 40
13.999
  1
11
 50
358.1499
  7
ROMANS
210
0.0
220
0.0
230
1.0
  0
TEXT
  8
10
  6
CONTINUOUS
 62
   134
  5
132
 10
945515.637
 20
7236564.694
 30
0.0
 40
13.999
  1
12
 50
358.1499
  7
ROMANS
210
0.0
220
0.0
230
1.0
  0
TEXT
  8
10
  6
CONTINUOUS
 62
   134
  5
133
 10
945669.712
 20
7236559.718
 30
0.0
 40
13.999
  1
13
 50
358.1499
  7
ROMANS
210
0.0
220
0.0
230
1.0
  0
TEXT
  8
10
  6
CONTINUOUS
 62
   134
  5
134
 10
945842.129
 20
7236554.148
 30
0.0
 40
13.999
  1
14
 50
358.1499
  7
ROMANS
210
0.0
220
0.0
230
1.0
  0
TEXT
  8
10
  6
CONTINUOUS
 62
   134
  5
135
 10
945996.204
 20
7236549.171
 30
0.0
 40
13.999
  1
15
 50
358.1499
  7
ROMANS
210
0.0
220
0.0
230
1.0
  0
TEXT
  8
10
  6
CONTINUOUS
 62
   134
  5
136
 10
946153.947
 20
7236544.076
 30
0.0
 40
13.999
  1
16
 50
358.1499
  7
ROMANS
210
0.0
220
0.0
230
1.0
  0
TEXT
  8
10
  6
CONTINUOUS
 62
   134
  5
137
 10
946163.313
 20
7236834.019
 30
0.0
 40
13.999
  1
17
 50
358.1499
  7
ROMANS
210
0.0
220
0.0
230
1.0
  0
TEXT
  8
10
  6
CONTINUOUS
 62
   134
  5
138
 10
946005.569
 20
7236839.115
 30
0.0
 40
13.999
  1
18
 50
358.1499
  7
ROMANS
210
0.0
220
0.0
230
1.0
  0
TEXT
  8
10
  6
CONTINUOUS
 62
   134
  5
139
 10
945858.832
 20
7236843.855
 30
0.0
 40
13.999
  1
19
 50
358.1499
  7
ROMANS
210
0.0
220
0.0
230
1.0
  0
TEXT
  8
10
  6
CONTINUOUS
 62
   134
  5
13A
 10
945697.42
 20
7236849.068
 30
0.0
 40
13.999
  1
20
 50
358.1499
  7
ROMANS
210
0.0
220
0.0
230
1.0
  0
TEXT
  8
10
  6
CONTINUOUS
 62
   134
  5
13B
 10
945532.34
 20
7236854.401
 30
0.0
 40
13.999
  1
21
 50
358.1499
  7
ROMANS
210
0.0
220
0.0
230
1.0
  0
TEXT
  8
10
  6
CONTINUOUS
 62
   134
  5
13C
 10
945378.266
 20
7236859.377
 30
0.0
 40
13.999
  1
22
 50
358.1499
  7
ROMANS
210
0.0
220
0.0
230
1.0
  0
TEXT
  8
10
  6
CONTINUOUS
 62
   134
  5
13D
 10
945224.191
 20
7236864.354
 30
0.0
 40
13.999
  1
23
 50
358.1499
  7
ROMANS
210
0.0
220
0.0
230
1.0
  0
TEXT
  8
10
  6
CONTINUOUS
 62
   134
  5
13E
 10
945062.779
 20
7236869.568
 30
0.0
 40
13.999
  1
24
 50
358.1499
  7
ROMANS
210
0.0
220
0.0
230
1.0
  0
TEXT
  8
10
  6
CONTINUOUS
 62
   134
  5
13F
 10
944853.677
 20
7236876.323
 30
0.0
 40
13.999
  1
25
 50
358.1499
  7
ROMANS
210
0.0
220
0.0
230
1.0
  0
TEXT
  8
10
  6
CONTINUOUS
 62
   134
  5
140
 10
944692.267
 20
7236881.536
 30
0.0
 40
13.999
  1
26
 50
358.1499
  7
ROMANS
210
0.0
220
0.0
230
1.0
  0
TEXT
  8
10
  6
CONTINUOUS
 62
   134
  5
141
 10
944538.19
 20
7236886.513
 30
0.0
 40
13.999
  1
27
 50
358.1499
  7
ROMANS
210
0.0
220
0.0
230
1.0
  0
TEXT
  8
10
  6
CONTINUOUS
 62
   134
  5
142
 10
944354.769
 20
7236892.438
 30
0.0
 40
13.999
  1
28
 50
358.1499
  7
ROMANS
210
0.0
220
0.0
230
1.0
  0
TEXT
  8
10
  6
CONTINUOUS
 62
   134
  5
143
 10
944215.368
 20
7236896.94
 30
0.0
 40
13.999
  1
29
 50
358.1499
  7
ROMANS
210
0.0
220
0.0
230
1.0
  0
TEXT
  8
10
  6
CONTINUOUS
 62
   134
  5
144
 10
944061.294
 20
7236901.918
 30
0.0
 40
13.999
  1
30
 50
358.1499
  7
ROMANS
210
0.0
220
0.0
230
1.0
  0
TEXT
  8
10
  6
CONTINUOUS
 62
   134
  5
145
 10
943903.549
 20
7236907.013
 30
0.0
 40
13.999
  1
31
 50
358.1499
  7
ROMANS
210
0.0
220
0.0
230
1.0
  0
TEXT
  8
10
  6
CONTINUOUS
 62
   134
  5
146
 10
943738.469
 20
7236912.346
 30
0.0
 40
13.999
  1
32
 50
358.1499
  7
ROMANS
210
0.0
220
0.0
230
1.0
  0
TEXT
  8
10
  6
CONTINUOUS
 62
   134
  5
147
 10
943749.495
 20
7237253.67
 30
0.0
 40
13.999
  1
33
 50
358.1499
  7
ROMANS
210
0.0
220
0.0
230
1.0
  0
TEXT
  8
10
  6
CONTINUOUS
 62
   134
  5
148
 10
943914.575
 20
7237248.338
 30
0.0
 40
13.999
  1
34
 50
358.1499
  7
ROMANS
210
0.0
220
0.0
230
1.0
  0
TEXT
  8
10
  6
CONTINUOUS
 62
   134
  5
149
 10
944068.65
 20
7237243.361
 30
0.0
 40
13.999
  1
35
 50
358.1499
  7
ROMANS
210
0.0
220
0.0
230
1.0
  0
TEXT
  8
10
  6
CONTINUOUS
 62
   134
  5
14A
 10
944222.725
 20
7237238.384
 30
0.0
 40
13.999
  1
36
 50
358.1499
  7
ROMANS
210
0.0
220
0.0
230
1.0
  0
TEXT
  8
10
  6
CONTINUOUS
 62
   134
  5
14B
 10
944376.8
 20
7237233.408
 30
0.0
 40
13.999
  1
37
 50
358.1499
  7
ROMANS
210
0.0
220
0.0
230
1.0
  0
TEXT
  8
10
  6
CONTINUOUS
 62
   134
  5
14C
 10
944538.211
 20
7237228.193
 30
0.0
 40
13.999
  1
38
 50
358.1499
  7
ROMANS
210
0.0
220
0.0
230
1.0
  0
TEXT
  8
10
  6
CONTINUOUS
 62
   134
  5
14D
 10
944688.617
 20
7237223.335
 30
0.0
 40
13.999
  1
39
 50
358.1499
  7
ROMANS
210
0.0
220
0.0
230
1.0
  0
TEXT
  8
10
  6
CONTINUOUS
 62
   134
  5
14E
 10
944846.361
 20
7237218.24
 30
0.0
 40
13.999
  1
40
 50
358.1499
  7
ROMANS
210
0.0
220
0.0
230
1.0
  0
TEXT
  8
10
  6
CONTINUOUS
 62
   134
  5
14F
 10
945066.467
 20
7237211.13
 30
0.0
 40
13.999
  1
41
 50
358.1499
  7
ROMANS
210
0.0
220
0.0
230
1.0
  0
TEXT
  8
10
  6
CONTINUOUS
 62
   134
  5
150
 10
945220.542
 20
7237206.153
 30
0.0
 40
13.999
  1
42
 50
358.1499
  7
ROMANS
210
0.0
220
0.0
230
1.0
  0
TEXT
  8
10
  6
CONTINUOUS
 62
   134
  5
151
 10
945381.954
 20
7237200.94
 30
0.0
 40
13.999
  1
43
 50
358.1499
  7
ROMANS
210
0.0
220
0.0
230
1.0
  0
TEXT
  8
10
  6
CONTINUOUS
 62
   134
  5
152
 10
945539.697
 20
7237195.844
 30
0.0
 40
13.999
  1
44
 50
358.1499
  7
ROMANS
210
0.0
220
0.0
230
1.0
  0
TEXT
  8
10
  6
CONTINUOUS
 62
   134
  5
153
 10
945697.44
 20
7237190.749
 30
0.0
 40
13.999
  1
45
 50
358.1499
  7
ROMANS
210
0.0
220
0.0
230
1.0
  0
TEXT
  8
10
  6
CONTINUOUS
 62
   134
  5
154
 10
945840.51
 20
7237186.127
 30
0.0
 40
13.999
  1
46
 50
358.1499
  7
ROMANS
210
0.0
220
0.0
230
1.0
  0
TEXT
  8
10
  6
CONTINUOUS
 62
   134
  5
155
 10
946020.263
 20
7237180.321
 30
0.0
 40
13.999
  1
47
 50
358.1499
  7
ROMANS
210
0.0
220
0.0
230
1.0
  0
TEXT
  8
10
  6
CONTINUOUS
 62
   134
  5
156
 10
946170.669
 20
7237175.463
 30
0.0
 40
13.999
  1
48
 50
358.1499
  7
ROMANS
210
0.0
220
0.0
230
1.0
  0
TEXT
  8
10
  6
CONTINUOUS
 62
   134
  5
157
 10
946180.746
 20
7237487.426
 30
0.0
 40
13.999
  1
49
 50
358.1499
  7
ROMANS
210
0.0
220
0.0
230
1.0
  0
TEXT
  8
10
  6
CONTINUOUS
 62
   134
  5
158
 10
946030.341
 20
7237492.284
 30
0.0
 40
13.999
  1
50
 50
358.1499
  7
ROMANS
210
0.0
220
0.0
230
1.0
  0
TEXT
  8
10
  6
CONTINUOUS
 62
   134
  5
159
 10
945865.26
 20
7237497.616
 30
0.0
 40
13.999
  1
51
 50
358.1499
  7
ROMANS
210
0.0
220
0.0
230
1.0
  0
TEXT
  8
10
  6
CONTINUOUS
 62
   134
  5
15A
 10
945711.185
 20
7237502.594
 30
0.0
 40
13.999
  1
52
 50
358.1499
  7
ROMANS
210
0.0
220
0.0
230
1.0
  0
TEXT
  8
10
  6
CONTINUOUS
 62
   134
  5
15B
 10
945549.775
 20
7237507.807
 30
0.0
 40
13.999
  1
53
 50
358.1499
  7
ROMANS
210
0.0
220
0.0
230
1.0
  0
TEXT
  8
10
  6
CONTINUOUS
 62
   134
  5
15C
 10
945406.705
 20
7237512.429
 30
0.0
 40
13.999
  1
54
 50
358.1499
  7
ROMANS
210
0.0
220
0.0
230
1.0
  0
TEXT
  8
10
  6
CONTINUOUS
 62
   134
  5
15D
 10
945252.63
 20
7237517.405
 30
0.0
 40
13.999
  1
55
 50
358.1499
  7
ROMANS
210
0.0
220
0.0
230
1.0
  0
TEXT
  8
10
  6
CONTINUOUS
 62
   134
  5
15E
 10
945098.555
 20
7237522.382
 30
0.0
 40
13.999
  1
56
 50
358.1499
  7
ROMANS
210
0.0
220
0.0
230
1.0
  0
TEXT
  8
10
  6
CONTINUOUS
 62
   134
  5
15F
 10
944871.111
 20
7237529.729
 30
0.0
 40
13.999
  1
57
 50
358.1499
  7
ROMANS
210
0.0
220
0.0
230
1.0
  0
TEXT
  8
10
  6
CONTINUOUS
 62
   134
  5
160
 10
944709.7
 20
7237534.943
 30
0.0
 40
13.999
  1
58
 50
358.1499
  7
ROMANS
210
0.0
220
0.0
230
1.0
  0
TEXT
  8
10
  6
CONTINUOUS
 62
   134
  5
161
 10
944555.624
 20
7237539.92
 30
0.0
 40
13.999
  1
59
 50
358.1499
  7
ROMANS
210
0.0
220
0.0
230
1.0
  0
TEXT
  8
10
  6
CONTINUOUS
 62
   134
  5
162
 10
944397.882
 20
7237545.015
 30
0.0
 40
13.999
  1
60
 50
358.1499
  7
ROMANS
210
0.0
220
0.0
230
1.0
  0
TEXT
  8
10
  6
CONTINUOUS
 62
   134
  5
163
 10
944221.796
 20
7237550.703
 30
0.0
 40
13.999
  1
61
 50
358.1499
  7
ROMANS
210
0.0
220
0.0
230
1.0
  0
TEXT
  8
10
  6
CONTINUOUS
 62
   134
  5
164
 10
944086.064
 20
7237555.088
 30
0.0
 40
13.999
  1
62
 50
358.1499
  7
ROMANS
210
0.0
220
0.0
230
1.0
  0
TEXT
  8
10
  6
CONTINUOUS
 62
   134
  5
165
 10
943942.995
 20
7237559.709
 30
0.0
 40
13.999
  1
63
 50
358.1499
  7
ROMANS
210
0.0
220
0.0
230
1.0
  0
TEXT
  8
10
  6
CONTINUOUS
 62
   134
  5
166
 10
943774.245
 20
7237565.159
 30
0.0
 40
13.999
  1
64
 50
358.1499
  7
ROMANS
210
0.0
220
0.0
230
1.0
  0
TEXT
  8
10
  6
CONTINUOUS
 62
   134
  5
167
 10
943784.611
 20
7237908.179
 30
0.0
 40
13.999
  1
65
 50
358.1499
  7
ROMANS
210
0.0
220
0.0
230
1.0
  0
TEXT
  8
10
  6
CONTINUOUS
 62
   134
  5
168
 10
943946.023
 20
7237902.965
 30
0.0
 40
13.999
  1
66
 50
358.1499
  7
ROMANS
210
0.0
220
0.0
230
1.0
  0
TEXT
  8
10
  6
CONTINUOUS
 62
   134
  5
169
 10
944100.097
 20
7237897.988
 30
0.0
 40
13.999
  1
67
 50
358.1499
  7
ROMANS
210
0.0
220
0.0
230
1.0
  0
TEXT
  8
10
  6
CONTINUOUS
 62
   134
  5
16A
 10
944261.509
 20
7237892.774
 30
0.0
 40
13.999
  1
68
 50
358.1499
  7
ROMANS
210
0.0
220
0.0
230
1.0
  0
TEXT
  8
10
  6
CONTINUOUS
 62
   134
  5
16B
 10
944404.579
 20
7237888.153
 30
0.0
 40
13.999
  1
69
 50
358.1499
  7
ROMANS
210
0.0
220
0.0
230
1.0
  0
TEXT
  8
10
  6
CONTINUOUS
 62
   134
  5
16C
 10
944565.991
 20
7237882.939
 30
0.0
 40
13.999
  1
70
 50
358.1499
  7
ROMANS
210
0.0
220
0.0
230
1.0
  0
TEXT
  8
10
  6
CONTINUOUS
 62
   134
  5
16D
 10
944720.065
 20
7237877.962
 30
0.0
 40
13.999
  1
71
 50
358.1499
  7
ROMANS
210
0.0
220
0.0
230
1.0
  0
TEXT
  8
10
  6
CONTINUOUS
 62
   134
  5
16E
 10
944874.14
 20
7237872.985
 30
0.0
 40
13.999
  1
72
 50
358.1499
  7
ROMANS
210
0.0
220
0.0
230
1.0
  0
TEXT
  8
10
  6
CONTINUOUS
 62
   134
  5
16F
 10
945094.247
 20
7237865.876
 30
0.0
 40
13.999
  1
73
 50
358.1499
  7
ROMANS
210
0.0
220
0.0
230
1.0
  0
TEXT
  8
10
  6
CONTINUOUS
 62
   134
  5
170
 10
945255.659
 20
7237860.661
 30
0.0
 40
13.999
  1
74
 50
358.1499
  7
ROMANS
210
0.0
220
0.0
230
1.0
  0
TEXT
  8
10
  6
CONTINUOUS
 62
   134
  5
171
 10
945402.396
 20
7237855.922
 30
0.0
 40
13.999
  1
75
 50
358.1499
  7
ROMANS
210
0.0
220
0.0
230
1.0
  0
TEXT
  8
10
  6
CONTINUOUS
 62
   134
  5
172
 10
945567.477
 20
7237850.59
 30
0.0
 40
13.999
  1
76
 50
358.1499
  7
ROMANS
210
0.0
220
0.0
230
1.0
  0
TEXT
  8
10
  6
CONTINUOUS
 62
   134
  5
173
 10
945706.877
 20
7237846.087
 30
0.0
 40
13.999
  1
77
 50
358.1499
  7
ROMANS
210
0.0
220
0.0
230
1.0
  0
TEXT
  8
10
  6
CONTINUOUS
 62
   134
  5
174
 10
945882.962
 20
7237840.399
 30
0.0
 40
13.999
  1
78
 50
358.1499
  7
ROMANS
210
0.0
220
0.0
230
1.0
  0
TEXT
  8
10
  6
CONTINUOUS
 62
   134
  5
175
 10
946040.706
 20
7237835.304
 30
0.0
 40
13.999
  1
79
 50
358.1499
  7
ROMANS
210
0.0
220
0.0
230
1.0
  0
TEXT
  8
10
  6
CONTINUOUS
 62
   134
  5
176
 10
946198.449
 20
7237830.208
 30
0.0
 40
13.999
  1
80
 50
358.1499
  7
ROMANS
210
0.0
220
0.0
230
1.0
  0
TEXT
  8
10
  6
CONTINUOUS
 62
   134
  5
177
 10
946208.645
 20
7238145.842
 30
0.0
 40
13.999
  1
81
 50
358.1499
  7
ROMANS
210
0.0
220
0.0
230
1.0
  0
TEXT
  8
10
  6
CONTINUOUS
 62
   134
  5
178
 10
946065.575
 20
7238150.463
 30
0.0
 40
13.999
  1
82
 50
358.1499
  7
ROMANS
210
0.0
220
0.0
230
1.0
  0
TEXT
  8
10
  6
CONTINUOUS
 62
   134
  5
179
 10
945896.827
 20
7238155.913
 30
0.0
 40
13.999
  1
83
 50
358.1499
  7
ROMANS
210
0.0
220
0.0
230
1.0
  0
TEXT
  8
10
  6
CONTINUOUS
 62
   134
  5
17A
 10
945742.751
 20
7238160.891
 30
0.0
 40
13.999
  1
84
 50
358.1499
  7
ROMANS
210
0.0
220
0.0
230
1.0
  0
TEXT
  8
10
  6
CONTINUOUS
 62
   134
  5
17B
 10
945588.677
 20
7238165.868
 30
0.0
 40
13.999
  1
85
 50
358.1499
  7
ROMANS
210
0.0
220
0.0
230
1.0
  0
TEXT
  8
10
  6
CONTINUOUS
 62
   134
  5
17C
 10
945430.934
 20
7238170.963
 30
0.0
 40
13.999
  1
86
 50
358.1499
  7
ROMANS
210
0.0
220
0.0
230
1.0
  0
TEXT
  8
10
  6
CONTINUOUS
 62
   134
  5
17D
 10
945258.517
 20
7238176.532
 30
0.0
 40
13.999
  1
87
 50
358.1499
  7
ROMANS
210
0.0
220
0.0
230
1.0
  0
TEXT
  8
10
  6
CONTINUOUS
 62
   134
  5
17E
 10
945104.442
 20
7238181.509
 30
0.0
 40
13.999
  1
88
 50
358.1499
  7
ROMANS
210
0.0
220
0.0
230
1.0
  0
TEXT
  8
10
  6
CONTINUOUS
 62
   134
  5
17F
 10
944884.335
 20
7238188.619
 30
0.0
 40
13.999
  1
89
 50
358.1499
  7
ROMANS
210
0.0
220
0.0
230
1.0
  0
TEXT
  8
10
  6
CONTINUOUS
 62
   134
  5
180
 10
944737.598
 20
7238193.359
 30
0.0
 40
13.999
  1
90
 50
358.1499
  7
ROMANS
210
0.0
220
0.0
230
1.0
  0
TEXT
  8
10
  6
CONTINUOUS
 62
   134
  5
181
 10
944572.518
 20
7238198.691
 30
0.0
 40
13.999
  1
91
 50
358.1499
  7
ROMANS
210
0.0
220
0.0
230
1.0
  0
TEXT
  8
10
  6
CONTINUOUS
 62
   134
  5
182
 10
944422.111
 20
7238203.549
 30
0.0
 40
13.999
  1
92
 50
358.1499
  7
ROMANS
210
0.0
220
0.0
230
1.0
  0
TEXT
  8
10
  6
CONTINUOUS
 62
   134
  5
183
 10
944253.363
 20
7238209.0
 30
0.0
 40
13.999
  1
93
 50
358.1499
  7
ROMANS
210
0.0
220
0.0
230
1.0
  0
TEXT
  8
10
  6
CONTINUOUS
 62
   134
  5
184
 10
944106.624
 20
7238213.74
 30
0.0
 40
13.999
  1
94
 50
358.1499
  7
ROMANS
210
0.0
220
0.0
230
1.0
  0
TEXT
  8
10
  6
CONTINUOUS
 62
   134
  5
185
 10
943941.545
 20
7238219.073
 30
0.0
 40
13.999
  1
95
 50
358.1499
  7
ROMANS
210
0.0
220
0.0
230
1.0
  0
TEXT
  8
10
  6
CONTINUOUS
 62
   134
  5
186
 10
943780.133
 20
7238224.286
 30
0.0
 40
13.999
  1
96
 50
358.1499
  7
ROMANS
210
0.0
220
0.0
230
1.0
  0
TEXT
  8
10
  6
CONTINUOUS
 62
   134
  5
187
 10
943791.514
 20
7238576.621
 30
0.0
 40
13.999
  1
97
 50
358.1499
  7
ROMANS
210
0.0
220
0.0
230
1.0
  0
TEXT
  8
10
  6
CONTINUOUS
 62
   134
  5
188
 10
943949.258
 20
7238571.526
 30
0.0
 40
13.999
  1
98
 50
358.1499
  7
ROMANS
210
0.0
220
0.0
230
1.0
  0
TEXT
  8
10
  6
CONTINUOUS
 62
   134
  5
189
 10
944110.669
 20
7238566.312
 30
0.0
 40
13.999
  1
99
 50
358.1499
  7
ROMANS
210
0.0
220
0.0
230
1.0
  0
TEXT
  8
10
  6
CONTINUOUS
 62
   134
  5
18A
 10
944261.076
 20
7238561.454
 30
0.0
 40
13.999
  1
100
 50
358.1499
  7
ROMANS
210
0.0
220
0.0
230
1.0
  0
TEXT
  8
10
  6
CONTINUOUS
 62
   134
  5
18B
 10
944418.819
 20
7238556.359
 30
0.0
 40
13.999
  1
101
 50
358.1499
  7
ROMANS
210
0.0
220
0.0
230
1.0
  0
TEXT
  8
10
  6
CONTINUOUS
 62
   134
  5
18C
 10
944583.899
 20
7238551.026
 30
0.0
 40
13.999
  1
102
 50
358.1499
  7
ROMANS
210
0.0
220
0.0
230
1.0
  0
TEXT
  8
10
  6
CONTINUOUS
 62
   134
  5
18D
 10
944737.973
 20
7238546.049
 30
0.0
 40
13.999
  1
103
 50
358.1499
  7
ROMANS
210
0.0
220
0.0
230
1.0
  0
TEXT
  8
10
  6
CONTINUOUS
 62
   134
  5
18E
 10
944881.043
 20
7238541.428
 30
0.0
 40
13.999
  1
104
 50
358.1499
  7
ROMANS
210
0.0
220
0.0
230
1.0
  0
TEXT
  8
10
  6
CONTINUOUS
 62
   134
  5
18F
 10
945108.486
 20
7238534.081
 30
0.0
 40
13.999
  1
105
 50
358.1499
  7
ROMANS
210
0.0
220
0.0
230
1.0
  0
TEXT
  8
10
  6
CONTINUOUS
 62
   134
  5
190
 10
945266.23
 20
7238528.986
 30
0.0
 40
13.999
  1
106
 50
358.1499
  7
ROMANS
210
0.0
220
0.0
230
1.0
  0
TEXT
  8
10
  6
CONTINUOUS
 62
   134
  5
191
 10
945412.967
 20
7238524.246
 30
0.0
 40
13.999
  1
107
 50
358.1499
  7
ROMANS
210
0.0
220
0.0
230
1.0
  0
TEXT
  8
10
  6
CONTINUOUS
 62
   134
  5
192
 10
945589.052
 20
7238518.558
 30
0.0
 40
13.999
  1
108
 50
358.1499
  7
ROMANS
210
0.0
220
0.0
230
1.0
  0
TEXT
  8
10
  6
CONTINUOUS
 62
   134
  5
193
 10
945735.791
 20
7238513.818
 30
0.0
 40
13.999
  1
109
 50
358.1499
  7
ROMANS
210
0.0
220
0.0
230
1.0
  0
TEXT
  8
10
  6
CONTINUOUS
 62
   134
  5
194
 10
945886.197
 20
7238508.96
 30
0.0
 40
13.999
  1
110
 50
358.1499
  7
ROMANS
210
0.0
220
0.0
230
1.0
  0
TEXT
  8
10
  6
CONTINUOUS
 62
   134
  5
195
 10
946047.608
 20
7238503.746
 30
0.0
 40
13.999
  1
111
 50
358.1499
  7
ROMANS
210
0.0
220
0.0
230
1.0
  0
TEXT
  8
10
  6
CONTINUOUS
 62
   134
  5
196
 10
946194.347
 20
7238499.006
 30
0.0
 40
13.999
  1
112
 50
358.1499
  7
ROMANS
210
0.0
220
0.0
230
1.0
  0
LINE
  8
7
  6
CONTINUOUS
 62
     7
  5
197
 10
941697.565
 20
7239558.071
 30
0.0
 11
941114.969
 21
7239576.89
 31
0.0
  0
TEXT
  8
10
  6
CONTINUOUS
 62
   134
  5
198
 10
941372.997
 20
7241265.061
 30
0.0
 40
13.999
  1
ALL LOTS W/O CENTROIDS 
 50
358.1499
  7
ROMANS
 11
941373.448954
 21
7241279.052702
 31
0.0
210
0.0
220
0.0
230
1.0
 73
     3
  0
TEXT
  8
10
  6
CONTINUOUS
 62
   134
  5
199
 10
941372.32
 20
7241244.074
 30
0.0
 40
13.999
  1
ARE UNSUBDIVIDED
 50
358.1499
  7
ROMANS
 11
941372.771954
 21
7241258.065702
 31
0.0
210
0.0
220
0.0
230
1.0
 73
     3
  0
TEXT
  8
10
  6
CONTINUOUS
 62
   134
  5
19A
 10
941552.704
 20
7237949.345
 30
0.0
 40
13.999
  1
ALL LOTS W/O CENTROIDS 
 50
358.1499
  7
ROMANS
 11
941553.155954
 21
7237963.336702
 31
0.0
210
0.0
220
0.0
230
1.0
 73
     3
  0
TEXT
  8
10
  6
CONTINUOUS
 62
   134
  5
19B
 10
941552.026
 20
7237928.358
 30
0.0
 40
13.999
  1
ARE UNSUBDIVIDED
 50
358.1499
  7
ROMANS
 11
941552.477954
 21
7237942.349702
 31
0.0
210
0.0
220
0.0
230
1.0
 73
     3
  0
TEXT
  8
10
  6
CONTINUOUS
 62
   134
  5
19C
 10
942892.983
 20
7239384.242
 30
0.0
 40
13.999
  1
ALL LOTS W/O CENTROIDS 
 50
358.1499
  7
ROMANS
 11
942893.434954
 21
7239398.233702
 31
0.0
210
0.0
220
0.0
230
1.0
 73
     3
  0
TEXT
  8
10
  6
CONTINUOUS
 62
   134
  5
19D
 10
942892.306
 20
7239363.255
 30
0.0
 40
13.999
  1
ARE UNSUBDIVIDED
 50
358.1499
  7
ROMANS
 11
942892.757954
 21
7239377.246702
 31
0.0
210
0.0
220
0.0
230
1.0
 73
     3
  0
TEXT
  8
10
  6
CONTINUOUS
 62
   134
  5
19E
 10
944960.737
 20
7240418.53
 30
0.0
 40
13.999
  1
ALL LOTS W/O CENTROIDS 
 50
358.1499
  7
ROMANS
 11
944961.188954
 21
7240432.521702
 31
0.0
210
0.0
220
0.0
230
1.0
 73
     3
  0
TEXT
  8
10
  6
CONTINUOUS
 62
   134
  5
19F
 10
944960.059
 20
7240397.543
 30
0.0
 40
13.999
  1
ARE UNSUBDIVIDED
 50
358.1499
  7
ROMANS
 11
944960.510954
 21
7240411.534702
 31
0.0
210
0.0
220
0.0
230
1.0
 73
     3
  0
TEXT
  8
15
  6
CONTINUOUS
 62
    30
  5
1A2
 10
944394.453
 20
7237895.439
 30
0.0
 40
50.0
  1
RIDGEVIEW
 50
43.1499
  7
ROMANC
 72
     4
 11
944544.802546
 21
7238070.646329
 31
0.0
210
0.0
220
0.0
230
1.0
  0
TEXT
  8
11
  6
CONTINUOUS
 62
     7
  5
1A4
 10
941742.618
 20
7241737.31
 30
0.0
 40
8.0
  1
660'
 50
358.1499
  7
ROMANS
 72
     4
 11
941756.073189
 21
7241740.877463
 31
0.0
210
0.0
220
0.0
230
1.0
  0
TEXT
  8
11
  6
CONTINUOUS
 62
     7
  5
1A5
 10
941881.92
 20
7241732.811
 30
0.0
 40
8.0
  1
100'
 50
358.1499
  7
ROMANS
 72
     4
 11
941895.375189
 21
7241736.378463
 31
0.0
210
0.0
220
0.0
230
1.0
  0
TEXT
  8
11
  6
CONTINUOUS
 62
     7
  5
1A6
 10
941979.087
 20
7241729.672
 30
0.0
 40
8.0
  1
100'
 50
358.1499
  7
ROMANS
 72
     4
 11
941992.542189
 21
7241733.239463
 31
0.0
210
0.0
220
0.0
230
1.0
  0
TEXT
  8
11
  6
CONTINUOUS
 62
     7
  5
1A7
 10
942066.06
 20
7241726.863
 30
0.0
 40
8.0
  1
121.23'
 50
358.1499
  7
ROMANS
 72
     4
 11
942091.508933
 21
7241730.043046
 31
0.0
210
0.0
220
0.0
230
1.0
  0
TEXT
  8
11
  6
CONTINUOUS
 62
     7
  5
1A8
 10
942199.027
 20
7241722.568
 30
0.0
 40
8.0
  1
121.23'
 50
358.1499
  7
ROMANS
 72
     4
 11
942224.475933
 21
7241725.748046
 31
0.0
210
0.0
220
0.0
230
1.0
  0
TEXT
  8
11
  6
CONTINUOUS
 62
     7
  5
1A9
 10
942321.677
 20
7241716.9
 30
0.0
 40
8.0
  1
100'
 50
358.1499
  7
ROMANS
 72
     4
 11
942335.132189
 21
7241720.467463
 31
0.0
210
0.0
220
0.0
230
1.0
  0
TEXT
  8
11
  6
CONTINUOUS
 62
     7
  5
1AA
 10
942414.321
 20
7241713.907
 30
0.0
 40
8.0
  1
99.75'
 50
358.1499
  7
ROMANS
 72
     4
 11
942435.772018
 21
7241717.216185
 31
0.0
210
0.0
220
0.0
230
1.0
  0
TEXT
  8
11
  6
CONTINUOUS
 62
     7
  5
1AB
 10
942287.211
 20
7241388.5
 30
0.0
 40
8.0
  1
321.10'
 50
358.1499
  7
ROMANS
 72
     4
 11
942312.659933
 21
7241391.680046
 31
0.0
210
0.0
220
0.0
230
1.0
  0
TEXT
  8
11
  6
CONTINUOUS
 62
     7
  5
1AC
 10
942285.39
 20
7241279.291
 30
0.0
 40
8.0
  1
321.06'
 50
358.1499
  7
ROMANS
 72
     4
 11
942310.838933
 21
7241282.471046
 31
0.0
210
0.0
220
0.0
230
1.0
  0
TEXT
  8
11
  6
CONTINUOUS
 62
     7
  5
1AD
 10
942113.423
 20
7241079.968
 30
0.0
 40
8.0
  1
642.21'
 50
358.1499
  7
ROMANS
 72
     4
 11
942138.871933
 21
7241083.148046
 31
0.0
210
0.0
220
0.0
230
1.0
  0
TEXT
  8
11
  6
CONTINUOUS
 62
     7
  5
1AE
 10
942220.291
 20
7241061.149
 30
0.0
 40
8.0
  1
500'
 50
358.1499
  7
ROMANS
 72
     4
 11
942233.746189
 21
7241064.716463
 31
0.0
210
0.0
220
0.0
230
1.0
  0
TEXT
  8
11
  6
CONTINUOUS
 62
     7
  5
1AF
 10
941512.732
 20
7241080.59
 30
0.0
 40
8.0
  1
125'
 50
358.1499
  7
ROMANS
 72
     4
 11
941526.187189
 21
7241084.157463
 31
0.0
210
0.0
220
0.0
230
1.0
  0
TEXT
  8
11
  6
CONTINUOUS
 62
     7
  5
1B0
 10
941642.287
 20
7241076.406
 30
0.0
 40
8.0
  1
125'
 50
358.1499
  7
ROMANS
 72
     4
 11
941655.742189
 21
7241079.973463
 31
0.0
210
0.0
220
0.0
230
1.0
  0
TEXT
  8
11
  6
CONTINUOUS
 62
     7
  5
1B1
 10
941752.248
 20
7240729.683
 30
0.0
 40
8.0
  1
125'
 50
358.1499
  7
ROMANS
 72
     4
 11
941765.703189
 21
7240733.250463
 31
0.0
210
0.0
220
0.0
230
1.0
  0
TEXT
  8
11
  6
CONTINUOUS
 62
     7
  5
1B2
 10
941873.281
 20
7240725.773
 30
0.0
 40
8.0
  1
125'
 50
358.1499
  7
ROMANS
 72
     4
 11
941886.736189
 21
7240729.340463
 31
0.0
210
0.0
220
0.0
230
1.0
  0
TEXT
  8
11
  6
CONTINUOUS
 62
     7
  5
1B3
 10
942233.083
 20
7240717.566
 30
0.0
 40
8.0
  1
500'
 50
358.1499
  7
ROMANS
 72
     4
 11
942246.538189
 21
7240721.133463
 31
0.0
210
0.0
220
0.0
230
1.0
  0
TEXT
  8
11
  6
CONTINUOUS
 62
     7
  5
1B4
 10
941293.774
 20
7240746.2
 30
0.0
 40
8.0
  1
302.08'
 50
358.1499
  7
ROMANS
 72
     4
 11
941319.222933
 21
7240749.380046
 31
0.0
210
0.0
220
0.0
230
1.0
  0
TEXT
  8
11
  6
CONTINUOUS
 62
     7
  5
1B5
 10
941292.408
 20
7240915.268
 30
0.0
 40
8.0
  1
301.15'
 50
358.1499
  7
ROMANS
 72
     4
 11
941317.856933
 21
7240918.448046
 31
0.0
210
0.0
220
0.0
230
1.0
  0
TEXT
  8
11
  6
CONTINUOUS
 62
     7
  5
1B6
 10
941293.014
 20
7240934.029
 30
0.0
 40
8.0
  1
301.15'
 50
358.1499
  7
ROMANS
 72
     4
 11
941318.462933
 21
7240937.209046
 31
0.0
210
0.0
220
0.0
230
1.0
  0
TEXT
  8
11
  6
CONTINUOUS
 62
     7
  5
1B7
 10
941513.646
 20
7240739.098
 30
0.0
 40
8.0
  1
125'
 50
358.1499
  7
ROMANS
 72
     4
 11
941527.101189
 21
7240742.665463
 31
0.0
210
0.0
220
0.0
230
1.0
  0
TEXT
  8
11
  6
CONTINUOUS
 62
     7
  5
1B8
 10
941629.566
 20
7240735.353
 30
0.0
 40
8.0
  1
125'
 50
358.1499
  7
ROMANS
 72
     4
 11
941643.021189
 21
7240738.920463
 31
0.0
210
0.0
220
0.0
230
1.0
  0
TEXT
  8
11
  6
CONTINUOUS
 62
     7
  5
1B9
 10
941271.613
 20
7240729.644
 30
0.0
 40
8.0
  1
290.4'
 50
358.1499
  7
ROMANS
 72
     4
 11
941293.064018
 21
7240732.953185
 31
0.0
210
0.0
220
0.0
230
1.0
  0
TEXT
  8
11
  6
CONTINUOUS
 62
     7
  5
1BA
 10
941261.916
 20
7240429.47
 30
0.0
 40
8.0
  1
290.4'
 50
358.1499
  7
ROMANS
 72
     4
 11
941283.367018
 21
7240432.779185
 31
0.0
210
0.0
220
0.0
230
1.0
  0
TEXT
  8
11
  6
CONTINUOUS
 62
     7
  5
1BB
 10
941267.315
 20
7240596.612
 30
0.0
 40
8.0
  1
290.4'
 50
358.1499
  7
ROMANS
 72
     4
 11
941288.766018
 21
7240599.921185
 31
0.0
210
0.0
220
0.0
230
1.0
  0
TEXT
  8
11
  6
CONTINUOUS
 62
     7
  5
1BC
 10
941252.882
 20
7240149.763
 30
0.0
 40
8.0
  1
290.4'
 50
358.1499
  7
ROMANS
 72
     4
 11
941274.333018
 21
7240153.072185
 31
0.0
210
0.0
220
0.0
230
1.0
  0
TEXT
  8
11
  6
CONTINUOUS
 62
     7
  5
1BD
 10
941247.978
 20
7239997.97
 30
0.0
 40
8.0
  1
290.4'
 50
358.1499
  7
ROMANS
 72
     4
 11
941269.429018
 21
7240001.279185
 31
0.0
210
0.0
220
0.0
230
1.0
  0
TEXT
  8
11
  6
CONTINUOUS
 62
     7
  5
1BE
 10
941243.075
 20
7239846.177
 30
0.0
 40
8.0
  1
290.4'
 50
358.1499
  7
ROMANS
 72
     4
 11
941264.526018
 21
7239849.486185
 31
0.0
210
0.0
220
0.0
230
1.0
  0
TEXT
  8
11
  6
CONTINUOUS
 62
     7
  5
1BF
 10
941215.53
 20
7239698.529
 30
0.0
 40
8.0
  1
205'
 50
358.1499
  7
ROMANS
 72
     4
 11
941228.985189
 21
7239702.096463
 31
0.0
210
0.0
220
0.0
230
1.0
  0
TEXT
  8
11
  6
CONTINUOUS
 62
     7
  5
1C0
 10
941253.265
 20
7239580.518
 30
0.0
 40
8.0
  1
292.5'
 50
358.1499
  7
ROMANS
 72
     4
 11
941274.716018
 21
7239583.827185
 31
0.0
210
0.0
220
0.0
230
1.0
  0
TEXT
  8
11
  6
CONTINUOUS
 62
     7
  5
1C1
 10
941359.11
 20
7239828.769
 30
0.0
 40
8.0
  1
87.5'
 50
358.1499
  7
ROMANS
 72
     4
 11
941376.563103
 21
7239832.207324
 31
0.0
210
0.0
220
0.0
230
1.0
  0
TEXT
  8
11
  6
CONTINUOUS
 62
     7
  5
1C2
 10
941354.757
 20
7239694.033
 30
0.0
 40
8.0
  1
87.5'
 50
358.1499
  7
ROMANS
 72
     4
 11
941372.210103
 21
7239697.471324
 31
0.0
210
0.0
220
0.0
230
1.0
  0
TEXT
  8
11
  6
CONTINUOUS
 62
     7
  5
1C3
 10
941480.701
 20
7239824.841
 30
0.0
 40
8.0
  1
142'
 50
358.1499
  7
ROMANS
 72
     4
 11
941494.156189
 21
7239828.408463
 31
0.0
210
0.0
220
0.0
230
1.0
  0
TEXT
  8
11
  6
CONTINUOUS
 62
     7
  5
1C4
 10
941611.963
 20
7239820.602
 30
0.0
 40
8.0
  1
142'
 50
358.1499
  7
ROMANS
 72
     4
 11
941625.418189
 21
7239824.169463
 31
0.0
210
0.0
220
0.0
230
1.0
  0
TEXT
  8
11
  6
CONTINUOUS
 62
     7
  5
1C5
 10
941603.699
 20
7239564.772
 30
0.0
 40
8.0
  1
142'
 50
358.1499
  7
ROMANS
 72
     4
 11
941617.154189
 21
7239568.339463
 31
0.0
210
0.0
220
0.0
230
1.0
  0
TEXT
  8
11
  6
CONTINUOUS
 62
     7
  5
1C6
 10
941477.552
 20
7239568.846
 30
0.0
 40
8.0
  1
142'
 50
358.1499
  7
ROMANS
 72
     4
 11
941491.007189
 21
7239572.413463
 31
0.0
210
0.0
220
0.0
230
1.0
  0
TEXT
  8
11
  6
CONTINUOUS
 62
     7
  5
1C7
 10
941746.579
 20
7239814.547
 30
0.0
 40
8.0
  1
102'
 50
358.1499
  7
ROMANS
 72
     4
 11
941760.034189
 21
7239818.114463
 31
0.0
210
0.0
220
0.0
230
1.0
  0
TEXT
  8
11
  6
CONTINUOUS
 62
     7
  5
1C8
 10
941737.433
 20
7239531.427
 30
0.0
 40
8.0
  1
102'
 50
358.1499
  7
ROMANS
 72
     4
 11
941750.888189
 21
7239534.994463
 31
0.0
210
0.0
220
0.0
230
1.0
  0
TEXT
  8
11
  6
CONTINUOUS
 62
     7
  5
1C9
 10
941820.382
 20
7239810.454
 30
0.0
 40
8.0
  1
40'
 50
358.1499
  7
ROMANS
 72
     4
 11
941829.839274
 21
7239814.150602
 31
0.0
210
0.0
220
0.0
230
1.0
  0
TEXT
  8
11
  6
CONTINUOUS
 62
     7
  5
1CA
 10
941811.236
 20
7239527.337
 30
0.0
 40
8.0
  1
40'
 50
358.1499
  7
ROMANS
 72
     4
 11
941820.693274
 21
7239531.033602
 31
0.0
210
0.0
220
0.0
230
1.0
  0
TEXT
  8
11
  6
CONTINUOUS
 62
     7
  5
1CB
 10
942251.027
 20
7239511.423
 30
0.0
 40
8.0
  1
357.8'
 50
358.1499
  7
ROMANS
 72
     4
 11
942272.478018
 21
7239514.732185
 31
0.0
210
0.0
220
0.0
230
1.0
  0
TEXT
  8
11
  6
CONTINUOUS
 62
     7
  5
1CC
 10
942317.765
 20
7240098.291
 30
0.0
 40
8.0
  1
212.8'
 50
358.1499
  7
ROMANS
 72
     4
 11
942339.216018
 21
7240101.600185
 31
0.0
210
0.0
220
0.0
230
1.0
  0
TEXT
  8
11
  6
CONTINUOUS
 62
     7
  5
1CD
 10
942126.784
 20
7240102.753
 30
0.0
 40
8.0
  1
145.2'
 50
358.1499
  7
ROMANS
 72
     4
 11
942148.235018
 21
7240106.062185
 31
0.0
210
0.0
220
0.0
230
1.0
  0
TEXT
  8
11
  6
CONTINUOUS
 62
     7
  5
1CE
 10
941980.181
 20
7240107.489
 30
0.0
 40
8.0
  1
145.2'
 50
358.1499
  7
ROMANS
 72
     4
 11
942001.632018
 21
7240110.798185
 31
0.0
210
0.0
220
0.0
230
1.0
  0
TEXT
  8
11
  6
CONTINUOUS
 62
     7
  5
1CF
 10
941880.215
 20
7240112.424
 30
0.0
 40
8.0
  1
72.6'
 50
358.1499
  7
ROMANS
 72
     4
 11
941897.668103
 21
7240115.862324
 31
0.0
210
0.0
220
0.0
230
1.0
  0
TEXT
  8
11
  6
CONTINUOUS
 62
     7
  5
1D0
 10
941861.263
 20
7239525.721
 30
0.0
 40
8.0
  1
72.6'
 50
358.1499
  7
ROMANS
 72
     4
 11
941878.716103
 21
7239529.159324
 31
0.0
210
0.0
220
0.0
230
1.0
  0
TEXT
  8
11
  6
CONTINUOUS
 62
     7
  5
1D1
 10
941476.705
 20
7240123.752
 30
0.0
 40
8.0
  1
145'
 50
358.1499
  7
ROMANS
 72
     4
 11
941490.160189
 21
7240127.319463
 31
0.0
210
0.0
220
0.0
230
1.0
  0
TEXT
  8
11
  6
CONTINUOUS
 62
     7
  5
1D2
 10
941621.604
 20
7240119.071
 30
0.0
 40
8.0
  1
145'
 50
358.1499
  7
ROMANS
 72
     4
 11
941635.059189
 21
7240122.638463
 31
0.0
210
0.0
220
0.0
230
1.0
  0
TEXT
  8
11
  6
CONTINUOUS
 62
     7
  5
1D3
 10
941768.207
 20
7240114.335
 30
0.0
 40
8.0
  1
145'
 50
358.1499
  7
ROMANS
 72
     4
 11
941781.662189
 21
7240117.902463
 31
0.0
210
0.0
220
0.0
230
1.0
  0
TEXT
  8
11
  6
CONTINUOUS
 62
     7
  5
1D4
 10
941489.869
 20
7240724.302
 30
0.0
 40
8.0
  1
145.2'
 50
358.1499
  7
ROMANS
 72
     4
 11
941511.320018
 21
7240727.611185
 31
0.0
210
0.0
220
0.0
230
1.0
  0
TEXT
  8
11
  6
CONTINUOUS
 62
     7
  5
1D5
 10
941929.681
 20
7240710.095
 30
0.0
 40
8.0
  1
145.2'
 50
358.1499
  7
ROMANS
 72
     4
 11
941951.132018
 21
7240713.404185
 31
0.0
210
0.0
220
0.0
230
1.0
  0
TEXT
  8
11
  6
CONTINUOUS
 62
     7
  5
1D6
 10
942067.76
 20
7240705.635
 30
0.0
 40
8.0
  1
145.2'
 50
358.1499
  7
ROMANS
 72
     4
 11
942089.211018
 21
7240708.944185
 31
0.0
210
0.0
220
0.0
230
1.0
  0
TEXT
  8
11
  6
CONTINUOUS
 62
     7
  5
1D7
 10
942212.66
 20
7240700.955
 30
0.0
 40
8.0
  1
145.2'
 50
358.1499
  7
ROMANS
 72
     4
 11
942234.111018
 21
7240704.264185
 31
0.0
210
0.0
220
0.0
230
1.0
  0
TEXT
  8
11
  6
CONTINUOUS
 62
     7
  5
1D8
 10
942365.413
 20
7240692.605
 30
0.0
 40
8.0
  1
140.21'
 50
358.1499
  7
ROMANS
 72
     4
 11
942390.861933
 21
7240695.785046
 31
0.0
210
0.0
220
0.0
230
1.0
  0
TEXT
  8
11
  6
CONTINUOUS
 62
     7
  5
1D9
 10
941709.719
 20
7240715.494
 30
0.0
 40
8.0
  1
290.1'
 50
358.1499
  7
ROMANS
 72
     4
 11
941731.170018
 21
7240718.803185
 31
0.0
210
0.0
220
0.0
230
1.0
  0
TEXT
  8
11
  6
CONTINUOUS
 62
     7
  5
1DA
 10
941474.492
 20
7240142.604
 30
0.0
 40
8.0
  1
145.2'
 50
358.1499
  7
ROMANS
 72
     4
 11
941495.943018
 21
7240145.913185
 31
0.0
210
0.0
220
0.0
230
1.0
  0
TEXT
  8
11
  6
CONTINUOUS
 62
     7
  5
1DB
 10
942207.511
 20
7240118.926
 30
0.0
 40
8.0
  1
145.2'
 50
358.1499
  7
ROMANS
 72
     4
 11
942228.962018
 21
7240122.235185
 31
0.0
210
0.0
220
0.0
230
1.0
  0
TEXT
  8
11
  6
CONTINUOUS
 62
     7
  5
1DC
 10
943086.632
 20
7241721.174
 30
0.0
 40
8.0
  1
1337.55'
 50
358.1499
  7
ROMANS
 72
     4
 11
943116.078848
 21
7241724.224907
 31
0.0
210
0.0
220
0.0
230
1.0
  0
TEXT
  8
11
  6
CONTINUOUS
 62
     7
  5
1DD
 10
942895.421
 20
7236527.552
 30
0.0
 40
8.0
  1
1339.5'
 50
358.1499
  7
ROMANS
 72
     4
 11
942920.869933
 21
7236530.732046
 31
0.0
210
0.0
220
0.0
230
1.0
  0
TEXT
  8
11
  6
CONTINUOUS
 62
     7
  5
1DE
 10
941913.563
 20
7236556.577
 30
0.0
 40
8.0
  1
670'
 50
358.1499
  7
ROMANS
 72
     4
 11
941927.018189
 21
7236560.144463
 31
0.0
210
0.0
220
0.0
230
1.0
  0
TEXT
  8
11
  6
CONTINUOUS
 62
     7
  5
1DF
 10
941632.0
 20
7237314.82
 30
0.0
 40
8.0
  1
1270.8'
 50
358.1499
  7
ROMANS
 72
     4
 11
941657.448933
 21
7237318.000046
 31
0.0
210
0.0
220
0.0
230
1.0
  0
TEXT
  8
11
  6
CONTINUOUS
 62
     7
  5
1E0
 10
941006.558
 20
7236541.973
 30
0.0
 40
8.0
  1
55'
 50
358.1499
  7
ROMANS
 72
     4
 11
941016.015274
 21
7236545.669602
 31
0.0
210
0.0
220
0.0
230
1.0
  0
TEXT
  8
11
  6
CONTINUOUS
 62
     7
  5
1E1
 10
941048.243
 20
7237344.651
 30
0.0
 40
8.0
  1
30'
 50
358.1499
  7
ROMANS
 72
     4
 11
941057.700274
 21
7237348.347602
 31
0.0
210
0.0
220
0.0
230
1.0
  0
TEXT
  8
11
  6
CONTINUOUS
 62
     7
  5
1E2
 10
941049.029
 20
7237199.203
 30
0.0
 40
8.0
  1
40'
 50
358.1499
  7
ROMANS
 72
     4
 11
941058.486274
 21
7237202.899602
 31
0.0
210
0.0
220
0.0
230
1.0
  0
TEXT
  8
11
  6
CONTINUOUS
 62
     7
  5
1E3
 10
941702.912
 20
7238609.032
 30
0.0
 40
8.0
  1
1271.28'
 50
358.1499
  7
ROMANS
 72
     4
 11
941732.358848
 21
7238612.082907
 31
0.0
210
0.0
220
0.0
230
1.0
  0
TEXT
  8
11
  6
CONTINUOUS
 62
     7
  5
1E4
 10
942070.081
 20
7239199.632
 30
0.0
 40
8.0
  1
575.6'
 50
358.1499
  7
ROMANS
 72
     4
 11
942091.532018
 21
7239202.941185
 31
0.0
210
0.0
220
0.0
230
1.0
  0
TEXT
  8
11
  6
CONTINUOUS
 62
     7
  5
1E5
 10
942079.643
 20
7239495.657
 30
0.0
 40
8.0
  1
575.6'
 50
358.1499
  7
ROMANS
 72
     4
 11
942101.094018
 21
7239498.966185
 31
0.0
210
0.0
220
0.0
230
1.0
  0
TEXT
  8
11
  6
CONTINUOUS
 62
     7
  5
1E6
 10
941723.491
 20
7239507.161
 30
0.0
 40
8.0
  1
217.8'
 50
358.1499
  7
ROMANS
 72
     4
 11
941744.942018
 21
7239510.470185
 31
0.0
210
0.0
220
0.0
230
1.0
  0
TEXT
  8
11
  6
CONTINUOUS
 62
     7
  5
1E7
 10
941498.841
 20
7239514.419
 30
0.0
 40
8.0
  1
217.8'
 50
358.1499
  7
ROMANS
 72
     4
 11
941520.292018
 21
7239517.728185
 31
0.0
210
0.0
220
0.0
230
1.0
  0
TEXT
  8
11
  6
CONTINUOUS
 62
     7
  5
1E8
 10
941255.105
 20
7239525.034
 30
0.0
 40
8.0
  1
290.4'
 50
358.1499
  7
ROMANS
 72
     4
 11
941276.556018
 21
7239528.343185
 31
0.0
210
0.0
220
0.0
230
1.0
  0
TEXT
  8
11
  6
CONTINUOUS
 62
     7
  5
1E9
 10
941829.208
 20
7241458.536
 30
0.0
 40
8.0
  1
660'
 50
88.1499
  7
ROMANS
 72
     4
 11
941825.640537
 21
7241471.991189
 31
0.0
210
0.0
220
0.0
230
1.0
  0
TEXT
  8
11
  6
CONTINUOUS
 62
     7
  5
1EA
 10
941184.326
 20
7241202.058
 30
0.0
 40
8.0
  1
660'
 50
88.1499
  7
ROMANS
 72
     4
 11
941180.758537
 21
7241215.513189
 31
0.0
210
0.0
220
0.0
230
1.0
  0
TEXT
  8
11
  6
CONTINUOUS
 62
     7
  5
1EB
 10
941846.406
 20
7241227.787
 30
0.0
 40
8.0
  1
330'
 50
88.1499
  7
ROMANS
 72
     4
 11
941842.838537
 21
7241241.242189
 31
0.0
210
0.0
220
0.0
230
1.0
  0
TEXT
  8
11
  6
CONTINUOUS
 62
     7
  5
1EC
 10
942462.099
 20
7241158.571
 30
0.0
 40
8.0
  1
220'
 50
88.1499
  7
ROMANS
 72
     4
 11
942458.531537
 21
7241172.026189
 31
0.0
210
0.0
220
0.0
230
1.0
  0
TEXT
  8
11
  6
CONTINUOUS
 62
     7
  5
1ED
 10
942472.277
 20
7241321.021
 30
0.0
 40
8.0
  1
110'
 50
88.1499
  7
ROMANS
 72
     4
 11
942468.709537
 21
7241334.476189
 31
0.0
210
0.0
220
0.0
230
1.0
  0
TEXT
  8
11
  6
CONTINUOUS
 62
     7
  5
1EE
 10
942165.276
 20
7241330.938
 30
0.0
 40
8.0
  1
110'
 50
88.1499
  7
ROMANS
 72
     4
 11
942161.708537
 21
7241344.393189
 31
0.0
210
0.0
220
0.0
230
1.0
  0
TEXT
  8
11
  6
CONTINUOUS
 62
     7
  5
1EF
 10
942453.927
 20
7240854.689
 30
0.0
 40
8.0
  1
361.02'
 50
88.1499
  7
ROMANS
 72
     4
 11
942450.746954
 21
7240880.137933
 31
0.0
210
0.0
220
0.0
230
1.0
  0
TEXT
  8
11
  6
CONTINUOUS
 62
     7
  5
1F0
 10
941165.81
 20
7240814.085
 30
0.0
 40
8.0
  1
164.13'
 50
88.1499
  7
ROMANS
 72
     4
 11
941162.629954
 21
7240839.533933
 31
0.0
210
0.0
220
0.0
230
1.0
  0
TEXT
  8
11
  6
CONTINUOUS
 62
     7
  5
1F1
 10
941451.31
 20
7240799.931
 30
0.0
 40
8.0
  1
186.02'
 50
88.1499
  7
ROMANS
 72
     4
 11
941448.129954
 21
7240825.379933
 31
0.0
210
0.0
220
0.0
230
1.0
  0
TEXT
  8
11
  6
CONTINUOUS
 62
     7
  5
1F2
 10
941459.066
 20
7240989.17
 30
0.0
 40
8.0
  1
175'
 50
88.1499
  7
ROMANS
 72
     4
 11
941455.498537
 21
7241002.625189
 31
0.0
210
0.0
220
0.0
230
1.0
  0
TEXT
  8
11
  6
CONTINUOUS
 62
     7
  5
1F3
 10
941067.88
 20
7236680.349
 30
0.0
 40
8.0
  1
300'
 50
88.1499
  7
ROMANS
 72
     4
 11
941064.312537
 21
7236693.804189
 31
0.0
210
0.0
220
0.0
230
1.0
  0
TEXT
  8
11
  6
CONTINUOUS
 62
     7
  5
1F4
 10
941061.644
 20
7236894.302
 30
0.0
 40
8.0
  1
200'
 50
88.1499
  7
ROMANS
 72
     4
 11
941058.076537
 21
7236907.757189
 31
0.0
210
0.0
220
0.0
230
1.0
  0
TEXT
  8
11
  6
CONTINUOUS
 62
     7
  5
1F5
 10
941092.304
 20
7237219.607
 30
0.0
 40
8.0
  1
337.27'
 50
88.1499
  7
ROMANS
 72
     4
 11
941089.123954
 21
7237245.055933
 31
0.0
210
0.0
220
0.0
230
1.0
  0
TEXT
  8
11
  6
CONTINUOUS
 62
     7
  5
1F6
 10
942322.831
 20
7236851.012
 30
0.0
 40
8.0
  1
797.27'
 50
88.1499
  7
ROMANS
 72
     4
 11
942319.650954
 21
7236876.460933
 31
0.0
210
0.0
220
0.0
230
1.0
  0
TEXT
  8
11
  6
CONTINUOUS
 62
     7
  5
1F7
 10
942361.222
 20
7238039.521
 30
0.0
 40
8.0
  1
1321.54'
 50
88.1499
  7
ROMANS
 72
     4
 11
942358.171093
 21
7238068.967848
 31
0.0
210
0.0
220
0.0
230
1.0
  0
TEXT
  8
11
  6
CONTINUOUS
 62
     7
  5
1F8
 10
941110.871
 20
7238099.64
 30
0.0
 40
8.0
  1
1321.54'
 50
88.1499
  7
ROMANS
 72
     4
 11
941107.820093
 21
7238129.086848
 31
0.0
210
0.0
220
0.0
230
1.0
  0
TEXT
  8
11
  6
CONTINUOUS
 62
     7
  5
1F9
 10
941099.917
 20
7238775.377
 30
0.0
 40
8.0
  1
298'
 50
88.1499
  7
ROMANS
 72
     4
 11
941096.349537
 21
7238788.832189
 31
0.0
210
0.0
220
0.0
230
1.0
  0
TEXT
  8
11
  6
CONTINUOUS
 62
     7
  5
1FA
 10
942385.336
 20
7238885.127
 30
0.0
 40
8.0
  1
600'
 50
88.1499
  7
ROMANS
 72
     4
 11
942381.768537
 21
7238898.582189
 31
0.0
210
0.0
220
0.0
230
1.0
  0
TEXT
  8
11
  6
CONTINUOUS
 62
     7
  5
1FB
 10
942428.661
 20
7239310.547
 30
0.0
 40
8.0
  1
5240'
 50
88.1499
  7
ROMANS
 72
     4
 11
942425.222676
 21
7239328.000103
 31
0.0
210
0.0
220
0.0
230
1.0
  0
TEXT
  8
11
  6
CONTINUOUS
 62
     7
  5
1FC
 10
941109.786
 20
7239080.888
 30
0.0
 40
8.0
  1
302'
 50
88.1499
  7
ROMANS
 72
     4
 11
941106.218537
 21
7239094.343189
 31
0.0
210
0.0
220
0.0
230
1.0
  0
TEXT
  8
11
  6
CONTINUOUS
 62
     7
  5
1FD
 10
941125.796
 20
7239373.045
 30
0.0
 40
8.0
  1
300'
 50
88.1499
  7
ROMANS
 72
     4
 11
941122.228537
 21
7239386.500189
 31
0.0
210
0.0
220
0.0
230
1.0
  0
TEXT
  8
11
  6
CONTINUOUS
 62
     7
  5
1FE
 10
942405.805
 20
7239315.256
 30
0.0
 40
8.0
  1
300'
 50
88.1499
  7
ROMANS
 72
     4
 11
942402.237537
 21
7239328.711189
 31
0.0
210
0.0
220
0.0
230
1.0
  0
TEXT
  8
11
  6
CONTINUOUS
 62
     7
  5
1FF
 10
942436.845
 20
7240377.322
 30
0.0
 40
8.0
  1
600'
 50
88.1499
  7
ROMANS
 72
     4
 11
942433.277537
 21
7240390.777189
 31
0.0
210
0.0
220
0.0
230
1.0
  0
TEXT
  8
11
  6
CONTINUOUS
 62
     7
  5
200
 10
942291.413
 20
7240250.48
 30
0.0
 40
8.0
  1
300'
 50
88.1499
  7
ROMANS
 72
     4
 11
942287.845537
 21
7240263.935189
 31
0.0
210
0.0
220
0.0
230
1.0
  0
TEXT
  8
11
  6
CONTINUOUS
 62
     7
  5
201
 10
942303.504
 20
7240523.034
 30
0.0
 40
8.0
  1
300'
 50
88.1499
  7
ROMANS
 72
     4
 11
942299.936537
 21
7240536.489189
 31
0.0
210
0.0
220
0.0
230
1.0
  0
TEXT
  8
11
  6
CONTINUOUS
 62
     7
  5
202
 10
941443.758
 20
7240261.418
 30
0.0
 40
8.0
  1
300'
 50
88.1499
  7
ROMANS
 72
     4
 11
941440.190537
 21
7240274.873189
 31
0.0
210
0.0
220
0.0
230
1.0
  0
TEXT
  8
11
  6
CONTINUOUS
 62
     7
  5
203
 10
941454.051
 20
7240580.069
 30
0.0
 40
8.0
  1
300'
 50
88.1499
  7
ROMANS
 72
     4
 11
941450.483537
 21
7240593.524189
 31
0.0
210
0.0
220
0.0
230
1.0
  0
TEXT
  8
11
  6
CONTINUOUS
 62
     7
  5
204
 10
941432.871
 20
7240636.657
 30
0.0
 40
8.0
  1
150'
 50
88.1499
  7
ROMANS
 72
     4
 11
941429.303537
 21
7240650.112189
 31
0.0
210
0.0
220
0.0
230
1.0
  0
TEXT
  8
11
  6
CONTINUOUS
 62
     7
  5
205
 10
941428.945
 20
7240515.109
 30
0.0
 40
8.0
  1
150'
 50
88.1499
  7
ROMANS
 72
     4
 11
941425.377537
 21
7240528.564189
 31
0.0
210
0.0
220
0.0
230
1.0
  0
TEXT
  8
11
  6
CONTINUOUS
 62
     7
  5
206
 10
941423.851
 20
7240357.427
 30
0.0
 40
8.0
  1
150'
 50
88.1499
  7
ROMANS
 72
     4
 11
941420.283537
 21
7240370.882189
 31
0.0
210
0.0
220
0.0
230
1.0
  0
TEXT
  8
11
  6
CONTINUOUS
 62
     7
  5
207
 10
941418.757
 20
7240199.744
 30
0.0
 40
8.0
  1
150'
 50
88.1499
  7
ROMANS
 72
     4
 11
941415.189537
 21
7240213.199189
 31
0.0
210
0.0
220
0.0
230
1.0
  0
TEXT
  8
11
  6
CONTINUOUS
 62
     7
  5
208
 10
941413.239
 20
7240028.921
 30
0.0
 40
8.0
  1
150'
 50
88.1499
  7
ROMANS
 72
     4
 11
941409.671537
 21
7240042.376189
 31
0.0
210
0.0
220
0.0
230
1.0
  0
TEXT
  8
11
  6
CONTINUOUS
 62
     7
  5
209
 10
941409.313
 20
7239907.375
 30
0.0
 40
8.0
  1
150'
 50
88.1499
  7
ROMANS
 72
     4
 11
941405.745537
 21
7239920.830189
 31
0.0
210
0.0
220
0.0
230
1.0
  0
TEXT
  8
11
  6
CONTINUOUS
 62
     7
  5
20A
 10
941437.597
 20
7239968.942
 30
0.0
 40
8.0
  1
300'
 50
88.1499
  7
ROMANS
 72
     4
 11
941434.029537
 21
7239982.397189
 31
0.0
210
0.0
220
0.0
230
1.0
  0
TEXT
  8
11
  6
CONTINUOUS
 62
     7
  5
20B
 10
941848.026
 20
7239955.685
 30
0.0
 40
8.0
  1
300'
 50
88.1499
  7
ROMANS
 72
     4
 11
941844.458537
 21
7239969.140189
 31
0.0
210
0.0
220
0.0
230
1.0
  0
TEXT
  8
11
  6
CONTINUOUS
 62
     7
  5
20C
 10
942205.92
 20
7239944.124
 30
0.0
 40
8.0
  1
300'
 50
88.1499
  7
ROMANS
 72
     4
 11
942202.352537
 21
7239957.579189
 31
0.0
210
0.0
220
0.0
230
1.0
  0
TEXT
  8
11
  6
CONTINUOUS
 62
     7
  5
20D
 10
942081.663
 20
7239658.752
 30
0.0
 40
8.0
  1
300'
 50
88.1499
  7
ROMANS
 72
     4
 11
942078.095537
 21
7239672.207189
 31
0.0
210
0.0
220
0.0
230
1.0
  0
TEXT
  8
11
  6
CONTINUOUS
 62
     7
  5
20E
 10
941430.906
 20
7239660.04
 30
0.0
 40
8.0
  1
300'
 50
88.1499
  7
ROMANS
 72
     4
 11
941427.338537
 21
7239673.495189
 31
0.0
210
0.0
220
0.0
230
1.0
  0
TEXT
  8
11
  6
CONTINUOUS
 62
     7
  5
20F
 10
942474.049
 20
7241525.898
 30
0.0
 40
8.0
  1
330'
 50
88.1499
  7
ROMANS
 72
     4
 11
942470.481537
 21
7241539.353189
 31
0.0
210
0.0
220
0.0
230
1.0
  0
TEXT
  8
11
  6
CONTINUOUS
 62
     7
  5
210
 10
943708.069
 20
7239090.388
 30
0.0
 40
8.0
  1
5240'
 50
88.1499
  7
ROMANS
 72
     4
 11
943704.630676
 21
7239107.841103
 31
0.0
210
0.0
220
0.0
230
1.0
  0
TEXT
  8
11
  6
CONTINUOUS
 62
     7
  5
211
 10
942416.248
 20
7239786.7
 30
0.0
 40
8.0
  1
600'
 50
88.1499
  7
ROMANS
 72
     4
 11
942412.680537
 21
7239800.155189
 31
0.0
210
0.0
220
0.0
230
1.0
  0
TEXT
  8
11
  6
CONTINUOUS
 62
     7
  5
212
 10
946394.821
 20
7240447.54
 30
0.0
 40
8.0
  1
2640'
 50
88.1499
  7
ROMANS
 72
     4
 11
946391.382676
 21
7240464.993103
 31
0.0
210
0.0
220
0.0
230
1.0
  0
TEXT
  8
11
  6
CONTINUOUS
 62
     7
  5
213
 10
943781.149
 20
7240499.081
 30
0.0
 40
8.0
  1
2640'
 50
88.1499
  7
ROMANS
 72
     4
 11
943777.710676
 21
7240516.534103
 31
0.0
210
0.0
220
0.0
230
1.0
  0
TEXT
  8
11
  6
CONTINUOUS
 62
     7
  5
214
 10
943858.645
 20
7239040.498
 30
0.0
 40
8.0
  1
30'
 50
88.1499
  7
ROMANS
 72
     4
 11
943854.948398
 21
7239049.955274
 31
0.0
210
0.0
220
0.0
230
1.0
  0
TEXT
  8
11
  6
CONTINUOUS
 62
     7
  5
215
 10
944977.52
 20
7239004.356
 30
0.0
 40
8.0
  1
30'
 50
88.1499
  7
ROMANS
 72
     4
 11
944973.823398
 21
7239013.813274
 31
0.0
210
0.0
220
0.0
230
1.0
  0
TEXT
  8
11
  6
CONTINUOUS
 62
     7
  5
216
 10
946122.076
 20
7238967.385
 30
0.0
 40
8.0
  1
30'
 50
88.1499
  7
ROMANS
 72
     4
 11
946118.379398
 21
7238976.842274
 31
0.0
210
0.0
220
0.0
230
1.0
  0
TEXT
  8
11
  6
CONTINUOUS
 62
     7
  5
217
 10
943837.239
 20
7238399.896
 30
0.0
 40
8.0
  1
60'
 50
88.1499
  7
ROMANS
 72
     4
 11
943833.542398
 21
7238409.353274
 31
0.0
210
0.0
220
0.0
230
1.0
  0
TEXT
  8
11
  6
CONTINUOUS
 62
     7
  5
218
 10
946210.723
 20
7238323.228
 30
0.0
 40
8.0
  1
60'
 50
88.1499
  7
ROMANS
 72
     4
 11
946207.026398
 21
7238332.685274
 31
0.0
210
0.0
220
0.0
230
1.0
  0
TEXT
  8
11
  6
CONTINUOUS
 62
     7
  5
219
 10
943816.914
 20
7237748.566
 30
0.0
 40
8.0
  1
56'
 50
88.1499
  7
ROMANS
 72
     4
 11
943813.217398
 21
7237758.023274
 31
0.0
210
0.0
220
0.0
230
1.0
  0
TEXT
  8
11
  6
CONTINUOUS
 62
     7
  5
21A
 10
946183.061
 20
7237672.136
 30
0.0
 40
8.0
  1
56'
 50
88.1499
  7
ROMANS
 72
     4
 11
946179.364398
 21
7237681.593274
 31
0.0
210
0.0
220
0.0
230
1.0
  0
TEXT
  8
11
  6
CONTINUOUS
 62
     7
  5
21B
 10
943821.371
 20
7237090.759
 30
0.0
 40
8.0
  1
56'
 50
88.1499
  7
ROMANS
 72
     4
 11
943817.674398
 21
7237100.216274
 31
0.0
210
0.0
220
0.0
230
1.0
  0
TEXT
  8
11
  6
CONTINUOUS
 62
     7
  5
21C
 10
946180.181
 20
7237014.565
 30
0.0
 40
8.0
  1
56'
 50
88.1499
  7
ROMANS
 72
     4
 11
946176.484398
 21
7237024.022274
 31
0.0
210
0.0
220
0.0
230
1.0
  0
TEXT
  8
11
  6
CONTINUOUS
 62
     7
  5
21D
 10
943786.069
 20
7236452.608
 30
0.0
 40
8.0
  1
55'
 50
88.1499
  7
ROMANS
 72
     4
 11
943782.372398
 21
7236462.065274
 31
0.0
210
0.0
220
0.0
230
1.0
  0
TEXT
  8
11
  6
CONTINUOUS
 62
     7
  5
21E
 10
946144.88
 20
7236376.414
 30
0.0
 40
8.0
  1
55'
 50
88.1499
  7
ROMANS
 72
     4
 11
946141.183398
 21
7236385.871274
 31
0.0
210
0.0
220
0.0
230
1.0
  0
TEXT
  8
11
  6
CONTINUOUS
 62
     7
  5
21F
 10
943750.081
 20
7238862.789
 30
0.0
 40
8.0
  1
290.25'
 50
88.1499
  7
ROMANS
 72
     4
 11
943746.900954
 21
7238888.237933
 31
0.0
210
0.0
220
0.0
230
1.0
  0
TEXT
  8
11
  6
CONTINUOUS
 62
     7
  5
220
 10
944047.225
 20
7238853.189
 30
0.0
 40
8.0
  1
290.25'
 50
88.1499
  7
ROMANS
 72
     4
 11
944044.044954
 21
7238878.637933
 31
0.0
210
0.0
220
0.0
230
1.0
  0
TEXT
  8
11
  6
CONTINUOUS
 62
     7
  5
221
 10
944982.679
 20
7238822.974
 30
0.0
 40
8.0
  1
290.25'
 50
88.1499
  7
ROMANS
 72
     4
 11
944979.498954
 21
7238848.422933
 31
0.0
210
0.0
220
0.0
230
1.0
  0
TEXT
  8
11
  6
CONTINUOUS
 62
     7
  5
222
 10
946303.32
 20
7238780.315
 30
0.0
 40
8.0
  1
290.25'
 50
88.1499
  7
ROMANS
 72
     4
 11
946300.139954
 21
7238805.763933
 31
0.0
210
0.0
220
0.0
230
1.0
  0
TEXT
  8
11
  6
CONTINUOUS
 62
     7
  5
223
 10
946161.009
 20
7238489.481
 30
0.0
 40
8.0
  1
266.25'
 50
88.1499
  7
ROMANS
 72
     4
 11
946157.828954
 21
7238514.929933
 31
0.0
210
0.0
220
0.0
230
1.0
  0
TEXT
  8
11
  6
CONTINUOUS
 62
     7
  5
224
 10
945199.609
 20
7238516.483
 30
0.0
 40
8.0
  1
288.25'
 50
88.1499
  7
ROMANS
 72
     4
 11
945196.428954
 21
7238541.931933
 31
0.0
210
0.0
220
0.0
230
1.0
  0
TEXT
  8
11
  6
CONTINUOUS
 62
     7
  5
225
 10
944842.221
 20
7238535.187
 30
0.0
 40
8.0
  1
288.25'
 50
88.1499
  7
ROMANS
 72
     4
 11
944839.040954
 21
7238560.635933
 31
0.0
210
0.0
220
0.0
230
1.0
  0
TEXT
  8
11
  6
CONTINUOUS
 62
     7
  5
226
 10
943882.102
 20
7238553.659
 30
0.0
 40
8.0
  1
266.25'
 50
88.1499
  7
ROMANS
 72
     4
 11
943878.921954
 21
7238579.107933
 31
0.0
210
0.0
220
0.0
230
1.0
  0
TEXT
  8
11
  6
CONTINUOUS
 62
     7
  5
227
 10
943816.214
 20
7236590.064
 30
0.0
 40
8.0
  1
275.25'
 50
88.1499
  7
ROMANS
 72
     4
 11
943813.033954
 21
7236615.512933
 31
0.0
210
0.0
220
0.0
230
1.0
  0
TEXT
  8
11
  6
CONTINUOUS
 62
     7
  5
228
 10
944777.674
 20
7236564.903
 30
0.0
 40
8.0
  1
275.25'
 50
88.1499
  7
ROMANS
 72
     4
 11
944774.493954
 21
7236590.351933
 31
0.0
210
0.0
220
0.0
230
1.0
  0
TEXT
  8
11
  6
CONTINUOUS
 62
     7
  5
229
 10
945134.517
 20
7236552.198
 30
0.0
 40
8.0
  1
275.25'
 50
88.1499
  7
ROMANS
 72
     4
 11
945131.336954
 21
7236577.646933
 31
0.0
210
0.0
220
0.0
230
1.0
  0
TEXT
  8
11
  6
CONTINUOUS
 62
     7
  5
22A
 10
946093.545
 20
7236524.757
 30
0.0
 40
8.0
  1
275.25'
 50
88.1499
  7
ROMANS
 72
     4
 11
946090.364954
 21
7236550.205933
 31
0.0
210
0.0
220
0.0
230
1.0
  0
TEXT
  8
11
  6
CONTINUOUS
 62
     7
  5
22B
 10
943829.329
 20
7236890.78
 30
0.0
 40
8.0
  1
290.25'
 50
88.1499
  7
ROMANS
 72
     4
 11
943826.148954
 21
7236916.228933
 31
0.0
210
0.0
220
0.0
230
1.0
  0
TEXT
  8
11
  6
CONTINUOUS
 62
     7
  5
22C
 10
944787.316
 20
7236863.373
 30
0.0
 40
8.0
  1
290.25'
 50
88.1499
  7
ROMANS
 72
     4
 11
944784.135954
 21
7236888.821933
 31
0.0
210
0.0
220
0.0
230
1.0
  0
TEXT
  8
11
  6
CONTINUOUS
 62
     7
  5
22D
 10
945147.653
 20
7236849.375
 30
0.0
 40
8.0
  1
290.25'
 50
88.1499
  7
ROMANS
 72
     4
 11
945144.472954
 21
7236874.823933
 31
0.0
210
0.0
220
0.0
230
1.0
  0
TEXT
  8
11
  6
CONTINUOUS
 62
     7
  5
22E
 10
946101.817
 20
7236817.375
 30
0.0
 40
8.0
  1
290.25'
 50
88.1499
  7
ROMANS
 72
     4
 11
946098.636954
 21
7236842.823933
 31
0.0
210
0.0
220
0.0
230
1.0
  0
TEXT
  8
11
  6
CONTINUOUS
 62
     7
  5
22F
 10
946118.499
 20
7237151.314
 30
0.0
 40
8.0
  1
290.25'
 50
88.1499
  7
ROMANS
 72
     4
 11
946115.318954
 21
7237176.762933
 31
0.0
210
0.0
220
0.0
230
1.0
  0
TEXT
  8
11
  6
CONTINUOUS
 62
     7
  5
230
 10
945158.013
 20
7237202.388
 30
0.0
 40
8.0
  1
290.25'
 50
88.1499
  7
ROMANS
 72
     4
 11
945154.832954
 21
7237227.836933
 31
0.0
210
0.0
220
0.0
230
1.0
  0
TEXT
  8
11
  6
CONTINUOUS
 62
     7
  5
231
 10
944798.603
 20
7237212.818
 30
0.0
 40
8.0
  1
290.25'
 50
88.1499
  7
ROMANS
 72
     4
 11
944795.422954
 21
7237238.266933
 31
0.0
210
0.0
220
0.0
230
1.0
  0
TEXT
  8
11
  6
CONTINUOUS
 62
     7
  5
232
 10
943837.372
 20
7237245.047
 30
0.0
 40
8.0
  1
290.25'
 50
88.1499
  7
ROMANS
 72
     4
 11
943834.191954
 21
7237270.495933
 31
0.0
210
0.0
220
0.0
230
1.0
  0
TEXT
  8
11
  6
CONTINUOUS
 62
     7
  5
233
 10
943847.081
 20
7237545.646
 30
0.0
 40
8.0
  1
290.25'
 50
88.1499
  7
ROMANS
 72
     4
 11
943843.900954
 21
7237571.094933
 31
0.0
210
0.0
220
0.0
230
1.0
  0
TEXT
  8
11
  6
CONTINUOUS
 62
     7
  5
234
 10
944815.628
 20
7237516.719
 30
0.0
 40
8.0
  1
290.25'
 50
88.1499
  7
ROMANS
 72
     4
 11
944812.447954
 21
7237542.167933
 31
0.0
210
0.0
220
0.0
230
1.0
  0
TEXT
  8
11
  6
CONTINUOUS
 62
     7
  5
235
 10
945164.13
 20
7237505.462
 30
0.0
 40
8.0
  1
290.25'
 50
88.1499
  7
ROMANS
 72
     4
 11
945160.949954
 21
7237530.910933
 31
0.0
210
0.0
220
0.0
230
1.0
  0
TEXT
  8
11
  6
CONTINUOUS
 62
     7
  5
236
 10
946128.931
 20
7237474.297
 30
0.0
 40
8.0
  1
290.25'
 50
88.1499
  7
ROMANS
 72
     4
 11
946125.750954
 21
7237499.745933
 31
0.0
210
0.0
220
0.0
230
1.0
  0
TEXT
  8
11
  6
CONTINUOUS
 62
     7
  5
237
 10
946139.179
 20
7237813.655
 30
0.0
 40
8.0
  1
290.25'
 50
88.1499
  7
ROMANS
 72
     4
 11
946135.998954
 21
7237839.103933
 31
0.0
210
0.0
220
0.0
230
1.0
  0
TEXT
  8
11
  6
CONTINUOUS
 62
     7
  5
238
 10
945174.377
 20
7237844.82
 30
0.0
 40
8.0
  1
290.25'
 50
88.1499
  7
ROMANS
 72
     4
 11
945171.196954
 21
7237870.268933
 31
0.0
210
0.0
220
0.0
230
1.0
  0
TEXT
  8
11
  6
CONTINUOUS
 62
     7
  5
239
 10
944822.206
 20
7237856.196
 30
0.0
 40
8.0
  1
290.25'
 50
88.1499
  7
ROMANS
 72
     4
 11
944819.025954
 21
7237881.644933
 31
0.0
210
0.0
220
0.0
230
1.0
  0
TEXT
  8
11
  6
CONTINUOUS
 62
     7
  5
23A
 10
943861.34
 20
7237895.488
 30
0.0
 40
8.0
  1
290.25'
 50
88.1499
  7
ROMANS
 72
     4
 11
943858.159954
 21
7237920.936933
 31
0.0
210
0.0
220
0.0
230
1.0
  0
TEXT
  8
11
  6
CONTINUOUS
 62
     7
  5
23B
 10
943867.957
 20
7238214.013
 30
0.0
 40
8.0
  1
288.25'
 50
88.1499
  7
ROMANS
 72
     4
 11
943864.776954
 21
7238239.461933
 31
0.0
210
0.0
220
0.0
230
1.0
  0
TEXT
  8
11
  6
CONTINUOUS
 62
     7
  5
23C
 10
944832.648
 20
7238179.441
 30
0.0
 40
8.0
  1
288.25'
 50
88.1499
  7
ROMANS
 72
     4
 11
944829.467954
 21
7238204.889933
 31
0.0
210
0.0
220
0.0
230
1.0
  0
TEXT
  8
11
  6
CONTINUOUS
 62
     7
  5
23D
 10
945189.331
 20
7238161.896
 30
0.0
 40
8.0
  1
288.25'
 50
88.1499
  7
ROMANS
 72
     4
 11
945186.150954
 21
7238187.344933
 31
0.0
210
0.0
220
0.0
230
1.0
  0
TEXT
  8
11
  6
CONTINUOUS
 62
     7
  5
23E
 10
946149.718
 20
7238139.913
 30
0.0
 40
8.0
  1
288.25'
 50
88.1499
  7
ROMANS
 72
     4
 11
946146.537954
 21
7238165.361933
 31
0.0
210
0.0
220
0.0
230
1.0
  0
TEXT
  8
11
  6
CONTINUOUS
 62
     7
  5
23F
 10
943961.825
 20
7239016.709
 30
0.0
 40
8.0
  1
157'
 50
358.1499
  7
ROMANS
 72
     4
 11
943975.280189
 21
7239020.276463
 31
0.0
210
0.0
220
0.0
230
1.0
  0
TEXT
  8
11
  6
CONTINUOUS
 62
     7
  5
240
 10
943803.001
 20
7238760.978
 30
0.0
 40
8.0
  1
160'
 50
358.1499
  7
ROMANS
 72
     4
 11
943816.456189
 21
7238764.545463
 31
0.0
210
0.0
220
0.0
230
1.0
  0
TEXT
  8
11
  6
CONTINUOUS
 62
     7
  5
241
 10
944309.008
 20
7238737.284
 30
0.0
 40
8.0
  1
628'
 50
358.1499
  7
ROMANS
 72
     4
 11
944322.463189
 21
7238740.851463
 31
0.0
210
0.0
220
0.0
230
1.0
  0
TEXT
  8
11
  6
CONTINUOUS
 62
     7
  5
242
 10
944833.716
 20
7238724.011
 30
0.0
 40
8.0
  1
317'
 50
358.1499
  7
ROMANS
 72
     4
 11
944847.171189
 21
7238727.578463
 31
0.0
210
0.0
220
0.0
230
1.0
  0
TEXT
  8
11
  6
CONTINUOUS
 62
     7
  5
243
 10
945197.01
 20
7238715.95
 30
0.0
 40
8.0
  1
373'
 50
358.1499
  7
ROMANS
 72
     4
 11
945210.465189
 21
7238719.517463
 31
0.0
210
0.0
220
0.0
230
1.0
  0
TEXT
  8
11
  6
CONTINUOUS
 62
     7
  5
244
 10
945505.042
 20
7238702.326
 30
0.0
 40
8.0
  1
314'
 50
358.1499
  7
ROMANS
 72
     4
 11
945518.497189
 21
7238705.893463
 31
0.0
210
0.0
220
0.0
230
1.0
  0
TEXT
  8
11
  6
CONTINUOUS
 62
     7
  5
245
 10
945824.196
 20
7238692.017
 30
0.0
 40
8.0
  1
314'
 50
358.1499
  7
ROMANS
 72
     4
 11
945837.651189
 21
7238695.584463
 31
0.0
210
0.0
220
0.0
230
1.0
  0
TEXT
  8
11
  6
CONTINUOUS
 62
     7
  5
246
 10
946055.247
 20
7238682.634
 30
0.0
 40
8.0
  1
143'
 50
358.1499
  7
ROMANS
 72
     4
 11
946068.702189
 21
7238686.201463
 31
0.0
210
0.0
220
0.0
230
1.0
  0
TEXT
  8
11
  6
CONTINUOUS
 62
     7
  5
247
 10
946212.933
 20
7238675.785
 30
0.0
 40
8.0
  1
164'
 50
358.1499
  7
ROMANS
 72
     4
 11
946226.388189
 21
7238679.352463
 31
0.0
210
0.0
220
0.0
230
1.0
  0
TEXT
  8
11
  6
CONTINUOUS
 62
     7
  5
248
 10
946211.684
 20
7238642.678
 30
0.0
 40
8.0
  1
160'
 50
358.1499
  7
ROMANS
 72
     4
 11
946225.139189
 21
7238646.245463
 31
0.0
210
0.0
220
0.0
230
1.0
  0
TEXT
  8
11
  6
CONTINUOUS
 62
     7
  5
249
 10
946044.615
 20
7238375.596
 30
0.0
 40
8.0
  1
157'
 50
358.1499
  7
ROMANS
 72
     4
 11
946058.070189
 21
7238379.163463
 31
0.0
210
0.0
220
0.0
230
1.0
  0
TEXT
  8
11
  6
CONTINUOUS
 62
     7
  5
24A
 10
945891.594
 20
7238380.54
 30
0.0
 40
8.0
  1
157'
 50
358.1499
  7
ROMANS
 72
     4
 11
945905.049189
 21
7238384.107463
 31
0.0
210
0.0
220
0.0
230
1.0
  0
TEXT
  8
11
  6
CONTINUOUS
 62
     7
  5
24B
 10
945736.621
 20
7238384.847
 30
0.0
 40
8.0
  1
157'
 50
358.1499
  7
ROMANS
 72
     4
 11
945750.076189
 21
7238388.414463
 31
0.0
210
0.0
220
0.0
230
1.0
  0
TEXT
  8
11
  6
CONTINUOUS
 62
     7
  5
24C
 10
945580.452
 20
7238389.891
 30
0.0
 40
8.0
  1
157'
 50
358.1499
  7
ROMANS
 72
     4
 11
945593.907189
 21
7238393.458463
 31
0.0
210
0.0
220
0.0
230
1.0
  0
TEXT
  8
11
  6
CONTINUOUS
 62
     7
  5
24D
 10
945424.647
 20
7238395.623
 30
0.0
 40
8.0
  1
157'
 50
358.1499
  7
ROMANS
 72
     4
 11
945438.102189
 21
7238399.190463
 31
0.0
210
0.0
220
0.0
230
1.0
  0
TEXT
  8
11
  6
CONTINUOUS
 62
     7
  5
24E
 10
945266.881
 20
7238400.019
 30
0.0
 40
8.0
  1
157'
 50
358.1499
  7
ROMANS
 72
     4
 11
945280.336189
 21
7238403.586463
 31
0.0
210
0.0
220
0.0
230
1.0
  0
TEXT
  8
11
  6
CONTINUOUS
 62
     7
  5
24F
 10
945110.553
 20
7238676.326
 30
0.0
 40
8.0
  1
160'
 50
358.1499
  7
ROMANS
 72
     4
 11
945124.008189
 21
7238679.893463
 31
0.0
210
0.0
220
0.0
230
1.0
  0
TEXT
  8
11
  6
CONTINUOUS
 62
     7
  5
250
 10
943797.25
 20
7238718.749
 30
0.0
 40
8.0
  1
160'
 50
358.1499
  7
ROMANS
 72
     4
 11
943810.705189
 21
7238722.316463
 31
0.0
210
0.0
220
0.0
230
1.0
  0
TEXT
  8
11
  6
CONTINUOUS
 62
     7
  5
251
 10
944897.784
 20
7238683.199
 30
0.0
 40
8.0
  1
160'
 50
358.1499
  7
ROMANS
 72
     4
 11
944911.239189
 21
7238686.766463
 31
0.0
210
0.0
220
0.0
230
1.0
  0
TEXT
  8
11
  6
CONTINUOUS
 62
     7
  5
252
 10
943947.191
 20
7238445.444
 30
0.0
 40
8.0
  1
157'
 50
358.1499
  7
ROMANS
 72
     4
 11
943960.646189
 21
7238449.011463
 31
0.0
210
0.0
220
0.0
230
1.0
  0
TEXT
  8
11
  6
CONTINUOUS
 62
     7
  5
253
 10
944736.383
 20
7238418.554
 30
0.0
 40
8.0
  1
157'
 50
358.1499
  7
ROMANS
 72
     4
 11
944749.838189
 21
7238422.121463
 31
0.0
210
0.0
220
0.0
230
1.0
  0
TEXT
  8
11
  6
CONTINUOUS
 62
     7
  5
254
 10
944577.577
 20
7238422.984
 30
0.0
 40
8.0
  1
157'
 50
358.1499
  7
ROMANS
 72
     4
 11
944591.032189
 21
7238426.551463
 31
0.0
210
0.0
220
0.0
230
1.0
  0
TEXT
  8
11
  6
CONTINUOUS
 62
     7
  5
255
 10
944423.161
 20
7238427.972
 30
0.0
 40
8.0
  1
157'
 50
358.1499
  7
ROMANS
 72
     4
 11
944436.616189
 21
7238431.539463
 31
0.0
210
0.0
220
0.0
230
1.0
  0
TEXT
  8
11
  6
CONTINUOUS
 62
     7
  5
256
 10
944261.727
 20
7238432.487
 30
0.0
 40
8.0
  1
157'
 50
358.1499
  7
ROMANS
 72
     4
 11
944275.182189
 21
7238436.054463
 31
0.0
210
0.0
220
0.0
230
1.0
  0
TEXT
  8
11
  6
CONTINUOUS
 62
     7
  5
257
 10
944100.337
 20
7238438.4
 30
0.0
 40
8.0
  1
157'
 50
358.1499
  7
ROMANS
 72
     4
 11
944113.792189
 21
7238441.967463
 31
0.0
210
0.0
220
0.0
230
1.0
  0
TEXT
  8
11
  6
CONTINUOUS
 62
     7
  5
258
 10
943774.311
 20
7238100.753
 30
0.0
 40
8.0
  1
160'
 50
358.1499
  7
ROMANS
 72
     4
 11
943787.766189
 21
7238104.320463
 31
0.0
210
0.0
220
0.0
230
1.0
  0
TEXT
  8
11
  6
CONTINUOUS
 62
     7
  5
259
 10
944877.849
 20
7238066.076
 30
0.0
 40
8.0
  1
160'
 50
358.1499
  7
ROMANS
 72
     4
 11
944891.304189
 21
7238069.643463
 31
0.0
210
0.0
220
0.0
230
1.0
  0
TEXT
  8
11
  6
CONTINUOUS
 62
     7
  5
25A
 10
945090.269
 20
7238059.215
 30
0.0
 40
8.0
  1
160'
 50
358.1499
  7
ROMANS
 72
     4
 11
945103.724189
 21
7238062.782463
 31
0.0
210
0.0
220
0.0
230
1.0
  0
TEXT
  8
11
  6
CONTINUOUS
 62
     7
  5
25B
 10
946196.677
 20
7238022.077
 30
0.0
 40
8.0
  1
160'
 50
358.1499
  7
ROMANS
 72
     4
 11
946210.132189
 21
7238025.644463
 31
0.0
210
0.0
220
0.0
230
1.0
  0
TEXT
  8
11
  6
CONTINUOUS
 62
     7
  5
25C
 10
946049.432
 20
7238297.391
 30
0.0
 40
8.0
  1
157'
 50
358.1499
  7
ROMANS
 72
     4
 11
946062.887189
 21
7238300.958463
 31
0.0
210
0.0
220
0.0
230
1.0
  0
TEXT
  8
11
  6
CONTINUOUS
 62
     7
  5
25D
 10
945886.12
 20
7238302.667
 30
0.0
 40
8.0
  1
157'
 50
358.1499
  7
ROMANS
 72
     4
 11
945899.575189
 21
7238306.234463
 31
0.0
210
0.0
220
0.0
230
1.0
  0
TEXT
  8
11
  6
CONTINUOUS
 62
     7
  5
25E
 10
945729.618
 20
7238308.42
 30
0.0
 40
8.0
  1
157'
 50
358.1499
  7
ROMANS
 72
     4
 11
945743.073189
 21
7238311.987463
 31
0.0
210
0.0
220
0.0
230
1.0
  0
TEXT
  8
11
  6
CONTINUOUS
 62
     7
  5
25F
 10
945570.278
 20
7238312.869
 30
0.0
 40
8.0
  1
157'
 50
358.1499
  7
ROMANS
 72
     4
 11
945583.733189
 21
7238316.436463
 31
0.0
210
0.0
220
0.0
230
1.0
  0
TEXT
  8
11
  6
CONTINUOUS
 62
     7
  5
260
 10
945411.727
 20
7238320.089
 30
0.0
 40
8.0
  1
157'
 50
358.1499
  7
ROMANS
 72
     4
 11
945425.182189
 21
7238323.656463
 31
0.0
210
0.0
220
0.0
230
1.0
  0
TEXT
  8
11
  6
CONTINUOUS
 62
     7
  5
261
 10
945253.357
 20
7238322.407
 30
0.0
 40
8.0
  1
157'
 50
358.1499
  7
ROMANS
 72
     4
 11
945266.812189
 21
7238325.974463
 31
0.0
210
0.0
220
0.0
230
1.0
  0
TEXT
  8
11
  6
CONTINUOUS
 62
     7
  5
262
 10
944722.911
 20
7238341.639
 30
0.0
 40
8.0
  1
157'
 50
358.1499
  7
ROMANS
 72
     4
 11
944736.366189
 21
7238345.206463
 31
0.0
210
0.0
220
0.0
230
1.0
  0
TEXT
  8
11
  6
CONTINUOUS
 62
     7
  5
263
 10
944570.39
 20
7238345.866
 30
0.0
 40
8.0
  1
157'
 50
358.1499
  7
ROMANS
 72
     4
 11
944583.845189
 21
7238349.433463
 31
0.0
210
0.0
220
0.0
230
1.0
  0
TEXT
  8
11
  6
CONTINUOUS
 62
     7
  5
264
 10
944413.396
 20
7238353.034
 30
0.0
 40
8.0
  1
157'
 50
358.1499
  7
ROMANS
 72
     4
 11
944426.851189
 21
7238356.601463
 31
0.0
210
0.0
220
0.0
230
1.0
  0
TEXT
  8
11
  6
CONTINUOUS
 62
     7
  5
265
 10
944259.253
 20
7238355.917
 30
0.0
 40
8.0
  1
157'
 50
358.1499
  7
ROMANS
 72
     4
 11
944272.708189
 21
7238359.484463
 31
0.0
210
0.0
220
0.0
230
1.0
  0
TEXT
  8
11
  6
CONTINUOUS
 62
     7
  5
266
 10
944105.179
 20
7238360.893
 30
0.0
 40
8.0
  1
157'
 50
358.1499
  7
ROMANS
 72
     4
 11
944118.634189
 21
7238364.460463
 31
0.0
210
0.0
220
0.0
230
1.0
  0
TEXT
  8
11
  6
CONTINUOUS
 62
     7
  5
267
 10
943940.122
 20
7238366.924
 30
0.0
 40
8.0
  1
157'
 50
358.1499
  7
ROMANS
 72
     4
 11
943953.577189
 21
7238370.491463
 31
0.0
210
0.0
220
0.0
230
1.0
  0
TEXT
  8
11
  6
CONTINUOUS
 62
     7
  5
268
 10
943754.824
 20
7237443.377
 30
0.0
 40
8.0
  1
160'
 50
358.1499
  7
ROMANS
 72
     4
 11
943768.279189
 21
7237446.944463
 31
0.0
210
0.0
220
0.0
230
1.0
  0
TEXT
  8
11
  6
CONTINUOUS
 62
     7
  5
269
 10
944857.503
 20
7237414.085
 30
0.0
 40
8.0
  1
160'
 50
358.1499
  7
ROMANS
 72
     4
 11
944870.958189
 21
7237417.652463
 31
0.0
210
0.0
220
0.0
230
1.0
  0
TEXT
  8
11
  6
CONTINUOUS
 62
     7
  5
26A
 10
945066.606
 20
7237407.331
 30
0.0
 40
8.0
  1
160'
 50
358.1499
  7
ROMANS
 72
     4
 11
945080.061189
 21
7237410.898463
 31
0.0
210
0.0
220
0.0
230
1.0
  0
TEXT
  8
11
  6
CONTINUOUS
 62
     7
  5
26B
 10
946175.558
 20
7237366.347
 30
0.0
 40
8.0
  1
160'
 50
358.1499
  7
ROMANS
 72
     4
 11
946189.013189
 21
7237369.914463
 31
0.0
210
0.0
220
0.0
230
1.0
  0
TEXT
  8
11
  6
CONTINUOUS
 62
     7
  5
26C
 10
946028.998
 20
7237642.675
 30
0.0
 40
8.0
  1
157'
 50
358.1499
  7
ROMANS
 72
     4
 11
946042.453189
 21
7237646.242463
 31
0.0
210
0.0
220
0.0
230
1.0
  0
TEXT
  8
11
  6
CONTINUOUS
 62
     7
  5
26D
 10
945868.434
 20
7237648.895
 30
0.0
 40
8.0
  1
157'
 50
358.1499
  7
ROMANS
 72
     4
 11
945881.889189
 21
7237652.462463
 31
0.0
210
0.0
220
0.0
230
1.0
  0
TEXT
  8
11
  6
CONTINUOUS
 62
     7
  5
26E
 10
945710.082
 20
7237652.976
 30
0.0
 40
8.0
  1
157'
 50
358.1499
  7
ROMANS
 72
     4
 11
945723.537189
 21
7237656.543463
 31
0.0
210
0.0
220
0.0
230
1.0
  0
TEXT
  8
11
  6
CONTINUOUS
 62
     7
  5
26F
 10
945563.106
 20
7237657.725
 30
0.0
 40
8.0
  1
157'
 50
358.1499
  7
ROMANS
 72
     4
 11
945576.561189
 21
7237661.292463
 31
0.0
210
0.0
220
0.0
230
1.0
  0
TEXT
  8
11
  6
CONTINUOUS
 62
     7
  5
270
 10
945401.695
 20
7237662.938
 30
0.0
 40
8.0
  1
157'
 50
358.1499
  7
ROMANS
 72
     4
 11
945415.150189
 21
7237666.505463
 31
0.0
210
0.0
220
0.0
230
1.0
  0
TEXT
  8
11
  6
CONTINUOUS
 62
     7
  5
271
 10
945245.351
 20
7237669.021
 30
0.0
 40
8.0
  1
157'
 50
358.1499
  7
ROMANS
 72
     4
 11
945258.806189
 21
7237672.588463
 31
0.0
210
0.0
220
0.0
230
1.0
  0
TEXT
  8
11
  6
CONTINUOUS
 62
     7
  5
272
 10
944715.761
 20
7237687.124
 30
0.0
 40
8.0
  1
157'
 50
358.1499
  7
ROMANS
 72
     4
 11
944729.216189
 21
7237690.691463
 31
0.0
210
0.0
220
0.0
230
1.0
  0
TEXT
  8
11
  6
CONTINUOUS
 62
     7
  5
273
 10
944549.975
 20
7237691.78
 30
0.0
 40
8.0
  1
157'
 50
358.1499
  7
ROMANS
 72
     4
 11
944563.430189
 21
7237695.347463
 31
0.0
210
0.0
220
0.0
230
1.0
  0
TEXT
  8
11
  6
CONTINUOUS
 62
     7
  5
274
 10
944392.937
 20
7237697.552
 30
0.0
 40
8.0
  1
157'
 50
358.1499
  7
ROMANS
 72
     4
 11
944406.392189
 21
7237701.119463
 31
0.0
210
0.0
220
0.0
230
1.0
  0
TEXT
  8
11
  6
CONTINUOUS
 62
     7
  5
275
 10
944238.862
 20
7237702.529
 30
0.0
 40
8.0
  1
157'
 50
358.1499
  7
ROMANS
 72
     4
 11
944252.317189
 21
7237706.096463
 31
0.0
210
0.0
220
0.0
230
1.0
  0
TEXT
  8
11
  6
CONTINUOUS
 62
     7
  5
276
 10
944084.788
 20
7237707.506
 30
0.0
 40
8.0
  1
157'
 50
358.1499
  7
ROMANS
 72
     4
 11
944098.243189
 21
7237711.073463
 31
0.0
210
0.0
220
0.0
230
1.0
  0
TEXT
  8
11
  6
CONTINUOUS
 62
     7
  5
277
 10
943929.525
 20
7237713.919
 30
0.0
 40
8.0
  1
157'
 50
358.1499
  7
ROMANS
 72
     4
 11
943942.980189
 21
7237717.486463
 31
0.0
210
0.0
220
0.0
230
1.0
  0
TEXT
  8
11
  6
CONTINUOUS
 62
     7
  5
278
 10
943731.539
 20
7236786.449
 30
0.0
 40
8.0
  1
160'
 50
358.1499
  7
ROMANS
 72
     4
 11
943744.994189
 21
7236790.016463
 31
0.0
210
0.0
220
0.0
230
1.0
  0
TEXT
  8
11
  6
CONTINUOUS
 62
     7
  5
279
 10
944836.111
 20
7236751.802
 30
0.0
 40
8.0
  1
160'
 50
358.1499
  7
ROMANS
 72
     4
 11
944849.566189
 21
7236755.369463
 31
0.0
210
0.0
220
0.0
230
1.0
  0
TEXT
  8
11
  6
CONTINUOUS
 62
     7
  5
27A
 10
945045.179
 20
7236744.017
 30
0.0
 40
8.0
  1
160'
 50
358.1499
  7
ROMANS
 72
     4
 11
945058.634189
 21
7236747.584463
 31
0.0
210
0.0
220
0.0
230
1.0
  0
TEXT
  8
11
  6
CONTINUOUS
 62
     7
  5
27B
 10
946156.316
 20
7236709.158
 30
0.0
 40
8.0
  1
160'
 50
358.1499
  7
ROMANS
 72
     4
 11
946169.771189
 21
7236712.725463
 31
0.0
210
0.0
220
0.0
230
1.0
  0
TEXT
  8
11
  6
CONTINUOUS
 62
     7
  5
27C
 10
946007.804
 20
7236986.546
 30
0.0
 40
8.0
  1
157'
 50
358.1499
  7
ROMANS
 72
     4
 11
946021.259189
 21
7236990.113463
 31
0.0
210
0.0
220
0.0
230
1.0
  0
TEXT
  8
11
  6
CONTINUOUS
 62
     7
  5
27D
 10
945845.143
 20
7236990.304
 30
0.0
 40
8.0
  1
157'
 50
358.1499
  7
ROMANS
 72
     4
 11
945858.598189
 21
7236993.871463
 31
0.0
210
0.0
220
0.0
230
1.0
  0
TEXT
  8
11
  6
CONTINUOUS
 62
     7
  5
27E
 10
945696.298
 20
7236995.209
 30
0.0
 40
8.0
  1
157'
 50
358.1499
  7
ROMANS
 72
     4
 11
945709.753189
 21
7236998.776463
 31
0.0
210
0.0
220
0.0
230
1.0
  0
TEXT
  8
11
  6
CONTINUOUS
 62
     7
  5
27F
 10
945532.838
 20
7237001.887
 30
0.0
 40
8.0
  1
157'
 50
358.1499
  7
ROMANS
 72
     4
 11
945546.293189
 21
7237005.454463
 31
0.0
210
0.0
220
0.0
230
1.0
  0
TEXT
  8
11
  6
CONTINUOUS
 62
     7
  5
280
 10
945377.754
 20
7237008.296
 30
0.0
 40
8.0
  1
157'
 50
358.1499
  7
ROMANS
 72
     4
 11
945391.209189
 21
7237011.863463
 31
0.0
210
0.0
220
0.0
230
1.0
  0
TEXT
  8
11
  6
CONTINUOUS
 62
     7
  5
281
 10
945220.781
 20
7237010.57
 30
0.0
 40
8.0
  1
157'
 50
358.1499
  7
ROMANS
 72
     4
 11
945234.236189
 21
7237014.137463
 31
0.0
210
0.0
220
0.0
230
1.0
  0
TEXT
  8
11
  6
CONTINUOUS
 62
     7
  5
282
 10
944686.126
 20
7237029.239
 30
0.0
 40
8.0
  1
157'
 50
358.1499
  7
ROMANS
 72
     4
 11
944699.581189
 21
7237032.806463
 31
0.0
210
0.0
220
0.0
230
1.0
  0
TEXT
  8
11
  6
CONTINUOUS
 62
     7
  5
283
 10
944528.693
 20
7237032.925
 30
0.0
 40
8.0
  1
157'
 50
358.1499
  7
ROMANS
 72
     4
 11
944542.148189
 21
7237036.492463
 31
0.0
210
0.0
220
0.0
230
1.0
  0
TEXT
  8
11
  6
CONTINUOUS
 62
     7
  5
284
 10
944371.678
 20
7237039.395
 30
0.0
 40
8.0
  1
157'
 50
358.1499
  7
ROMANS
 72
     4
 11
944385.133189
 21
7237042.962463
 31
0.0
210
0.0
220
0.0
230
1.0
  0
TEXT
  8
11
  6
CONTINUOUS
 62
     7
  5
285
 10
944217.558
 20
7237042.975
 30
0.0
 40
8.0
  1
157'
 50
358.1499
  7
ROMANS
 72
     4
 11
944231.013189
 21
7237046.542463
 31
0.0
210
0.0
220
0.0
230
1.0
  0
TEXT
  8
11
  6
CONTINUOUS
 62
     7
  5
286
 10
944063.506
 20
7237048.651
 30
0.0
 40
8.0
  1
157'
 50
358.1499
  7
ROMANS
 72
     4
 11
944076.961189
 21
7237052.218463
 31
0.0
210
0.0
220
0.0
230
1.0
  0
TEXT
  8
11
  6
CONTINUOUS
 62
     7
  5
287
 10
943898.471
 20
7237055.379
 30
0.0
 40
8.0
  1
157'
 50
358.1499
  7
ROMANS
 72
     4
 11
943911.926189
 21
7237058.946463
 31
0.0
210
0.0
220
0.0
230
1.0
  0
TEXT
  8
11
  6
CONTINUOUS
 62
     7
  5
288
 10
945006.831
 20
7238639.262
 30
0.0
 40
8.0
  1
56'
 50
358.1499
  7
ROMANS
 72
     4
 11
945016.288274
 21
7238642.958602
 31
0.0
210
0.0
220
0.0
230
1.0
  0
TEXT
  8
11
  6
CONTINUOUS
 62
     7
  5
289
 10
944974.176
 20
7237606.225
 30
0.0
 40
8.0
  1
56'
 50
358.1499
  7
ROMANS
 72
     4
 11
944983.633274
 21
7237609.921602
 31
0.0
210
0.0
220
0.0
230
1.0
  0
TEXT
  8
11
  6
CONTINUOUS
 62
     7
  5
28A
 10
944938.136
 20
7236490.465
 30
0.0
 40
8.0
  1
56'
 50
358.1499
  7
ROMANS
 72
     4
 11
944947.593274
 21
7236494.161602
 31
0.0
210
0.0
220
0.0
230
1.0
  0
TEXT
  8
11
  6
CONTINUOUS
 62
     7
  5
28B
 10
946243.984
 20
7236444.61
 30
0.0
 40
8.0
  1
30'
 50
358.1499
  7
ROMANS
 72
     4
 11
946253.441274
 21
7236448.306602
 31
0.0
210
0.0
220
0.0
230
1.0
  0
TEXT
  8
11
  6
CONTINUOUS
 62
     7
  5
28C
 10
946287.613
 20
7237795.266
 30
0.0
 40
8.0
  1
30'
 50
358.1499
  7
ROMANS
 72
     4
 11
946297.070274
 21
7237798.962602
 31
0.0
210
0.0
220
0.0
230
1.0
  0
TEXT
  8
11
  6
CONTINUOUS
 62
     7
  5
28D
 10
946313.22
 20
7238588.041
 30
0.0
 40
8.0
  1
30'
 50
358.1499
  7
ROMANS
 72
     4
 11
946322.677274
 21
7238591.737602
 31
0.0
210
0.0
220
0.0
230
1.0
  0
TEXT
  8
11
  6
CONTINUOUS
 62
     7
  5
28E
 10
946320.459
 20
7238925.825
 30
0.0
 40
8.0
  1
40'
 50
358.1499
  7
ROMANS
 72
     4
 11
946329.916274
 21
7238929.521602
 31
0.0
210
0.0
220
0.0
230
1.0
  0
TEXT
  8
11
  6
CONTINUOUS
 62
     7
  5
28F
 10
943715.139
 20
7238969.546
 30
0.0
 40
8.0
  1
30'
 50
358.1499
  7
ROMANS
 72
     4
 11
943724.596274
 21
7238973.242602
 31
0.0
210
0.0
220
0.0
230
1.0
  0
TEXT
  8
11
  6
CONTINUOUS
 62
     7
  5
290
 10
943671.748
 20
7237626.23
 30
0.0
 40
8.0
  1
30'
 50
358.1499
  7
ROMANS
 72
     4
 11
943681.205274
 21
7237629.926602
 31
0.0
210
0.0
220
0.0
230
1.0
  0
TEXT
  8
11
  6
CONTINUOUS
 62
     7
  5
291
 10
943637.248
 20
7236558.185
 30
0.0
 40
8.0
  1
30'
 50
358.1499
  7
ROMANS
 72
     4
 11
943646.705274
 21
7236561.881602
 31
0.0
210
0.0
220
0.0
230
1.0
  0
TEXT
  8
11
  6
CONTINUOUS
 62
     7
  5
292
 10
945090.295
 20
7239039.458
 30
0.0
 40
8.0
  1
2640'
 50
358.1499
  7
ROMANS
 72
     4
 11
945107.748103
 21
7239042.896324
 31
0.0
210
0.0
220
0.0
230
1.0
  0
TEXT
  8
11
  6
CONTINUOUS
 62
     7
  5
293
 10
941406.362
 20
7239546.067
 30
0.0
 40
8.0
  1
30'
 50
88.1499
  7
ROMANS
 72
     4
 11
941402.665398
 21
7239555.524274
 31
0.0
210
0.0
220
0.0
230
1.0
  0
TEXT
  8
11
  6
CONTINUOUS
 62
     7
  5
294
 10
943732.634
 20
7236748.304
 30
0.0
 40
8.0
  1
160'
 50
358.1499
  7
ROMANS
 72
     4
 11
943746.089189
 21
7236751.871463
 31
0.0
210
0.0
220
0.0
230
1.0
  0
TEXT
  8
11
  6
CONTINUOUS
 62
     7
  5
295
 10
943885.953
 20
7236485.472
 30
0.0
 40
8.0
  1
157'
 50
358.1499
  7
ROMANS
 72
     4
 11
943899.408189
 21
7236489.039463
 31
0.0
210
0.0
220
0.0
230
1.0
  0
TEXT
  8
11
  6
CONTINUOUS
 62
     7
  5
296
 10
944045.827
 20
7236480.306
 30
0.0
 40
8.0
  1
157'
 50
358.1499
  7
ROMANS
 72
     4
 11
944059.282189
 21
7236483.873463
 31
0.0
210
0.0
220
0.0
230
1.0
  0
TEXT
  8
11
  6
CONTINUOUS
 62
     7
  5
297
 10
944202.637
 20
7236475.241
 30
0.0
 40
8.0
  1
157'
 50
358.1499
  7
ROMANS
 72
     4
 11
944216.092189
 21
7236478.808463
 31
0.0
210
0.0
220
0.0
230
1.0
  0
TEXT
  8
11
  6
CONTINUOUS
 62
     7
  5
298
 10
944355.502
 20
7236470.304
 30
0.0
 40
8.0
  1
157'
 50
358.1499
  7
ROMANS
 72
     4
 11
944368.957189
 21
7236473.871463
 31
0.0
210
0.0
220
0.0
230
1.0
  0
TEXT
  8
11
  6
CONTINUOUS
 62
     7
  5
299
 10
944509.23
 20
7236465.338
 30
0.0
 40
8.0
  1
157'
 50
358.1499
  7
ROMANS
 72
     4
 11
944522.685189
 21
7236468.905463
 31
0.0
210
0.0
220
0.0
230
1.0
  0
TEXT
  8
11
  6
CONTINUOUS
 62
     7
  5
29A
 10
944666.282
 20
7236460.264
 30
0.0
 40
8.0
  1
157'
 50
358.1499
  7
ROMANS
 72
     4
 11
944679.737189
 21
7236463.831463
 31
0.0
210
0.0
220
0.0
230
1.0
  0
TEXT
  8
11
  6
CONTINUOUS
 62
     7
  5
29B
 10
944834.913
 20
7236714.724
 30
0.0
 40
8.0
  1
160'
 50
358.1499
  7
ROMANS
 72
     4
 11
944848.368189
 21
7236718.291463
 31
0.0
210
0.0
220
0.0
230
1.0
  0
TEXT
  8
11
  6
CONTINUOUS
 62
     7
  5
29C
 10
945043.97
 20
7236706.572
 30
0.0
 40
8.0
  1
160'
 50
358.1499
  7
ROMANS
 72
     4
 11
945057.425189
 21
7236710.139463
 31
0.0
210
0.0
220
0.0
230
1.0
  0
TEXT
  8
11
  6
CONTINUOUS
 62
     7
  5
29D
 10
945193.388
 20
7236443.772
 30
0.0
 40
8.0
  1
157'
 50
358.1499
  7
ROMANS
 72
     4
 11
945206.843189
 21
7236447.339463
 31
0.0
210
0.0
220
0.0
230
1.0
  0
TEXT
  8
11
  6
CONTINUOUS
 62
     7
  5
29E
 10
945361.934
 20
7236438.328
 30
0.0
 40
8.0
  1
157'
 50
358.1499
  7
ROMANS
 72
     4
 11
945375.389189
 21
7236441.895463
 31
0.0
210
0.0
220
0.0
230
1.0
  0
TEXT
  8
11
  6
CONTINUOUS
 62
     7
  5
29F
 10
945521.779
 20
7236433.164
 30
0.0
 40
8.0
  1
157'
 50
358.1499
  7
ROMANS
 72
     4
 11
945535.234189
 21
7236436.731463
 31
0.0
210
0.0
220
0.0
230
1.0
  0
TEXT
  8
11
  6
CONTINUOUS
 62
     7
  5
2A0
 10
945670.042
 20
7236428.376
 30
0.0
 40
8.0
  1
157'
 50
358.1499
  7
ROMANS
 72
     4
 11
945683.497189
 21
7236431.943463
 31
0.0
210
0.0
220
0.0
230
1.0
  0
TEXT
  8
11
  6
CONTINUOUS
 62
     7
  5
2A1
 10
945830.585
 20
7236423.19
 30
0.0
 40
8.0
  1
157'
 50
358.1499
  7
ROMANS
 72
     4
 11
945844.040189
 21
7236426.757463
 31
0.0
210
0.0
220
0.0
230
1.0
  0
TEXT
  8
11
  6
CONTINUOUS
 62
     7
  5
2A2
 10
945988.336
 20
7236418.094
 30
0.0
 40
8.0
  1
157'
 50
358.1499
  7
ROMANS
 72
     4
 11
946001.791189
 21
7236421.661463
 31
0.0
210
0.0
220
0.0
230
1.0
  0
TEXT
  8
11
  6
CONTINUOUS
 62
     7
  5
2A3
 10
946155.16
 20
7236671.379
 30
0.0
 40
8.0
  1
160'
 50
358.1499
  7
ROMANS
 72
     4
 11
946168.615189
 21
7236674.946463
 31
0.0
210
0.0
220
0.0
230
1.0
  0
TEXT
  8
11
  6
CONTINUOUS
 62
     7
  5
2A4
 10
943900.871
 20
7237129.684
 30
0.0
 40
8.0
  1
157'
 50
358.1499
  7
ROMANS
 72
     4
 11
943914.326189
 21
7237133.251463
 31
0.0
210
0.0
220
0.0
230
1.0
  0
TEXT
  8
11
  6
CONTINUOUS
 62
     7
  5
2A5
 10
944061.949
 20
7237124.482
 30
0.0
 40
8.0
  1
157'
 50
358.1499
  7
ROMANS
 72
     4
 11
944075.404189
 21
7237128.049463
 31
0.0
210
0.0
220
0.0
230
1.0
  0
TEXT
  8
11
  6
CONTINUOUS
 62
     7
  5
2A6
 10
944218.303
 20
7237119.431
 30
0.0
 40
8.0
  1
157'
 50
358.1499
  7
ROMANS
 72
     4
 11
944231.758189
 21
7237122.998463
 31
0.0
210
0.0
220
0.0
230
1.0
  0
TEXT
  8
11
  6
CONTINUOUS
 62
     7
  5
2A7
 10
944378.149
 20
7237114.268
 30
0.0
 40
8.0
  1
157'
 50
358.1499
  7
ROMANS
 72
     4
 11
944391.604189
 21
7237117.835463
 31
0.0
210
0.0
220
0.0
230
1.0
  0
TEXT
  8
11
  6
CONTINUOUS
 62
     7
  5
2A8
 10
944538.189
 20
7237109.099
 30
0.0
 40
8.0
  1
157'
 50
358.1499
  7
ROMANS
 72
     4
 11
944551.644189
 21
7237112.666463
 31
0.0
210
0.0
220
0.0
230
1.0
  0
TEXT
  8
11
  6
CONTINUOUS
 62
     7
  5
2A9
 10
944689.657
 20
7237104.205
 30
0.0
 40
8.0
  1
157'
 50
358.1499
  7
ROMANS
 72
     4
 11
944703.112189
 21
7237107.772463
 31
0.0
210
0.0
220
0.0
230
1.0
  0
TEXT
  8
11
  6
CONTINUOUS
 62
     7
  5
2AA
 10
944856.105
 20
7237370.785
 30
0.0
 40
8.0
  1
160'
 50
358.1499
  7
ROMANS
 72
     4
 11
944869.560189
 21
7237374.352463
 31
0.0
210
0.0
220
0.0
230
1.0
  0
TEXT
  8
11
  6
CONTINUOUS
 62
     7
  5
2AB
 10
943775.186
 20
7238063.941
 30
0.0
 40
8.0
  1
160'
 50
358.1499
  7
ROMANS
 72
     4
 11
943788.641189
 21
7238067.508463
 31
0.0
210
0.0
220
0.0
230
1.0
  0
TEXT
  8
11
  6
CONTINUOUS
 62
     7
  5
2AC
 10
943921.375
 20
7237786.564
 30
0.0
 40
8.0
  1
157'
 50
358.1499
  7
ROMANS
 72
     4
 11
943934.830189
 21
7237790.131463
 31
0.0
210
0.0
220
0.0
230
1.0
  0
TEXT
  8
11
  6
CONTINUOUS
 62
     7
  5
2AD
 10
944082.289
 20
7237781.367
 30
0.0
 40
8.0
  1
157'
 50
358.1499
  7
ROMANS
 72
     4
 11
944095.744189
 21
7237784.934463
 31
0.0
210
0.0
220
0.0
230
1.0
  0
TEXT
  8
11
  6
CONTINUOUS
 62
     7
  5
2AE
 10
944244.926
 20
7237776.113
 30
0.0
 40
8.0
  1
157'
 50
358.1499
  7
ROMANS
 72
     4
 11
944258.381189
 21
7237779.680463
 31
0.0
210
0.0
220
0.0
230
1.0
  0
TEXT
  8
11
  6
CONTINUOUS
 62
     7
  5
2AF
 10
944396.137
 20
7237771.229
 30
0.0
 40
8.0
  1
157'
 50
358.1499
  7
ROMANS
 72
     4
 11
944409.592189
 21
7237774.796463
 31
0.0
210
0.0
220
0.0
230
1.0
  0
TEXT
  8
11
  6
CONTINUOUS
 62
     7
  5
2B0
 10
944555.981
 20
7237766.065
 30
0.0
 40
8.0
  1
157'
 50
358.1499
  7
ROMANS
 72
     4
 11
944569.436189
 21
7237769.632463
 31
0.0
210
0.0
220
0.0
230
1.0
  0
TEXT
  8
11
  6
CONTINUOUS
 62
     7
  5
2B1
 10
944708.512
 20
7237761.138
 30
0.0
 40
8.0
  1
157'
 50
358.1499
  7
ROMANS
 72
     4
 11
944721.967189
 21
7237764.705463
 31
0.0
210
0.0
220
0.0
230
1.0
  0
TEXT
  8
11
  6
CONTINUOUS
 62
     7
  5
2B2
 10
944876.587
 20
7238026.966
 30
0.0
 40
8.0
  1
160'
 50
358.1499
  7
ROMANS
 72
     4
 11
944890.042189
 21
7238030.533463
 31
0.0
210
0.0
220
0.0
230
1.0
  0
TEXT
  8
11
  6
CONTINUOUS
 62
     7
  5
2B3
 10
945091.993
 20
7238020.707
 30
0.0
 40
8.0
  1
160'
 50
358.1499
  7
ROMANS
 72
     4
 11
945105.448189
 21
7238024.274463
 31
0.0
210
0.0
220
0.0
230
1.0
  0
TEXT
  8
11
  6
CONTINUOUS
 62
     7
  5
2B4
 10
945234.633
 20
7237742.745
 30
0.0
 40
8.0
  1
157'
 50
358.1499
  7
ROMANS
 72
     4
 11
945248.088189
 21
7237746.312463
 31
0.0
210
0.0
220
0.0
230
1.0
  0
TEXT
  8
11
  6
CONTINUOUS
 62
     7
  5
2B5
 10
945398.969
 20
7237737.437
 30
0.0
 40
8.0
  1
157'
 50
358.1499
  7
ROMANS
 72
     4
 11
945412.424189
 21
7237741.004463
 31
0.0
210
0.0
220
0.0
230
1.0
  0
TEXT
  8
11
  6
CONTINUOUS
 62
     7
  5
2B6
 10
945562.304
 20
7237732.16
 30
0.0
 40
8.0
  1
157'
 50
358.1499
  7
ROMANS
 72
     4
 11
945575.759189
 21
7237735.727463
 31
0.0
210
0.0
220
0.0
230
1.0
  0
TEXT
  8
11
  6
CONTINUOUS
 62
     7
  5
2B7
 10
945705.679
 20
7237727.53
 30
0.0
 40
8.0
  1
157'
 50
358.1499
  7
ROMANS
 72
     4
 11
945719.134189
 21
7237731.097463
 31
0.0
210
0.0
220
0.0
230
1.0
  0
TEXT
  8
11
  6
CONTINUOUS
 62
     7
  5
2B8
 10
945872.504
 20
7237722.141
 30
0.0
 40
8.0
  1
157'
 50
358.1499
  7
ROMANS
 72
     4
 11
945885.959189
 21
7237725.708463
 31
0.0
210
0.0
220
0.0
230
1.0
  0
TEXT
  8
11
  6
CONTINUOUS
 62
     7
  5
2B9
 10
946027.463
 20
7237717.135
 30
0.0
 40
8.0
  1
157'
 50
358.1499
  7
ROMANS
 72
     4
 11
946040.918189
 21
7237720.702463
 31
0.0
210
0.0
220
0.0
230
1.0
  0
TEXT
  8
11
  6
CONTINUOUS
 62
     7
  5
2BA
 10
946197.553
 20
7237984.296
 30
0.0
 40
8.0
  1
160'
 50
358.1499
  7
ROMANS
 72
     4
 11
946211.008189
 21
7237987.863463
 31
0.0
210
0.0
220
0.0
230
1.0
  0
TEXT
  8
11
  6
CONTINUOUS
 62
     7
  5
2BB
 10
946143.085
 20
7236411.468
 30
0.0
 40
8.0
  1
145'
 50
358.1499
  7
ROMANS
 72
     4
 11
946156.540189
 21
7236415.035463
 31
0.0
210
0.0
220
0.0
230
1.0
  0
TEXT
  8
11
  6
CONTINUOUS
 62
     7
  5
2BC
 10
946161.449
 20
7236980.003
 30
0.0
 40
8.0
  1
145'
 50
358.1499
  7
ROMANS
 72
     4
 11
946174.904189
 21
7236983.570463
 31
0.0
210
0.0
220
0.0
230
1.0
  0
TEXT
  8
11
  6
CONTINUOUS
 62
     7
  5
2BD
 10
946163.863
 20
7237054.73
 30
0.0
 40
8.0
  1
145'
 50
358.1499
  7
ROMANS
 72
     4
 11
946177.318189
 21
7237058.297463
 31
0.0
210
0.0
220
0.0
230
1.0
  0
TEXT
  8
11
  6
CONTINUOUS
 62
     7
  5
2BE
 10
946182.766
 20
7237639.916
 30
0.0
 40
8.0
  1
145'
 50
358.1499
  7
ROMANS
 72
     4
 11
946196.221189
 21
7237643.483463
 31
0.0
210
0.0
220
0.0
230
1.0
  0
TEXT
  8
11
  6
CONTINUOUS
 62
     7
  5
2BF
 10
946184.379
 20
7237711.968
 30
0.0
 40
8.0
  1
145'
 50
358.1499
  7
ROMANS
 72
     4
 11
946197.834189
 21
7237715.535463
 31
0.0
210
0.0
220
0.0
230
1.0
  0
TEXT
  8
11
  6
CONTINUOUS
 62
     7
  5
2C0
 10
946203.204
 20
7238294.781
 30
0.0
 40
8.0
  1
145'
 50
358.1499
  7
ROMANS
 72
     4
 11
946216.659189
 21
7238298.348463
 31
0.0
210
0.0
220
0.0
230
1.0
  0
TEXT
  8
11
  6
CONTINUOUS
 62
     7
  5
2C1
 10
946205.618
 20
7238369.508
 30
0.0
 40
8.0
  1
145'
 50
358.1499
  7
ROMANS
 72
     4
 11
946219.073189
 21
7238373.075463
 31
0.0
210
0.0
220
0.0
230
1.0
  0
TEXT
  8
11
  6
CONTINUOUS
 62
     7
  5
2C2
 10
945108.01
 20
7238404.962
 30
0.0
 40
8.0
  1
145'
 50
358.1499
  7
ROMANS
 72
     4
 11
945121.465189
 21
7238408.529463
 31
0.0
210
0.0
220
0.0
230
1.0
  0
TEXT
  8
11
  6
CONTINUOUS
 62
     7
  5
2C3
 10
944888.136
 20
7238412.064
 30
0.0
 40
8.0
  1
145'
 50
358.1499
  7
ROMANS
 72
     4
 11
944901.591189
 21
7238415.631463
 31
0.0
210
0.0
220
0.0
230
1.0
  0
TEXT
  8
11
  6
CONTINUOUS
 62
     7
  5
2C4
 10
944885.694
 20
7238336.45
 30
0.0
 40
8.0
  1
145'
 50
358.1499
  7
ROMANS
 72
     4
 11
944899.149189
 21
7238340.017463
 31
0.0
210
0.0
220
0.0
230
1.0
  0
TEXT
  8
11
  6
CONTINUOUS
 62
     7
  5
2C5
 10
945112.547
 20
7238329.122
 30
0.0
 40
8.0
  1
145'
 50
358.1499
  7
ROMANS
 72
     4
 11
945126.002189
 21
7238332.689463
 31
0.0
210
0.0
220
0.0
230
1.0
  0
TEXT
  8
11
  6
CONTINUOUS
 62
     7
  5
2C6
 10
945093.691
 20
7237745.376
 30
0.0
 40
8.0
  1
145'
 50
358.1499
  7
ROMANS
 72
     4
 11
945107.146189
 21
7237748.943463
 31
0.0
210
0.0
220
0.0
230
1.0
  0
TEXT
  8
11
  6
CONTINUOUS
 62
     7
  5
2C7
 10
944867.525
 20
7237752.681
 30
0.0
 40
8.0
  1
145'
 50
358.1499
  7
ROMANS
 72
     4
 11
944880.980189
 21
7237756.248463
 31
0.0
210
0.0
220
0.0
230
1.0
  0
TEXT
  8
11
  6
CONTINUOUS
 62
     7
  5
2C8
 10
944866.003
 20
7237683.422
 30
0.0
 40
8.0
  1
145'
 50
358.1499
  7
ROMANS
 72
     4
 11
944879.458189
 21
7237686.989463
 31
0.0
210
0.0
220
0.0
230
1.0
  0
TEXT
  8
11
  6
CONTINUOUS
 62
     7
  5
2C9
 10
945087.272
 20
7237676.275
 30
0.0
 40
8.0
  1
145'
 50
358.1499
  7
ROMANS
 72
     4
 11
945100.727189
 21
7237679.842463
 31
0.0
210
0.0
220
0.0
230
1.0
  0
TEXT
  8
11
  6
CONTINUOUS
 62
     7
  5
2CA
 10
945068.381
 20
7237091.433
 30
0.0
 40
8.0
  1
145'
 50
358.1499
  7
ROMANS
 72
     4
 11
945081.836189
 21
7237095.000463
 31
0.0
210
0.0
220
0.0
230
1.0
  0
TEXT
  8
11
  6
CONTINUOUS
 62
     7
  5
2CB
 10
944845.047
 20
7237098.647
 30
0.0
 40
8.0
  1
145'
 50
358.1499
  7
ROMANS
 72
     4
 11
944858.502189
 21
7237102.214463
 31
0.0
210
0.0
220
0.0
230
1.0
  0
TEXT
  8
11
  6
CONTINUOUS
 62
     7
  5
2CC
 10
944842.656
 20
7237024.617
 30
0.0
 40
8.0
  1
145'
 50
358.1499
  7
ROMANS
 72
     4
 11
944856.111189
 21
7237028.184463
 31
0.0
210
0.0
220
0.0
230
1.0
  0
TEXT
  8
11
  6
CONTINUOUS
 62
     7
  5
2CD
 10
945063.925
 20
7237017.47
 30
0.0
 40
8.0
  1
145'
 50
358.1499
  7
ROMANS
 72
     4
 11
945077.380189
 21
7237021.037463
 31
0.0
210
0.0
220
0.0
230
1.0
  0
TEXT
  8
11
  6
CONTINUOUS
 62
     7
  5
2CE
 10
945045.542
 20
7236448.337
 30
0.0
 40
8.0
  1
145'
 50
358.1499
  7
ROMANS
 72
     4
 11
945058.997189
 21
7236451.904463
 31
0.0
210
0.0
220
0.0
230
1.0
  0
TEXT
  8
11
  6
CONTINUOUS
 62
     7
  5
2CF
 10
944824.272
 20
7236455.485
 30
0.0
 40
8.0
  1
145'
 50
358.1499
  7
ROMANS
 72
     4
 11
944837.727189
 21
7236459.052463
 31
0.0
210
0.0
220
0.0
230
1.0
  0
TEXT
  8
11
  6
CONTINUOUS
 62
     7
  5
2D0
 10
943732.442
 20
7236490.753
 30
0.0
 40
8.0
  1
145'
 50
358.1499
  7
ROMANS
 72
     4
 11
943745.897189
 21
7236494.320463
 31
0.0
210
0.0
220
0.0
230
1.0
  0
TEXT
  8
11
  6
CONTINUOUS
 62
     7
  5
2D1
 10
943750.719
 20
7237056.562
 30
0.0
 40
8.0
  1
145'
 50
358.1499
  7
ROMANS
 72
     4
 11
943764.174189
 21
7237060.129463
 31
0.0
210
0.0
220
0.0
230
1.0
  0
TEXT
  8
11
  6
CONTINUOUS
 62
     7
  5
2D2
 10
943753.222
 20
7237134.083
 30
0.0
 40
8.0
  1
145'
 50
358.1499
  7
ROMANS
 72
     4
 11
943766.677189
 21
7237137.650463
 31
0.0
210
0.0
220
0.0
230
1.0
  0
TEXT
  8
11
  6
CONTINUOUS
 62
     7
  5
2D3
 10
943772.025
 20
7237716.181
 30
0.0
 40
8.0
  1
145'
 50
358.1499
  7
ROMANS
 72
     4
 11
943785.480189
 21
7237719.748463
 31
0.0
210
0.0
220
0.0
230
1.0
  0
TEXT
  8
11
  6
CONTINUOUS
 62
     7
  5
2D4
 10
943773.638
 20
7237788.233
 30
0.0
 40
8.0
  1
145'
 50
358.1499
  7
ROMANS
 72
     4
 11
943787.093189
 21
7237791.800463
 31
0.0
210
0.0
220
0.0
230
1.0
  0
TEXT
  8
11
  6
CONTINUOUS
 62
     7
  5
2D5
 10
943792.498
 20
7238372.101
 30
0.0
 40
8.0
  1
145'
 50
358.1499
  7
ROMANS
 72
     4
 11
943805.953189
 21
7238375.668463
 31
0.0
210
0.0
220
0.0
230
1.0
  0
TEXT
  8
11
  6
CONTINUOUS
 62
     7
  5
2D6
 10
943794.934
 20
7238447.527
 30
0.0
 40
8.0
  1
145'
 50
358.1499
  7
ROMANS
 72
     4
 11
943808.389189
 21
7238451.094463
 31
0.0
210
0.0
220
0.0
230
1.0
  0
TEXT
  8
11
  6
CONTINUOUS
 62
     7
  5
2D7
 10
944917.564
 20
7238365.0
 30
0.0
 40
8.0
  1
60'
 50
88.1499
  7
ROMANS
 72
     4
 11
944913.867398
 21
7238374.457274
 31
0.0
210
0.0
220
0.0
230
1.0
  0
TEXT
  8
11
  6
CONTINUOUS
 62
     7
  5
2D8
 10
945129.728
 20
7238358.147
 30
0.0
 40
8.0
  1
60'
 50
88.1499
  7
ROMANS
 72
     4
 11
945126.031398
 21
7238367.604274
 31
0.0
210
0.0
220
0.0
230
1.0
  0
TEXT
  8
11
  6
CONTINUOUS
 62
     7
  5
2D9
 10
945110.621
 20
7237706.777
 30
0.0
 40
8.0
  1
56'
 50
88.1499
  7
ROMANS
 72
     4
 11
945106.924398
 21
7237716.234274
 31
0.0
210
0.0
220
0.0
230
1.0
  0
TEXT
  8
11
  6
CONTINUOUS
 62
     7
  5
2DA
 10
944881.835
 20
7237714.167
 30
0.0
 40
8.0
  1
56'
 50
88.1499
  7
ROMANS
 72
     4
 11
944878.138398
 21
7237723.624274
 31
0.0
210
0.0
220
0.0
230
1.0
  0
TEXT
  8
11
  6
CONTINUOUS
 62
     7
  5
2DB
 10
944856.479
 20
7237057.324
 30
0.0
 40
8.0
  1
56'
 50
88.1499
  7
ROMANS
 72
     4
 11
944852.782398
 21
7237066.781274
 31
0.0
210
0.0
220
0.0
230
1.0
  0
TEXT
  8
11
  6
CONTINUOUS
 62
     7
  5
2DC
 10
945089.176
 20
7237049.807
 30
0.0
 40
8.0
  1
56'
 50
88.1499
  7
ROMANS
 72
     4
 11
945085.479398
 21
7237059.264274
 31
0.0
210
0.0
220
0.0
230
1.0
  0
TEXT
  8
11
  6
CONTINUOUS
 62
     7
  5
2DD
 10
945071.201
 20
7236411.096
 30
0.0
 40
8.0
  1
55'
 50
88.1499
  7
ROMANS
 72
     4
 11
945067.504398
 21
7236420.553274
 31
0.0
210
0.0
220
0.0
230
1.0
  0
TEXT
  8
11
  6
CONTINUOUS
 62
     7
  5
2DE
 10
944838.504
 20
7236418.613
 30
0.0
 40
8.0
  1
55'
 50
88.1499
  7
ROMANS
 72
     4
 11
944834.807398
 21
7236428.070274
 31
0.0
210
0.0
220
0.0
230
1.0
  0
TEXT
  8
11
  6
CONTINUOUS
 62
     7
  5
2DF
 10
941748.204
 20
7236518.434
 30
0.0
 40
8.0
  1
55'
 50
88.1499
  7
ROMANS
 72
     4
 11
941744.507398
 21
7236527.891274
 31
0.0
210
0.0
220
0.0
230
1.0
  0
TEXT
  8
11
  6
CONTINUOUS
 62
     7
  5
2E0
 10
943738.535
 20
7238562.095
 30
0.0
 40
8.0
  1
251.25'
 50
88.1499
  7
ROMANS
 72
     4
 11
943735.354954
 21
7238587.543933
 31
0.0
210
0.0
220
0.0
230
1.0
  0
TEXT
  8
11
  6
CONTINUOUS
 62
     7
  5
2E1
 10
944984.454
 20
7238527.747
 30
0.0
 40
8.0
  1
273.25'
 50
88.1499
  7
ROMANS
 72
     4
 11
944981.273954
 21
7238553.195933
 31
0.0
210
0.0
220
0.0
230
1.0
  0
TEXT
  8
11
  6
CONTINUOUS
 62
     7
  5
2E2
 10
945056.639
 20
7238521.877
 30
0.0
 40
8.0
  1
273.25'
 50
88.1499
  7
ROMANS
 72
     4
 11
945053.458954
 21
7238547.325933
 31
0.0
210
0.0
220
0.0
230
1.0
  0
TEXT
  8
11
  6
CONTINUOUS
 62
     7
  5
2E3
 10
946300.664
 20
7238481.693
 30
0.0
 40
8.0
  1
251.25'
 50
88.1499
  7
ROMANS
 72
     4
 11
946297.483954
 21
7238507.141933
 31
0.0
210
0.0
220
0.0
230
1.0
  0
TEXT
  8
11
  6
CONTINUOUS
 62
     7
  5
2E4
 10
946288.715
 20
7238134.475
 30
0.0
 40
8.0
  1
273.25'
 50
88.1499
  7
ROMANS
 72
     4
 11
946285.534954
 21
7238159.923933
 31
0.0
210
0.0
220
0.0
230
1.0
  0
TEXT
  8
11
  6
CONTINUOUS
 62
     7
  5
2E5
 10
945045.092
 20
7238168.75
 30
0.0
 40
8.0
  1
273.25'
 50
88.1499
  7
ROMANS
 72
     4
 11
945041.911954
 21
7238194.198933
 31
0.0
210
0.0
220
0.0
230
1.0
  0
TEXT
  8
11
  6
CONTINUOUS
 62
     7
  5
2E6
 10
944972.908
 20
7238174.619
 30
0.0
 40
8.0
  1
273.25'
 50
88.1499
  7
ROMANS
 72
     4
 11
944969.727954
 21
7238200.067933
 31
0.0
210
0.0
220
0.0
230
1.0
  0
TEXT
  8
11
  6
CONTINUOUS
 62
     7
  5
2E7
 10
943728.235
 20
7238217.182
 30
0.0
 40
8.0
  1
273.25'
 50
88.1499
  7
ROMANS
 72
     4
 11
943725.054954
 21
7238242.630933
 31
0.0
210
0.0
220
0.0
230
1.0
  0
TEXT
  8
11
  6
CONTINUOUS
 62
     7
  5
2E8
 10
943716.575
 20
7237901.95
 30
0.0
 40
8.0
  1
275.25'
 50
88.1499
  7
ROMANS
 72
     4
 11
943713.394954
 21
7237927.398933
 31
0.0
210
0.0
220
0.0
230
1.0
  0
TEXT
  8
11
  6
CONTINUOUS
 62
     7
  5
2E9
 10
943706.028
 20
7237553.299
 30
0.0
 40
8.0
  1
275.25'
 50
88.1499
  7
ROMANS
 72
     4
 11
943702.847954
 21
7237578.747933
 31
0.0
210
0.0
220
0.0
230
1.0
  0
TEXT
  8
11
  6
CONTINUOUS
 62
     7
  5
2EA
 10
944951.424
 20
7237507.175
 30
0.0
 40
8.0
  1
275.25'
 50
88.1499
  7
ROMANS
 72
     4
 11
944948.243954
 21
7237532.623933
 31
0.0
210
0.0
220
0.0
230
1.0
  0
TEXT
  8
11
  6
CONTINUOUS
 62
     7
  5
2EB
 10
944962.106
 20
7237859.979
 30
0.0
 40
8.0
  1
275.25'
 50
88.1499
  7
ROMANS
 72
     4
 11
944958.925954
 21
7237885.427933
 31
0.0
210
0.0
220
0.0
230
1.0
  0
TEXT
  8
11
  6
CONTINUOUS
 62
     7
  5
2EC
 10
945035.142
 20
7237857.62
 30
0.0
 40
8.0
  1
275.25'
 50
88.1499
  7
ROMANS
 72
     4
 11
945031.961954
 21
7237883.068933
 31
0.0
210
0.0
220
0.0
230
1.0
  0
TEXT
  8
11
  6
CONTINUOUS
 62
     7
  5
2ED
 10
945024.508
 20
7237506.289
 30
0.0
 40
8.0
  1
275.25'
 50
88.1499
  7
ROMANS
 72
     4
 11
945021.327954
 21
7237531.737933
 31
0.0
210
0.0
220
0.0
230
1.0
  0
TEXT
  8
11
  6
CONTINUOUS
 62
     7
  5
2EE
 10
946269.272
 20
7237466.081
 30
0.0
 40
8.0
  1
275.25'
 50
88.1499
  7
ROMANS
 72
     4
 11
946266.091954
 21
7237491.529933
 31
0.0
210
0.0
220
0.0
230
1.0
  0
TEXT
  8
11
  6
CONTINUOUS
 62
     7
  5
2EF
 10
946280.507
 20
7237836.026
 30
0.0
 40
8.0
  1
275.25'
 50
88.1499
  7
ROMANS
 72
     4
 11
946277.326954
 21
7237861.474933
 31
0.0
210
0.0
220
0.0
230
1.0
  0
TEXT
  8
11
  6
CONTINUOUS
 62
     7
  5
2F0
 10
946259.775
 20
7237172.11
 30
0.0
 40
8.0
  1
275.25'
 50
88.1499
  7
ROMANS
 72
     4
 11
946256.594954
 21
7237197.558933
 31
0.0
210
0.0
220
0.0
230
1.0
  0
TEXT
  8
11
  6
CONTINUOUS
 62
     7
  5
2F1
 10
946248.223
 20
7236814.463
 30
0.0
 40
8.0
  1
275.25'
 50
88.1499
  7
ROMANS
 72
     4
 11
946245.042954
 21
7236839.911933
 31
0.0
210
0.0
220
0.0
230
1.0
  0
TEXT
  8
11
  6
CONTINUOUS
 62
     7
  5
2F2
 10
945002.753
 20
7236854.693
 30
0.0
 40
8.0
  1
275.25'
 50
88.1499
  7
ROMANS
 72
     4
 11
944999.572954
 21
7236880.141933
 31
0.0
210
0.0
220
0.0
230
1.0
  0
TEXT
  8
11
  6
CONTINUOUS
 62
     7
  5
2F3
 10
944928.242
 20
7236857.1
 30
0.0
 40
8.0
  1
275.25'
 50
88.1499
  7
ROMANS
 72
     4
 11
944925.061954
 21
7236882.548933
 31
0.0
210
0.0
220
0.0
230
1.0
  0
TEXT
  8
11
  6
CONTINUOUS
 62
     7
  5
2F4
 10
944939.754
 20
7237213.481
 30
0.0
 40
8.0
  1
275.25'
 50
88.1499
  7
ROMANS
 72
     4
 11
944936.573954
 21
7237238.929933
 31
0.0
210
0.0
220
0.0
230
1.0
  0
TEXT
  8
11
  6
CONTINUOUS
 62
     7
  5
2F5
 10
945015.749
 20
7237211.027
 30
0.0
 40
8.0
  1
275.25'
 50
88.1499
  7
ROMANS
 72
     4
 11
945012.568954
 21
7237236.475933
 31
0.0
210
0.0
220
0.0
230
1.0
  0
TEXT
  8
11
  6
CONTINUOUS
 62
     7
  5
2F6
 10
943696.931
 20
7237245.371
 30
0.0
 40
8.0
  1
275.25'
 50
88.1499
  7
ROMANS
 72
     4
 11
943693.750954
 21
7237270.819933
 31
0.0
210
0.0
220
0.0
230
1.0
  0
TEXT
  8
11
  6
CONTINUOUS
 62
     7
  5
2F7
 10
943685.674
 20
7236896.883
 30
0.0
 40
8.0
  1
275.25'
 50
88.1499
  7
ROMANS
 72
     4
 11
943682.493954
 21
7236922.331933
 31
0.0
210
0.0
220
0.0
230
1.0
  0
TEXT
  8
11
  6
CONTINUOUS
 62
     7
  5
2F8
 10
943677.705
 20
7236600.898
 30
0.0
 40
8.0
  1
260.25'
 50
88.1499
  7
ROMANS
 72
     4
 11
943674.524954
 21
7236626.346933
 31
0.0
210
0.0
220
0.0
230
1.0
  0
TEXT
  8
11
  6
CONTINUOUS
 62
     7
  5
2F9
 10
944919.554
 20
7236560.785
 30
0.0
 40
8.0
  1
260.25'
 50
88.1499
  7
ROMANS
 72
     4
 11
944916.373954
 21
7236586.233933
 31
0.0
210
0.0
220
0.0
230
1.0
  0
TEXT
  8
11
  6
CONTINUOUS
 62
     7
  5
2FA
 10
944994.064
 20
7236558.378
 30
0.0
 40
8.0
  1
260.25'
 50
88.1499
  7
ROMANS
 72
     4
 11
944990.883954
 21
7236583.826933
 31
0.0
210
0.0
220
0.0
230
1.0
  0
TEXT
  8
11
  6
CONTINUOUS
 62
     7
  5
2FB
 10
946237.286
 20
7236518.22
 30
0.0
 40
8.0
  1
260.25'
 50
88.1499
  7
ROMANS
 72
     4
 11
946234.105954
 21
7236543.668933
 31
0.0
210
0.0
220
0.0
230
1.0
  0
TEXT
  8
11
  6
CONTINUOUS
 62
     7
  5
2FC
 10
943786.8
 20
7238739.748
 30
0.0
 40
8.0
  1
15'
 50
358.1499
  7
ROMANS
 72
     4
 11
943796.257274
 21
7238743.444602
 31
0.0
210
0.0
220
0.0
230
1.0
  0
TEXT
  8
11
  6
CONTINUOUS
 62
     7
  5
2FD
 10
944904.043
 20
7238703.66
 30
0.0
 40
8.0
  1
15'
 50
358.1499
  7
ROMANS
 72
     4
 11
944913.500274
 21
7238707.356602
 31
0.0
210
0.0
220
0.0
230
1.0
  0
TEXT
  8
11
  6
CONTINUOUS
 62
     7
  5
2FE
 10
945115.243
 20
7238696.838
 30
0.0
 40
8.0
  1
15'
 50
358.1499
  7
ROMANS
 72
     4
 11
945124.700274
 21
7238700.534602
 31
0.0
210
0.0
220
0.0
230
1.0
  0
TEXT
  8
11
  6
CONTINUOUS
 62
     7
  5
2FF
 10
946214.735
 20
7238661.322
 30
0.0
 40
8.0
  1
15'
 50
358.1499
  7
ROMANS
 72
     4
 11
946224.192274
 21
7238665.018602
 31
0.0
210
0.0
220
0.0
230
1.0
  0
TEXT
  8
11
  6
CONTINUOUS
 62
     7
  5
300
 10
946202.586
 20
7238004.105
 30
0.0
 40
8.0
  1
20'
 50
358.1499
  7
ROMANS
 72
     4
 11
946212.043274
 21
7238007.801602
 31
0.0
210
0.0
220
0.0
230
1.0
  0
TEXT
  8
11
  6
CONTINUOUS
 62
     7
  5
301
 10
945095.964
 20
7238039.85
 30
0.0
 40
8.0
  1
20'
 50
358.1499
  7
ROMANS
 72
     4
 11
945105.421274
 21
7238043.546602
 31
0.0
210
0.0
220
0.0
230
1.0
  0
TEXT
  8
11
  6
CONTINUOUS
 62
     7
  5
302
 10
944881.967
 20
7238046.763
 30
0.0
 40
8.0
  1
20'
 50
358.1499
  7
ROMANS
 72
     4
 11
944891.424274
 21
7238050.459602
 31
0.0
210
0.0
220
0.0
230
1.0
  0
TEXT
  8
11
  6
CONTINUOUS
 62
     7
  5
303
 10
943773.442
 20
7238082.569
 30
0.0
 40
8.0
  1
20'
 50
358.1499
  7
ROMANS
 72
     4
 11
943782.899274
 21
7238086.265602
 31
0.0
210
0.0
220
0.0
230
1.0
  0
TEXT
  8
11
  6
CONTINUOUS
 62
     7
  5
304
 10
943752.978
 20
7237426.921
 30
0.0
 40
8.0
  1
20'
 50
358.1499
  7
ROMANS
 72
     4
 11
943762.435274
 21
7237430.617602
 31
0.0
210
0.0
220
0.0
230
1.0
  0
TEXT
  8
11
  6
CONTINUOUS
 62
     7
  5
305
 10
944864.51
 20
7237391.017
 30
0.0
 40
8.0
  1
20'
 50
358.1499
  7
ROMANS
 72
     4
 11
944873.967274
 21
7237394.713602
 31
0.0
210
0.0
220
0.0
230
1.0
  0
TEXT
  8
11
  6
CONTINUOUS
 62
     7
  5
306
 10
945069.167
 20
7237384.406
 30
0.0
 40
8.0
  1
20'
 50
358.1499
  7
ROMANS
 72
     4
 11
945078.624274
 21
7237388.102602
 31
0.0
210
0.0
220
0.0
230
1.0
  0
TEXT
  8
11
  6
CONTINUOUS
 62
     7
  5
307
 10
946177.268
 20
7237348.612
 30
0.0
 40
8.0
  1
20'
 50
358.1499
  7
ROMANS
 72
     4
 11
946186.725274
 21
7237352.308602
 31
0.0
210
0.0
220
0.0
230
1.0
  0
TEXT
  8
11
  6
CONTINUOUS
 62
     7
  5
308
 10
946155.959
 20
7236688.912
 30
0.0
 40
8.0
  1
20'
 50
358.1499
  7
ROMANS
 72
     4
 11
946165.416274
 21
7236692.608602
 31
0.0
210
0.0
220
0.0
230
1.0
  0
TEXT
  8
11
  6
CONTINUOUS
 62
     7
  5
309
 10
945057.02
 20
7236724.409
 30
0.0
 40
8.0
  1
20'
 50
358.1499
  7
ROMANS
 72
     4
 11
945066.477274
 21
7236728.105602
 31
0.0
210
0.0
220
0.0
230
1.0
  0
TEXT
  8
11
  6
CONTINUOUS
 62
     7
  5
30A
 10
944834.632
 20
7236731.593
 30
0.0
 40
8.0
  1
20'
 50
358.1499
  7
ROMANS
 72
     4
 11
944844.089274
 21
7236735.289602
 31
0.0
210
0.0
220
0.0
230
1.0
  0
TEXT
  8
11
  6
CONTINUOUS
 62
     7
  5
30B
 10
943729.608
 20
7236767.286
 30
0.0
 40
8.0
  1
20'
 50
358.1499
  7
ROMANS
 72
     4
 11
943739.065274
 21
7236770.982602
 31
0.0
210
0.0
220
0.0
230
1.0
  0
TEXT
  8
11
  6
CONTINUOUS
 62
     7
  5
30C
 10
945226.591
 20
7237088.228
 30
0.0
 40
8.0
  1
157'
 50
358.1499
  7
ROMANS
 72
     4
 11
945240.046189
 21
7237091.795463
 31
0.0
210
0.0
220
0.0
230
1.0
  0
TEXT
  8
11
  6
CONTINUOUS
 62
     7
  5
30D
 10
945382.278
 20
7237083.199
 30
0.0
 40
8.0
  1
157'
 50
358.1499
  7
ROMANS
 72
     4
 11
945395.733189
 21
7237086.766463
 31
0.0
210
0.0
220
0.0
230
1.0
  0
TEXT
  8
11
  6
CONTINUOUS
 62
     7
  5
30E
 10
945536.936
 20
7237078.204
 30
0.0
 40
8.0
  1
157'
 50
358.1499
  7
ROMANS
 72
     4
 11
945550.391189
 21
7237081.771463
 31
0.0
210
0.0
220
0.0
230
1.0
  0
TEXT
  8
11
  6
CONTINUOUS
 62
     7
  5
30F
 10
945690.935
 20
7237073.229
 30
0.0
 40
8.0
  1
157'
 50
358.1499
  7
ROMANS
 72
     4
 11
945704.390189
 21
7237076.796463
 31
0.0
210
0.0
220
0.0
230
1.0
  0
TEXT
  8
11
  6
CONTINUOUS
 62
     7
  5
310
 10
945851.779
 20
7237068.034
 30
0.0
 40
8.0
  1
157'
 50
358.1499
  7
ROMANS
 72
     4
 11
945865.234189
 21
7237071.601463
 31
0.0
210
0.0
220
0.0
230
1.0
  0
TEXT
  8
11
  6
CONTINUOUS
 62
     7
  5
311
 10
946008.498
 20
7237062.971
 30
0.0
 40
8.0
  1
157'
 50
358.1499
  7
ROMANS
 72
     4
 11
946021.953189
 21
7237066.538463
 31
0.0
210
0.0
220
0.0
230
1.0
  0
TEXT
  8
11
  6
CONTINUOUS
 62
     7
  5
312
 10
946174.392
 20
7237330.24
 30
0.0
 40
8.0
  1
160'
 50
358.1499
  7
ROMANS
 72
     4
 11
946187.847189
 21
7237333.807463
 31
0.0
210
0.0
220
0.0
230
1.0
  0
TEXT
  8
11
  6
CONTINUOUS
 62
     7
  5
313
 10
945065.106
 20
7237360.909
 30
0.0
 40
8.0
  1
160'
 50
358.1499
  7
ROMANS
 72
     4
 11
945078.561189
 21
7237364.476463
 31
0.0
210
0.0
220
0.0
230
1.0
  0
TEXT
  8
11
  6
CONTINUOUS
 62
     7
  5
314
 10
943754.755
 20
7237409.301
 30
0.0
 40
8.0
  1
160'
 50
358.1499
  7
ROMANS
 72
     4
 11
943768.210189
 21
7237412.868463
 31
0.0
210
0.0
220
0.0
230
1.0
  0
TEXT
  8
15
  6
CONTINUOUS
 62
    30
  5
315
 10
945435.671
 20
7237138.172
 30
0.0
 40
50.0
  1
RIDGEVIEW
 50
43.1499
  7
ROMANC
 72
     4
 11
945586.020546
 21
7237313.379329
 31
0.0
210
0.0
220
0.0
230
1.0
  0
TEXT
  8
19
  6
CONTINUOUS
 62
     1
  5
317
 10
944981.317
 20
7241643.974
 30
0.0
 40
24.0
  1
114TH ST
 50
358.1499
  7
ROMANC
 72
     4
 11
945076.421016
 21
7241652.90825
 31
0.0
210
0.0
220
0.0
230
1.0
  0
TEXT
  8
19
  6
CONTINUOUS
 62
     1
  5
318
 10
944013.163
 20
7238397.088
 30
0.0
 40
24.0
  1
124TH ST
 50
358.1499
  7
ROMANC
 72
     4
 11
944111.195489
 21
7238405.927656
 31
0.0
210
0.0
220
0.0
230
1.0
  0
TEXT
  8
19
  6
CONTINUOUS
 62
     1
  5
319
 10
945665.561
 20
7238343.713
 30
0.0
 40
24.0
  1
124TH ST
 50
358.1499
  7
ROMANC
 72
     4
 11
945763.593489
 21
7238352.552656
 31
0.0
210
0.0
220
0.0
230
1.0
  0
TEXT
  8
19
  6
CONTINUOUS
 62
     1
  5
31A
 10
944015.505
 20
7237735.574
 30
0.0
 40
24.0
  1
126TH ST
 50
358.1499
  7
ROMANC
 72
     4
 11
944112.40408
 21
7237744.450267
 31
0.0
210
0.0
220
0.0
230
1.0
  0
TEXT
  8
19
  6
CONTINUOUS
 62
     1
  5
31B
 10
945667.903
 20
7237682.198
 30
0.0
 40
24.0
  1
126TH ST
 50
358.1499
  7
ROMANC
 72
     4
 11
945764.80208
 21
7237691.074267
 31
0.0
210
0.0
220
0.0
230
1.0
  0
TEXT
  8
19
  6
CONTINUOUS
 62
     1
  5
31C
 10
944052.331
 20
7237070.943
 30
0.0
 40
24.0
  1
128TH ST
 50
358.1499
  7
ROMANC
 72
     4
 11
944149.23008
 21
7237079.819267
 31
0.0
210
0.0
220
0.0
230
1.0
  0
TEXT
  8
19
  6
CONTINUOUS
 62
     1
  5
31D
 10
945668.334
 20
7237018.744
 30
0.0
 40
24.0
  1
128TH ST
 50
358.1499
  7
ROMANC
 72
     4
 11
945765.23308
 21
7237027.620267
 31
0.0
210
0.0
220
0.0
230
1.0
  0
LINE
  8
6
  6
CONTINUOUS
 62
     7
  5
31E
 10
943798.601
 20
7241712.464
 30
0.0
 11
943629.914
 21
7236490.187
 31
0.0
  0
POLYLINE
  8
1
  6
HIDDEN
 62
   253
  5
320
 66
     1
 10
0.0
 20
0.0
 30
0.0
 70
     1
  0
VERTEX
  8
1
  6
HIDDEN
 62
   253
  5
321
 10
941014.736
 20
7236445.674
 30
0.0
  0
VERTEX
  8
1
  6
HIDDEN
 62
   253
  5
322
 10
946274.964
 20
7236282.859
 30
0.0
  0
VERTEX
  8
1
  6
HIDDEN
 62
   253
  5
323
 10
946444.149
 20
7241630.348
 30
0.0
  0
VERTEX
  8
1
  6
HIDDEN
 62
   253
  5
324
 10
941180.649
 20
7241797.895
 30
0.0
  0
SEQEND
  8
1
  6
HIDDEN
 62
   253
  5
325
  0
TEXT
  8
19
  6
CONTINUOUS
 62
     1
  5
326
 10
944975.349
 20
7236793.409
 30
0.0
 40
24.0
  1
AVE S
 50
88.1499
  7
ROMANC
 72
     4
 11
944965.368466
 21
7236856.12191
 31
0.0
210
0.0
220
0.0
230
1.0
  0
TEXT
  8
19
  6
CONTINUOUS
 62
     1
  5
327
 10
945017.622
 20
7238124.214
 30
0.0
 40
24.0
  1
AVE S
 50
88.1499
  7
ROMANC
 72
     4
 11
945007.641466
 21
7238186.92691
 31
0.0
210
0.0
220
0.0
230
1.0
  0
TEXT
  8
19
  6
CONTINUOUS
 62
     1
  5
328
 10
941028.491
 20
7236715.968
 30
0.0
 40
24.0
  1
S UNIVERSITY AVE
 50
88.1499
  7
ROMANC
 72
     4
 11
941023.012765
 21
7236918.064214
 31
0.0
210
0.0
220
0.0
230
1.0
  0
TEXT
  8
19
  6
CONTINUOUS
 62
     1
  5
329
 10
946276.812
 20
7236703.97
 30
0.0
 40
24.0
  1
S AVE P
 50
88.1499
  7
ROMANC
 72
     4
 11
946267.65505
 21
7236792.179612
 31
0.0
210
0.0
220
0.0
230
1.0
  0
TEXT
  8
19
  6
CONTINUOUS
 62
     1
  5
32A
 10
946361.267
 20
7239318.551
 30
0.0
 40
24.0
  1
S AVE P
 50
88.1499
  7
ROMANC
 72
     4
 11
946352.11005
 21
7239406.760612
 31
0.0
210
0.0
220
0.0
230
1.0
  0
TEXT
  8
19
  6
CONTINUOUS
 62
     1
  5
32B
 10
946424.078
 20
7241263.099
 30
0.0
 40
24.0
  1
S AVE P
 50
88.1499
  7
ROMANC
 72
     4
 11
946414.92105
 21
7241351.308612
 31
0.0
210
0.0
220
0.0
230
1.0
  0
TEXT
  8
19
  6
CONTINUOUS
 62
     1
  5
32C
 10
941853.668
 20
7236504.693
 30
0.0
 40
24.0
  1
FARM RD 1585 (130TH ST)
 50
358.1499
  7
ROMANC
 72
     4
 11
942134.149331
 21
7236507.639273
 31
0.0
210
0.0
220
0.0
230
1.0
  0
TEXT
  8
19
  6
CONTINUOUS
 62
     1
  5
32D
 10
945450.198
 20
7236391.512
 30
0.0
 40
24.0
  1
FARM RD 1585 (130TH ST)
 50
358.1499
  7
ROMANC
 72
     4
 11
945730.679331
 21
7236394.458273
 31
0.0
210
0.0
220
0.0
230
1.0
  0
LINE
  8
6
  6
CONTINUOUS
 62
     7
  5
32E
 10
941058.794
 20
7237036.488
 30
0.0
 11
941069.081
 21
7237354.972
 31
0.0
  0
LINE
  8
6
  6
CONTINUOUS
 62
     7
  5
32F
 10
941067.343
 20
7236836.671
 30
0.0
 11
941058.794
 21
7237036.488
 31
0.0
  0
LINE
  8
6
  6
CONTINUOUS
 62
     7
  5
330
 10
941057.658
 20
7236536.827
 30
0.0
 11
941067.343
 21
7236836.671
 31
0.0
  0
POLYLINE
  8
58
  6
DIVIDE
 62
   216
  5
332
 66
     1
 10
0.0
 20
0.0
 30
0.0
  0
VERTEX
  8
58
  6
DIVIDE
 62
   216
  5
333
 10
941164.397
 20
7241107.107
 30
0.0
  0
VERTEX
  8
58
  6
DIVIDE
 62
   216
  5
334
 10
941824.053
 20
7241085.799
 30
0.0
  0
VERTEX
  8
58
  6
DIVIDE
 62
   216
  5
335
 10
941845.361
 20
7241745.455
 30
0.0
  0
SEQEND
  8
58
  6
DIVIDE
 62
   216
  5
336
  0
ENDSEC
  0
EOF
