  0
SECTION
  2
HEADER
  9
$ACADVER
  1
AC1009
  9
$INSBASE
 10
0.0
 20
0.0
 30
0.0
  9
$EXTMIN
 10
953655.662
 20
7304614.303
 30
0.0
  9
$EXTMAX
 10
958957.738
 20
7310078.944
 30
0.0
  9
$LIMMIN
 10
0.0
 20
0.0
  9
$LIMMAX
 10
12.0
 20
9.0
  9
$ORTHOMODE
 70
     0
  9
$REGENMODE
 70
     1
  9
$FILLMODE
 70
     1
  9
$QTEXTMODE
 70
     0
  9
$MIRRTEXT
 70
     1
  9
$DRAGMODE
 70
     2
  9
$LTSCALE
 40
1.0
  9
$OSMODE
 70
     0
  9
$ATTMODE
 70
     1
  9
$TEXTSIZE
 40
0.2
  9
$TRACEWID
 40
0.05
  9
$TEXTSTYLE
  7
STANDARD
  9
$CLAYER
  8
0
  9
$CELTYPE
  6
CONTINUOUS
  9
$CECOLOR
 62
   256
  9
$DIMSCALE
 40
1.0
  9
$DIMASZ
 40
0.18
  9
$DIMEXO
 40
0.0625
  9
$DIMDLI
 40
0.38
  9
$DIMRND
 40
0.0
  9
$DIMDLE
 40
0.0
  9
$DIMEXE
 40
0.18
  9
$DIMTP
 40
0.0
  9
$DIMTM
 40
0.0
  9
$DIMTXT
 40
0.18
  9
$DIMCEN
 40
0.09
  9
$DIMTSZ
 40
0.0
  9
$DIMTOL
 70
     0
  9
$DIMLIM
 70
     0
  9
$DIMTIH
 70
     1
  9
$DIMTOH
 70
     1
  9
$DIMSE1
 70
     0
  9
$DIMSE2
 70
     0
  9
$DIMTAD
 70
     0
  9
$DIMZIN
 70
     0
  9
$DIMBLK
  1

  9
$DIMASO
 70
     1
  9
$DIMSHO
 70
     1
  9
$DIMPOST
  1

  9
$DIMAPOST
  1

  9
$DIMALT
 70
     0
  9
$DIMALTD
 70
     2
  9
$DIMALTF
 40
25.4
  9
$DIMLFAC
 40
1.0
  9
$DIMTOFL
 70
     0
  9
$DIMTVP
 40
0.0
  9
$DIMTIX
 70
     0
  9
$DIMSOXD
 70
     0
  9
$DIMSAH
 70
     0
  9
$DIMBLK1
  1

  9
$DIMBLK2
  1

  9
$DIMSTYLE
  2
STANDARD
  9
$DIMCLRD
 70
     0
  9
$DIMCLRE
 70
     0
  9
$DIMCLRT
 70
     0
  9
$DIMTFAC
 40
1.0
  9
$DIMGAP
 40
0.09
  9
$LUNITS
 70
     2
  9
$LUPREC
 70
     4
  9
$AXISMODE
 70
     0
  9
$AXISUNIT
 10
0.0
 20
0.0
  9
$SKETCHINC
 40
0.1
  9
$FILLETRAD
 40
0.0
  9
$AUNITS
 70
     0
  9
$AUPREC
 70
     0
  9
$MENU
  1
acad
  9
$ELEVATION
 40
0.0
  9
$PELEVATION
 40
0.0
  9
$THICKNESS
 40
0.0
  9
$LIMCHECK
 70
     0
  9
$BLIPMODE
 70
     1
  9
$CHAMFERA
 40
0.0
  9
$CHAMFERB
 40
0.0
  9
$SKPOLY
 70
     0
  9
$TDCREATE
 40
2453013.904224537
  9
$TDUPDATE
 40
2453013.904224537
  9
$TDINDWG
 40
0.0000000000
  9
$TDUSRTIMER
 40
0.0000000000
  9
$USRTIMER
 70
     1
  9
$ANGBASE
 50
0.0
  9
$ANGDIR
 70
     0
  9
$PDMODE
 70
     0
  9
$PDSIZE
 40
0.0
  9
$PLINEWID
 40
0.0
  9
$COORDS
 70
     0
  9
$SPLFRAME
 70
     0
  9
$SPLINETYPE
 70
     6
  9
$SPLINESEGS
 70
    10
  9
$ATTDIA
 70
     0
  9
$ATTREQ
 70
     1
  9
$HANDLING
 70
     1
  9
$HANDSEED
  5
275
  9
$SURFTAB1
 70
     6
  9
$SURFTAB2
 70
     6
  9
$SURFTYPE
 70
     6
  9
$SURFU
 70
     6
  9
$SURFV
 70
     6
  9
$UCSNAME
  2

  9
$UCSORG
 10
0.0
 20
0.0
 30
0.0
  9
$UCSXDIR
 10
1.0
 20
0.0
 30
0.0
  9
$UCSYDIR
 10
0.0
 20
1.0
 30
0.0
  9
$PUCSNAME
  2

  9
$PUCSORG
 10
0.0
 20
0.0
 30
0.0
  9
$PUCSXDIR
 10
1.0
 20
0.0
 30
0.0
  9
$PUCSYDIR
 10
0.0
 20
1.0
 30
0.0
  9
$USERI1
 70
     0
  9
$USERI2
 70
     0
  9
$USERI3
 70
     0
  9
$USERI4
 70
     0
  9
$USERI5
 70
     0
  9
$USERR1
 40
0.0
  9
$USERR2
 40
0.0
  9
$USERR3
 40
0.0
  9
$USERR4
 40
0.0
  9
$USERR5
 40
0.0
  9
$WORLDVIEW
 70
     1
  9
$SHADEDGE
 70
     3
  9
$SHADEDIF
 70
    70
  9
$TILEMODE
 70
     1
  9
$MAXACTVP
 70
    16
  9
$PINSBASE
 10
0.0
 20
0.0
 30
0.0
  9
$PLIMCHECK
 70
     0
  9
$PEXTMIN
 10
-1.000000E+20
 20
-1.000000E+20
 30
-1.000000E+20
  9
$PEXTMAX
 10
-1.000000E+20
 20
-1.000000E+20
 30
-1.000000E+20
  9
$PLIMMIN
 10
0.0
 20
0.0
  9
$PLIMMAX
 10
12.0
 20
9.0
  9
$UNITMODE
 70
     0
  9
$VISRETAIN
 70
     0
  9
$PLINEGEN
 70
     1
  9
$PSLTSCALE
 70
     0
  9
$TREEDEPTH
 70
  3020
  9
$DWGCODEPAGE
  3
ansi_1252
  0
ENDSEC
  0
SECTION
  2
TABLES
  0
TABLE
  2
VPORT
 70
     1
  0
VPORT
  2
*ACTIVE
 70
     0
 10
0.0
 20
0.0
 11
1.0
 21
1.0
 12
0.0
 22
0.0
 13
0.0
 23
0.0
 14
0.0
 24
0.0
 15
0.0
 25
0.0
 16
0.0
 26
0.0
 36
1.0
 17
956516.62001
 27
7311199.662761
 37
0.0
 40
4930.32358
 41
1.501562
 42
50.0
 43
0.004
 44
0.0
 50
1.681086
 51
0.0
 71
     0
 72
   100
 73
     1
 74
     0
 75
     0
 76
     0
 77
     0
 78
     0
  0
ENDTAB
  0
TABLE
  2
LTYPE
 70
     7
  0
LTYPE
  2
CONTINUOUS
 70
     0
  3
Solid line
 72
    65
 73
     0
 40
0.0
  0
LTYPE
  2
DOT
 70
    64
  3
. . . . . . . . . . . . . . . . . . . . . . . . . . . . . . . . .
 72
    65
 73
     2
 40
0.25
 49
0.0
 49
-0.25
  0
LTYPE
  2
HIDDEN
 70
    64
  3
__ __ __ __ __ __ __ __ __ __ __ __ __ __ __ __ __ __ __ __ __ 
 72
    65
 73
     2
 40
0.375
 49
0.25
 49
-0.125
  0
LTYPE
  2
DASHED
 70
    64
  3
__ __ __ __ __ __ __ __ __ __ __ __ __ __ __ __ __ __ __ __ __
 72
    65
 73
     2
 40
0.75
 49
0.5
 49
-0.25
  0
LTYPE
  2
DASHDOT
 70
    64
  3
__ . __ . __ . __ . __ . __ . __ . __ . __ . __ . __ . __ . _
 72
    65
 73
     4
 40
1.0
 49
0.5
 49
-0.25
 49
0.0
 49
-0.25
  0
LTYPE
  2
DIVIDE
 70
    64
  3
____ . . ____ . . ____ . . ____ . . ____ . . ____ . . ____ . .
 72
    65
 73
     6
 40
1.25
 49
0.5
 49
-0.25
 49
0.0
 49
-0.25
 49
0.0
 49
-0.25
  0
LTYPE
  2
CENTER
 70
    64
  3
____ _ ____ _ ____ _ ____ _ ____ _ ____ _ ____ _ ____ _ ____ _
 72
    65
 73
     4
 40
2.0
 49
1.25
 49
-0.25
 49
0.25
 49
-0.25
  0
ENDTAB
  0
TABLE
  2
LAYER
 70
     9
  0
LAYER
  2
0
 70
    64
 62
     7
  6
CONTINUOUS
  0
LAYER
  2
CONSTRUCTION_CLASS
 70
     1
 62
     7
  6
CONTINUOUS
  0
LAYER
  2
PATTERN_CLASS
 70
     0
 62
     7
  6
CONTINUOUS
  0
LAYER
  2
6
 70
    64
 62
     7
  6
CONTINUOUS
  0
LAYER
  2
19
 70
    64
 62
     7
  6
CONTINUOUS
  0
LAYER
  2
DEFPOINTS
 70
    64
 62
     7
  6
CONTINUOUS
  0
LAYER
  2
1
 70
    64
 62
     7
  6
CONTINUOUS
  0
LAYER
  2
10
 70
    64
 62
     7
  6
CONTINUOUS
  0
LAYER
  2
58
 70
    64
 62
     7
  6
CONTINUOUS
  0
ENDTAB
  0
TABLE
  2
STYLE
 70
     4
  0
STYLE
  2
STANDARD
 70
     0
 40
0.0
 41
1.0
 50
0.0
 71
     0
 42
0.0
  3
txt
  4

  0
STYLE
  2
MONOTXT
 70
     0
 40
0.2
 41
1.0
 50
0.0
 71
     0
 42
0.2
  3
MONOTXT
  4

  0
STYLE
  2
ROMANC
 70
     0
 40
0.2
 41
1.0
 50
0.0
 71
     0
 42
0.2
  3
ROMANC
  4

  0
STYLE
  2
ROMANS
 70
     0
 40
0.2
 41
1.0
 50
0.0
 71
     0
 42
0.2
  3
ROMANS
  4

  0
ENDTAB
  0
TABLE
  2
VIEW
 70
     0
  0
ENDTAB
  0
TABLE
  2
UCS
 70
     0
  0
ENDTAB
  0
TABLE
  2
APPID
 70
     1
  0
APPID
  2
ACAD
 70
     0
  0
ENDTAB
  0
TABLE
  2
DIMSTYLE
 70
     2
  0
DIMSTYLE
  2
STANDARD
 70
     0
  3

  4

  5

  6

  7

 40
1.0
 41
0.18
 42
0.0625
 43
0.38
 44
0.18
 45
0.0
 46
0.0
 47
0.0
 48
0.0
140
0.18
141
0.09
142
0.0
143
25.4
144
1.0
145
0.0
146
1.0
147
0.09
 71
     0
 72
     0
 73
     1
 74
     1
 75
     0
 76
     0
 77
     0
 78
     0
170
     0
171
     2
172
     0
173
     0
174
     0
175
     0
176
     0
177
     0
178
     0
  0
DIMSTYLE
  2
MSADIM
 70
     0
  3

  4

  5

  6

  7

 40
1.0
 41
8.0
 42
4.0
 43
0.0
 44
4.0
 45
0.0
 46
0.0
 47
0.0
 48
0.0
140
8.0
141
4.0
142
0.0
143
25.4
144
1.0
145
4.0
146
1.0
147
4.0
 71
     0
 72
     0
 73
     1
 74
     1
 75
     1
 76
     1
 77
     0
 78
     2
170
     0
171
     2
172
     0
173
     1
174
     0
175
     0
176
     0
177
     0
178
     0
  0
ENDTAB
  0
ENDSEC
  0
SECTION
  2
BLOCKS
  0
BLOCK
  8
0
  6
CONTINUOUS
 62
     7
  5
1B6
  2
*D0
 70
     1
 10
0.0
 20
0.0
 30
0.0
  3
*N0
  0
POLYLINE
  8
0
  6
CONTINUOUS
 62
     7
  5
1B7
 66
     1
 10
0.0
 20
0.0
 30
0.0
  0
VERTEX
  8
0
  6
CONTINUOUS
 62
     7
  5
1B8
 10
955912.839
 20
7308193.694
 30
0.0
  0
VERTEX
  8
0
  6
CONTINUOUS
 62
     7
  5
1B9
 10
955904.901
 20
7308195.928
 30
0.0
  0
VERTEX
  8
0
  6
CONTINUOUS
 62
     7
  5
1BA
 10
955912.956
 20
7308197.692
 30
0.0
  0
SEQEND
  8
0
  6
CONTINUOUS
 62
     7
  5
1BB
  0
LINE
  8
0
  6
CONTINUOUS
 62
     7
  5
1BC
 10
955904.901
 20
7308195.928
 30
0.0
 11
956031.795
 21
7308192.204
 31
0.0
  0
LINE
  8
0
  6
CONTINUOUS
 62
     7
  5
1BD
 10
956031.795
 20
7308192.204
 30
0.0
 11
956047.788
 21
7308191.735
 31
0.0
  0
TEXT
  8
0
  6
CONTINUOUS
 62
     7
  5
1BE
 10
956051.669
 20
7308187.619
 30
0.0
 40
8.0
  1
250'
 50
358.318914
  7
ROMANS
 11
956051.786345
 21
7308191.617278
 31
0.0
210
0.0
220
0.0
230
1.0
 73
     2
  0
ENDBLK
  8
0
  6
CONTINUOUS
 62
     7
  5
1BF
  0
BLOCK
  8
0
  6
CONTINUOUS
 62
     7
  5
1C2
  2
*D1
 70
     1
 10
0.0
 20
0.0
 30
0.0
  3
*N1
  0
POLYLINE
  8
0
  6
CONTINUOUS
 62
     7
  5
1C3
 66
     1
 10
0.0
 20
0.0
 30
0.0
  0
VERTEX
  8
0
  6
CONTINUOUS
 62
     7
  5
1C4
 10
956182.949
 20
7308189.769
 30
0.0
  0
VERTEX
  8
0
  6
CONTINUOUS
 62
     7
  5
1C5
 10
956190.887
 20
7308187.535
 30
0.0
  0
VERTEX
  8
0
  6
CONTINUOUS
 62
     7
  5
1C6
 10
956182.832
 20
7308185.771
 30
0.0
  0
SEQEND
  8
0
  6
CONTINUOUS
 62
     7
  5
1C7
  0
LINE
  8
0
  6
CONTINUOUS
 62
     7
  5
1C8
 10
956190.887
 20
7308187.535
 30
0.0
 11
956090.508
 21
7308190.481
 31
0.0
  0
ENDBLK
  8
0
  6
CONTINUOUS
 62
     7
  5
1C9
  0
BLOCK
  8
0
  6
CONTINUOUS
 62
     7
  5
1CC
  2
*D2
 70
     1
 10
0.0
 20
0.0
 30
0.0
  3
*N2
  0
POLYLINE
  8
0
  6
CONTINUOUS
 62
     7
  5
1CD
 66
     1
 10
0.0
 20
0.0
 30
0.0
  0
VERTEX
  8
0
  6
CONTINUOUS
 62
     7
  5
1CE
 10
956440.666
 20
7307550.051
 30
0.0
  0
VERTEX
  8
0
  6
CONTINUOUS
 62
     7
  5
1CF
 10
956448.604
 20
7307547.817
 30
0.0
  0
VERTEX
  8
0
  6
CONTINUOUS
 62
     7
  5
1D0
 10
956440.549
 20
7307546.053
 30
0.0
  0
SEQEND
  8
0
  6
CONTINUOUS
 62
     7
  5
1D1
  0
LINE
  8
0
  6
CONTINUOUS
 62
     7
  5
1D2
 10
956448.604
 20
7307547.817
 30
0.0
 11
956374.739
 21
7307549.985
 31
0.0
  0
ENDBLK
  8
0
  6
CONTINUOUS
 62
     7
  5
1D3
  0
BLOCK
  8
0
  6
CONTINUOUS
 62
     7
  5
1D6
  2
*D3
 70
     1
 10
0.0
 20
0.0
 30
0.0
  3
*N3
  0
POLYLINE
  8
0
  6
CONTINUOUS
 62
     7
  5
1D7
 66
     1
 10
0.0
 20
0.0
 30
0.0
  0
VERTEX
  8
0
  6
CONTINUOUS
 62
     7
  5
1D8
 10
956475.819
 20
7307456.069
 30
0.0
  0
VERTEX
  8
0
  6
CONTINUOUS
 62
     7
  5
1D9
 10
956483.757
 20
7307453.835
 30
0.0
  0
VERTEX
  8
0
  6
CONTINUOUS
 62
     7
  5
1DA
 10
956475.702
 20
7307452.071
 30
0.0
  0
SEQEND
  8
0
  6
CONTINUOUS
 62
     7
  5
1DB
  0
LINE
  8
0
  6
CONTINUOUS
 62
     7
  5
1DC
 10
956483.757
 20
7307453.835
 30
0.0
 11
956229.968
 21
7307461.283
 31
0.0
  0
ENDBLK
  8
0
  6
CONTINUOUS
 62
     7
  5
1DD
  0
BLOCK
  8
0
  6
CONTINUOUS
 62
     7
  5
1E0
  2
*D4
 70
     1
 10
0.0
 20
0.0
 30
0.0
  3
*N4
  0
POLYLINE
  8
0
  6
CONTINUOUS
 62
     7
  5
1E1
 66
     1
 10
0.0
 20
0.0
 30
0.0
  0
VERTEX
  8
0
  6
CONTINUOUS
 62
     7
  5
1E2
 10
956530.003
 20
7307450.189
 30
0.0
  0
VERTEX
  8
0
  6
CONTINUOUS
 62
     7
  5
1E3
 10
956522.065
 20
7307452.423
 30
0.0
  0
VERTEX
  8
0
  6
CONTINUOUS
 62
     7
  5
1E4
 10
956530.12
 20
7307454.187
 30
0.0
  0
SEQEND
  8
0
  6
CONTINUOUS
 62
     7
  5
1E5
  0
LINE
  8
0
  6
CONTINUOUS
 62
     7
  5
1E6
 10
956522.065
 20
7307452.423
 30
0.0
 11
956548.35
 21
7307451.651
 31
0.0
  0
LINE
  8
0
  6
CONTINUOUS
 62
     7
  5
1E7
 10
956548.35
 20
7307451.651
 30
0.0
 11
956564.343
 21
7307451.182
 31
0.0
  0
TEXT
  8
0
  6
CONTINUOUS
 62
     7
  5
1E8
 10
956568.224
 20
7307447.066
 30
0.0
 40
8.0
  1
75'
 50
358.318914
  7
ROMANS
 11
956568.341345
 21
7307451.064278
 31
0.0
210
0.0
220
0.0
230
1.0
 73
     2
  0
ENDBLK
  8
0
  6
CONTINUOUS
 62
     7
  5
1E9
  0
BLOCK
  8
0
  6
CONTINUOUS
 62
     7
  5
1EC
  2
*D5
 70
     1
 10
0.0
 20
0.0
 30
0.0
  3
*N5
  0
POLYLINE
  8
0
  6
CONTINUOUS
 62
     7
  5
1ED
 66
     1
 10
0.0
 20
0.0
 30
0.0
  0
VERTEX
  8
0
  6
CONTINUOUS
 62
     7
  5
1EE
 10
955892.273
 20
7307469.158
 30
0.0
  0
VERTEX
  8
0
  6
CONTINUOUS
 62
     7
  5
1EF
 10
955884.335
 20
7307471.392
 30
0.0
  0
VERTEX
  8
0
  6
CONTINUOUS
 62
     7
  5
1F0
 10
955892.39
 20
7307473.156
 30
0.0
  0
SEQEND
  8
0
  6
CONTINUOUS
 62
     7
  5
1F1
  0
LINE
  8
0
  6
CONTINUOUS
 62
     7
  5
1F2
 10
955884.335
 20
7307471.392
 30
0.0
 11
956176.979
 21
7307462.804
 31
0.0
  0
LINE
  8
0
  6
CONTINUOUS
 62
     7
  5
1F3
 10
956176.979
 20
7307462.804
 30
0.0
 11
956192.972
 21
7307462.335
 31
0.0
  0
TEXT
  8
0
  6
CONTINUOUS
 62
     7
  5
1F4
 10
956196.853
 20
7307458.219
 30
0.0
 40
8.0
  1
600'
 50
358.318914
  7
ROMANS
 11
956196.970345
 21
7307462.217278
 31
0.0
210
0.0
220
0.0
230
1.0
 73
     2
  0
ENDBLK
  8
0
  6
CONTINUOUS
 62
     7
  5
1F5
  0
BLOCK
  8
0
  6
CONTINUOUS
 62
     7
  5
1F8
  2
*D6
 70
     1
 10
0.0
 20
0.0
 30
0.0
  3
*N6
  0
POLYLINE
  8
0
  6
CONTINUOUS
 62
     7
  5
1F9
 66
     1
 10
0.0
 20
0.0
 30
0.0
  0
VERTEX
  8
0
  6
CONTINUOUS
 62
     7
  5
1FA
 10
955542.429
 20
7307479.426
 30
0.0
  0
VERTEX
  8
0
  6
CONTINUOUS
 62
     7
  5
1FB
 10
955534.491
 20
7307481.66
 30
0.0
  0
VERTEX
  8
0
  6
CONTINUOUS
 62
     7
  5
1FC
 10
955542.546
 20
7307483.424
 30
0.0
  0
SEQEND
  8
0
  6
CONTINUOUS
 62
     7
  5
1FD
  0
LINE
  8
0
  6
CONTINUOUS
 62
     7
  5
1FE
 10
955534.491
 20
7307481.66
 30
0.0
 11
955659.531
 21
7307477.99
 31
0.0
  0
LINE
  8
0
  6
CONTINUOUS
 62
     7
  5
1FF
 10
955659.531
 20
7307477.99
 30
0.0
 11
955675.524
 21
7307477.521
 31
0.0
  0
TEXT
  8
0
  6
CONTINUOUS
 62
     7
  5
200
 10
955679.405
 20
7307473.405
 30
0.0
 40
8.0
  1
350'
 50
358.318914
  7
ROMANS
 11
955679.522345
 21
7307477.403278
 31
0.0
210
0.0
220
0.0
230
1.0
 73
     2
  0
ENDBLK
  8
0
  6
CONTINUOUS
 62
     7
  5
201
  0
BLOCK
  8
0
  6
CONTINUOUS
 62
     7
  5
204
  2
*D7
 70
     1
 10
0.0
 20
0.0
 30
0.0
  3
*N7
  0
POLYLINE
  8
0
  6
CONTINUOUS
 62
     7
  5
205
 66
     1
 10
0.0
 20
0.0
 30
0.0
  0
VERTEX
  8
0
  6
CONTINUOUS
 62
     7
  5
206
 10
955875.066
 20
7307473.666
 30
0.0
  0
VERTEX
  8
0
  6
CONTINUOUS
 62
     7
  5
207
 10
955883.004
 20
7307471.432
 30
0.0
  0
VERTEX
  8
0
  6
CONTINUOUS
 62
     7
  5
208
 10
955874.949
 20
7307469.668
 30
0.0
  0
SEQEND
  8
0
  6
CONTINUOUS
 62
     7
  5
209
  0
LINE
  8
0
  6
CONTINUOUS
 62
     7
  5
20A
 10
955883.004
 20
7307471.432
 30
0.0
 11
955706.087
 21
7307476.624
 31
0.0
  0
ENDBLK
  8
0
  6
CONTINUOUS
 62
     7
  5
20B
  0
BLOCK
  8
0
  6
CONTINUOUS
 62
     7
  5
20E
  2
*D8
 70
     1
 10
0.0
 20
0.0
 30
0.0
  3
*N8
  0
POLYLINE
  8
0
  6
CONTINUOUS
 62
     7
  5
20F
 66
     1
 10
0.0
 20
0.0
 30
0.0
  0
VERTEX
  8
0
  6
CONTINUOUS
 62
     7
  5
210
 10
955535.117
 20
7306577.745
 30
0.0
  0
VERTEX
  8
0
  6
CONTINUOUS
 62
     7
  5
211
 10
955527.179
 20
7306579.979
 30
0.0
  0
VERTEX
  8
0
  6
CONTINUOUS
 62
     7
  5
212
 10
955535.234
 20
7306581.743
 30
0.0
  0
SEQEND
  8
0
  6
CONTINUOUS
 62
     7
  5
213
  0
LINE
  8
0
  6
CONTINUOUS
 62
     7
  5
214
 10
955527.179
 20
7306579.979
 30
0.0
 11
955604.331
 21
7306577.714
 31
0.0
  0
ENDBLK
  8
0
  6
CONTINUOUS
 62
     7
  5
215
  0
BLOCK
  8
0
  6
CONTINUOUS
 62
     7
  5
218
  2
*D9
 70
     1
 10
0.0
 20
0.0
 30
0.0
  3
*N9
  0
POLYLINE
  8
0
  6
CONTINUOUS
 62
     7
  5
219
 66
     1
 10
0.0
 20
0.0
 30
0.0
  0
VERTEX
  8
0
  6
CONTINUOUS
 62
     7
  5
21A
 10
955479.335
 20
7306583.384
 30
0.0
  0
VERTEX
  8
0
  6
CONTINUOUS
 62
     7
  5
21B
 10
955487.273
 20
7306581.15
 30
0.0
  0
VERTEX
  8
0
  6
CONTINUOUS
 62
     7
  5
21C
 10
955479.218
 20
7306579.386
 30
0.0
  0
SEQEND
  8
0
  6
CONTINUOUS
 62
     7
  5
21D
  0
LINE
  8
0
  6
CONTINUOUS
 62
     7
  5
21E
 10
955487.273
 20
7306581.15
 30
0.0
 11
955452.688
 21
7306582.165
 31
0.0
  0
LINE
  8
0
  6
CONTINUOUS
 62
     7
  5
21F
 10
955452.688
 20
7306582.165
 30
0.0
 11
955436.695
 21
7306582.634
 31
0.0
  0
TEXT
  8
0
  6
CONTINUOUS
 62
     7
  5
220
 10
955413.921
 20
7306579.301
 30
0.0
 40
8.0
  1
40'
 50
358.318914
  7
ROMANS
 11
955414.038345
 21
7306583.299278
 31
0.0
210
0.0
220
0.0
230
1.0
 73
     2
  0
ENDBLK
  8
0
  6
CONTINUOUS
 62
     7
  5
221
  0
BLOCK
  8
0
  6
CONTINUOUS
 62
     7
  5
224
  2
*D10
 70
     1
 10
0.0
 20
0.0
 30
0.0
  3
*N10
  0
POLYLINE
  8
0
  6
CONTINUOUS
 62
     7
  5
225
 66
     1
 10
0.0
 20
0.0
 30
0.0
  0
VERTEX
  8
0
  6
CONTINUOUS
 62
     7
  5
226
 10
956164.71
 20
7306011.192
 30
0.0
  0
VERTEX
  8
0
  6
CONTINUOUS
 62
     7
  5
227
 10
956158.901
 20
7306017.044
 30
0.0
  0
VERTEX
  8
0
  6
CONTINUOUS
 62
     7
  5
228
 10
956166.781
 20
7306014.614
 30
0.0
  0
SEQEND
  8
0
  6
CONTINUOUS
 62
     7
  5
229
  0
LINE
  8
0
  6
CONTINUOUS
 62
     7
  5
22A
 10
956158.901
 20
7306017.044
 30
0.0
 11
956202.157
 21
7305990.873
 31
0.0
  0
ENDBLK
  8
0
  6
CONTINUOUS
 62
     7
  5
22B
  0
BLOCK
  8
0
  6
CONTINUOUS
 62
     7
  5
22E
  2
*D11
 70
     1
 10
0.0
 20
0.0
 30
0.0
  3
*N11
  0
POLYLINE
  8
0
  6
CONTINUOUS
 62
     7
  5
22F
 66
     1
 10
0.0
 20
0.0
 30
0.0
  0
VERTEX
  8
0
  6
CONTINUOUS
 62
     7
  5
230
 10
956076.165
 20
7306069.717
 30
0.0
  0
VERTEX
  8
0
  6
CONTINUOUS
 62
     7
  5
231
 10
956081.82
 20
7306063.716
 30
0.0
  0
VERTEX
  8
0
  6
CONTINUOUS
 62
     7
  5
232
 10
956074.006
 20
7306066.35
 30
0.0
  0
SEQEND
  8
0
  6
CONTINUOUS
 62
     7
  5
233
  0
LINE
  8
0
  6
CONTINUOUS
 62
     7
  5
234
 10
956081.82
 20
7306063.716
 30
0.0
 11
956032.505
 21
7306095.331
 31
0.0
  0
LINE
  8
0
  6
CONTINUOUS
 62
     7
  5
235
 10
956032.505
 20
7306095.331
 30
0.0
 11
956016.512
 21
7306095.8
 31
0.0
  0
TEXT
  8
0
  6
CONTINUOUS
 62
     7
  5
236
 10
955993.738
 20
7306092.467
 30
0.0
 40
8.0
  1
90'
 50
358.318914
  7
ROMANS
 11
955993.855345
 21
7306096.465278
 31
0.0
210
0.0
220
0.0
230
1.0
 73
     2
  0
ENDBLK
  8
0
  6
CONTINUOUS
 62
     7
  5
237
  0
ENDSEC
  0
SECTION
  2
ENTITIES
  0
LINE
  8
0
  6
CONTINUOUS
 62
     2
  5
28
 10
956026.121
 20
7308061.42
 30
0.0
 11
956187.555
 21
7308056.682
 31
0.0
  0
LINE
  8
0
  6
CONTINUOUS
 62
     2
  5
29
 10
956148.436
 20
7307967.716
 30
0.0
 11
956184.912
 21
7307966.646
 31
0.0
  0
LINE
  8
0
  6
CONTINUOUS
 62
     2
  5
2A
 10
955977.53
 20
7308112.817
 30
0.0
 11
956032.292
 21
7309978.692
 31
0.0
  0
LINE
  8
0
  6
CONTINUOUS
 62
     2
  5
2B
 10
956466.295
 20
7308145.951
 30
0.0
 11
956519.665
 21
7309964.388
 31
0.0
  0
LINE
  8
0
  6
CONTINUOUS
 62
     2
  5
2C
 10
956294.806
 20
7306137.021
 30
0.0
 11
956309.737
 21
7306136.583
 31
0.0
  0
LINE
  8
0
  6
CONTINUOUS
 62
     2
  5
2D
 10
956297.448
 20
7306227.057
 30
0.0
 11
956312.38
 21
7306226.618
 31
0.0
  0
LINE
  8
0
  6
CONTINUOUS
 62
     2
  5
2E
 10
956129.098
 20
7305968.527
 30
0.0
 11
956159.084
 21
7306017.218
 31
0.0
  0
LINE
  8
0
  6
CONTINUOUS
 62
     2
  5
2F
 10
955958.168
 20
7305863.03
 30
0.0
 11
956082.478
 21
7306064.456
 31
0.0
  0
LINE
  8
0
  6
CONTINUOUS
 62
     2
  5
30
 10
956412.74
 20
7306321.191
 30
0.0
 11
956457.936
 21
7307861.115
 31
0.0
  0
LINE
  8
0
  6
CONTINUOUS
 62
     2
  5
31
 10
955911.91
 20
7305876.977
 30
0.0
 11
955968.287
 21
7307797.9
 31
0.0
  0
LINE
  8
0
  6
CONTINUOUS
 62
     2
  5
32
 10
956439.663
 20
7304684.456
 30
0.0
 11
956594.56
 21
7309962.19
 31
0.0
  0
LINE
  8
0
  6
CONTINUOUS
 62
     2
  5
33
 10
956364.768
 20
7304686.654
 30
0.0
 11
956404.379
 21
7306036.288
 31
0.0
  0
LINE
  8
0
  6
CONTINUOUS
 62
     2
  5
34
 10
955877.395
 20
7304700.958
 30
0.0
 11
955891.314
 21
7305175.219
 31
0.0
  0
LINE
  8
0
  6
CONTINUOUS
 62
     2
  5
35
 10
955432.672
 20
7304714.01
 30
0.0
 11
955518.622
 21
7307642.525
 31
0.0
  0
LINE
  8
0
  6
CENTER
 62
     7
  5
36
 10
955918.952
 20
7308670.959
 30
0.0
 11
955544.9
 21
7308064.903
 31
0.0
  0
LINE
  8
0
  6
CONTINUOUS
 62
     2
  5
37
 10
955740.71
 20
7308334.539
 30
0.0
 11
955715.815
 21
7308294.186
 31
0.0
  0
LINE
  8
0
  6
CONTINUOUS
 62
     2
  5
38
 10
955799.434
 20
7308524.888
 30
0.0
 11
955718.75
 21
7308394.176
 31
0.0
  0
LINE
  8
0
  6
CONTINUOUS
 62
     2
  5
39
 10
955844.003
 20
7308673.633
 30
0.0
 11
955882.434
 21
7309983.09
 31
0.0
  0
LINE
  8
0
  6
CONTINUOUS
 62
     2
  5
3A
 10
955454.571
 20
7307761.456
 30
0.0
 11
955460.879
 21
7307976.383
 31
0.0
  0
LINE
  8
0
  6
CONTINUOUS
 62
     2
  5
3B
 10
955776.213
 20
7308068.755
 30
0.0
 11
955623.461
 21
7308073.238
 31
0.0
  0
LINE
  8
0
  6
CONTINUOUS
 62
     2
  5
3C
 10
955721.815
 20
7307920.229
 30
0.0
 11
955666.904
 21
7307921.841
 31
0.0
  0
LINE
  8
0
  6
CONTINUOUS
 62
     2
  5
3D
 10
955827.673
 20
7308117.215
 30
0.0
 11
955833.236
 21
7308306.767
 31
0.0
  0
LINE
  8
0
  6
CONTINUOUS
 62
     2
  5
3E
 10
955518.622
 20
7307642.525
 30
0.0
 11
955454.571
 21
7307761.456
 31
0.0
  0
LINE
  8
0
  6
CENTER
 62
     7
  5
3F
 10
955531.365
 20
7308000.845
 30
0.0
 11
955913.77
 21
7307989.622
 31
0.0
  0
ARC
  8
0
  6
CONTINUOUS
 62
     2
  5
40
 10
956306.907237
 20
7306039.151694
 30
0.0
 40
97.500321
 50
358.3189
 51
88.3189
210
0.0
220
0.0
230
1.0
  0
ARC
  8
0
  6
CONTINUOUS
 62
     2
  5
41
 10
956315.268173
 20
7306324.029964
 30
0.0
 40
97.500321
 50
268.3189
 51
358.3189
210
0.0
220
0.0
230
1.0
  0
ARC
  8
0
  6
CONTINUOUS
 62
     2
  5
42
 10
956291.697738
 20
7306032.094826
 30
0.0
 40
105.000345
 50
88.3189
 51
148.3189
210
0.0
220
0.0
230
1.0
  0
ARC
  8
0
  6
CONTINUOUS
 62
     2
  5
43
 10
956291.697738
 20
7306032.094826
 30
0.0
 40
195.000641
 50
88.3189
 51
148.3189
210
0.0
220
0.0
230
1.0
  0
ARC
  8
0
  6
CONTINUOUS
 62
     2
  5
44
 10
955936.966636
 20
7305876.208841
 30
0.0
 40
25.000082
 50
178.3189
 51
328.3189
210
0.0
220
0.0
230
1.0
  0
ARC
  8
0
  6
CONTINUOUS
 62
     2
  5
45
 10
957490.699027
 20
7305128.28354
 30
0.0
 40
1600.00526
 50
148.3189
 51
178.3189
210
0.0
220
0.0
230
1.0
  0
ARC
  8
0
  6
CONTINUOUS
 62
     2
  5
46
 10
955544.121237
 20
7308682.446437
 30
0.0
 40
300.000986
 50
328.3189
 51
358.3189
210
0.0
220
0.0
230
1.0
  0
ARC
  8
0
  6
CONTINUOUS
 62
     2
  5
47
 10
955624.1821
 20
7308098.143381
 30
0.0
 40
25.000082
 50
148.3189
 51
268.3189
210
0.0
220
0.0
230
1.0
  0
ARC
  8
0
  6
CONTINUOUS
 62
     2
  5
48
 10
955783.24829
 20
7308308.281733
 30
0.0
 40
50.000164
 50
358.3189
 51
148.3189
210
0.0
220
0.0
230
1.0
  0
ARC
  8
0
  6
CONTINUOUS
 62
     2
  5
49
 10
955777.682734
 20
7308118.649115
 30
0.0
 40
50.000164
 50
268.3189
 51
358.3189
210
0.0
220
0.0
230
1.0
  0
ARC
  8
0
  6
CONTINUOUS
 62
     2
  5
4A
 10
956027.575953
 20
7308111.314961
 30
0.0
 40
50.000164
 50
178.3189
 51
268.3189
210
0.0
220
0.0
230
1.0
  0
ARC
  8
0
  6
CONTINUOUS
 62
     2
  5
4B
 10
956368.824221
 20
7308148.820223
 30
0.0
 40
97.500321
 50
268.3189
 51
358.3189
210
0.0
220
0.0
230
1.0
  0
ARC
  8
0
  6
CONTINUOUS
 62
     2
  5
4C
 10
956360.463285
 20
7307863.941953
 30
0.0
 40
97.500321
 50
358.3189
 51
88.3189
210
0.0
220
0.0
230
1.0
  0
ARC
  8
0
  6
CONTINUOUS
 62
     2
  5
4D
 10
956143.281528
 20
7307792.782427
 30
0.0
 40
175.000575
 50
88.3189
 51
178.3189
210
0.0
220
0.0
230
1.0
  0
ARC
  8
0
  6
CONTINUOUS
 62
     2
  5
4E
 10
955718.903105
 20
7307820.244082
 30
0.0
 40
100.000329
 50
358.3189
 51
88.3189
210
0.0
220
0.0
230
1.0
  0
ARC
  8
0
  6
CONTINUOUS
 62
     2
  5
4F
 10
955663.926596
 20
7307821.857596
 30
0.0
 40
100.000329
 50
88.3189
 51
116.228128
210
0.0
220
0.0
230
1.0
  0
LINE
  8
0
  6
CONTINUOUS
 62
     2
  5
50
 10
955727.537
 20
7304705.356
 30
0.0
 11
955729.252
 21
7304763.764
 31
0.0
  0
LINE
  8
0
  6
CENTER
 62
     7
  5
51
 10
955452.663
 20
7304713.423
 30
0.0
 11
955551.692
 21
7308087.601
 31
0.0
  0
LINE
  8
0
  6
CENTER
 62
     7
  5
52
 10
955881.209
 20
7308020.542
 30
0.0
 11
956514.808
 21
7308001.946
 31
0.0
  0
POLYLINE
  8
0
  6
CONTINUOUS
 62
     2
  5
53
 66
     1
 10
0.0
 20
0.0
 30
0.0
 70
     1
  0
VERTEX
  8
0
  6
CONTINUOUS
 62
     2
  5
54
 10
954859.946
 20
7305948.333
 30
0.0
  0
VERTEX
  8
0
  6
CONTINUOUS
 62
     2
  5
55
 10
954884.642
 20
7305947.608
 30
0.0
  0
VERTEX
  8
0
  6
CONTINUOUS
 62
     2
  5
56
 10
954883.704
 20
7305915.649
 30
0.0
  0
VERTEX
  8
0
  6
CONTINUOUS
 62
     2
  5
57
 10
954859.008
 20
7305916.374
 30
0.0
  0
SEQEND
  8
0
  6
CONTINUOUS
 62
     2
  5
58
  0
POLYLINE
  8
0
  6
CONTINUOUS
 62
     2
  5
59
 66
     1
 10
0.0
 20
0.0
 30
0.0
 70
     1
  0
VERTEX
  8
0
  6
CONTINUOUS
 62
     2
  5
5A
 10
954087.405
 20
7305333.633
 30
0.0
  0
VERTEX
  8
0
  6
CONTINUOUS
 62
     2
  5
5B
 10
954105.583
 20
7305333.1
 30
0.0
  0
VERTEX
  8
0
  6
CONTINUOUS
 62
     2
  5
5C
 10
954104.637
 20
7305300.862
 30
0.0
  0
VERTEX
  8
0
  6
CONTINUOUS
 62
     2
  5
5D
 10
954086.459
 20
7305301.396
 30
0.0
  0
SEQEND
  8
0
  6
CONTINUOUS
 62
     2
  5
5E
  0
SOLID
  8
0
  6
CONTINUOUS
 62
     2
  5
5F
 10
954105.583
 20
7305333.1
 30
0.0
 11
954104.637
 21
7305300.862
 31
0.0
 12
954087.405
 22
7305333.633
 32
0.0
 13
954086.459
 23
7305301.396
 33
0.0
  0
SOLID
  8
0
  6
CONTINUOUS
 62
     2
  5
60
 10
954884.642
 20
7305947.608
 30
0.0
 11
954883.704
 21
7305915.649
 31
0.0
 12
954859.946
 22
7305948.333
 32
0.0
 13
954859.008
 23
7305916.374
 33
0.0
  0
POLYLINE
  8
0
  6
CONTINUOUS
 62
     7
  5
61
 66
     1
 10
0.0
 20
0.0
 30
0.0
  0
VERTEX
  8
0
  6
CONTINUOUS
 62
     7
  5
62
 10
954011.748
 20
7305401.378
 30
0.0
  0
VERTEX
  8
0
  6
CONTINUOUS
 62
     7
  5
63
 10
954189.188
 20
7305396.17
 30
0.0
  0
VERTEX
  8
0
  6
CONTINUOUS
 62
     7
  5
64
 10
954186.89
 20
7305317.847
 30
0.0
  0
SEQEND
  8
0
  6
CONTINUOUS
 62
     7
  5
65
  0
POLYLINE
  8
0
  6
CONTINUOUS
 62
     7
  5
66
 66
     1
 10
0.0
 20
0.0
 30
0.0
  0
VERTEX
  8
0
  6
CONTINUOUS
 62
     7
  5
67
 10
954186.238
 20
7305295.638
 30
0.0
  0
VERTEX
  8
0
  6
CONTINUOUS
 62
     7
  5
68
 10
954184.21
 20
7305226.533
 30
0.0
  0
VERTEX
  8
0
  6
CONTINUOUS
 62
     7
  5
69
 10
954006.769
 20
7305231.741
 30
0.0
  0
VERTEX
  8
0
  6
CONTINUOUS
 62
     7
  5
6A
 10
954011.748
 20
7305401.378
 30
0.0
  0
SEQEND
  8
0
  6
CONTINUOUS
 62
     7
  5
6B
  0
LINE
  8
0
  6
CONTINUOUS
 62
     7
  5
6C
 10
954992.181
 20
7305894.474
 30
0.0
 11
954973.107
 21
7305898.338
 31
0.0
  0
LINE
  8
0
  6
CONTINUOUS
 62
     7
  5
6D
 10
954905.269
 20
7306037.922
 30
0.0
 11
954941.105
 21
7306054.184
 31
0.0
  0
LINE
  8
0
  6
CONTINUOUS
 62
     7
  5
6E
 10
954941.105
 20
7306054.184
 30
0.0
 11
954950.906
 21
7306062.309
 31
0.0
  0
LINE
  8
0
  6
CONTINUOUS
 62
     7
  5
6F
 10
954950.906
 20
7306062.309
 30
0.0
 11
954961.158
 21
7306076.282
 31
0.0
  0
LINE
  8
0
  6
CONTINUOUS
 62
     7
  5
70
 10
954961.158
 20
7306076.282
 30
0.0
 11
954971.304
 21
7306093.833
 31
0.0
  0
LINE
  8
0
  6
CONTINUOUS
 62
     7
  5
71
 10
954971.304
 20
7306093.833
 30
0.0
 11
954976.894
 21
7306110.177
 31
0.0
  0
LINE
  8
0
  6
CONTINUOUS
 62
     7
  5
72
 10
954976.894
 20
7306110.177
 30
0.0
 11
954987.07
 21
7306121.587
 31
0.0
  0
LINE
  8
0
  6
CONTINUOUS
 62
     7
  5
73
 10
954987.07
 20
7306121.587
 30
0.0
 11
954993.171
 21
7306139.189
 31
0.0
  0
LINE
  8
0
  6
CONTINUOUS
 62
     7
  5
74
 10
954993.171
 20
7306139.189
 30
0.0
 11
954998.45
 21
7306162.946
 31
0.0
  0
LINE
  8
0
  6
CONTINUOUS
 62
     7
  5
75
 10
954998.45
 20
7306162.946
 30
0.0
 11
955000.674
 21
7306183.822
 31
0.0
  0
POLYLINE
  8
0
  6
CONTINUOUS
 62
     7
  5
76
 66
     1
 10
0.0
 20
0.0
 30
0.0
  0
VERTEX
  8
0
  6
CONTINUOUS
 62
     7
  5
77
 10
954973.107
 20
7305898.338
 30
0.0
  0
VERTEX
  8
0
  6
CONTINUOUS
 62
     7
  5
78
 10
954971.789
 20
7305853.461
 30
0.0
  0
VERTEX
  8
0
  6
CONTINUOUS
 62
     7
  5
79
 10
954776.786
 20
7305859.184
 30
0.0
  0
VERTEX
  8
0
  6
CONTINUOUS
 62
     7
  5
7A
 10
954782.138
 20
7306041.536
 30
0.0
  0
SEQEND
  8
0
  6
CONTINUOUS
 62
     7
  5
7B
  0
LINE
  8
0
  6
CONTINUOUS
 62
     7
  5
7C
 10
954782.138
 20
7306041.536
 30
0.0
 11
954905.269
 21
7306037.922
 31
0.0
  0
LINE
  8
0
  6
CONTINUOUS
 62
     7
  5
7D
 10
955132.426
 20
7310005.102
 30
0.0
 11
955035.641
 21
7306707.368
 31
0.0
  0
LINE
  8
0
  6
CENTER
 62
     7
  5
7E
 10
955834.758
 20
7305033.634
 30
0.0
 11
955405.436
 21
7304802.297
 31
0.0
  0
POLYLINE
  8
0
  6
CONTINUOUS
 62
     2
  5
7F
 66
     1
 10
0.0
 20
0.0
 30
0.0
 70
     1
  0
VERTEX
  8
0
  6
CONTINUOUS
 62
     2
  5
80
 10
957589.564
 20
7306763.535
 30
0.0
  0
VERTEX
  8
0
  6
CONTINUOUS
 62
     2
  5
81
 10
957615.403
 20
7306762.777
 30
0.0
  0
VERTEX
  8
0
  6
CONTINUOUS
 62
     2
  5
82
 10
957614.598
 20
7306735.328
 30
0.0
  0
VERTEX
  8
0
  6
CONTINUOUS
 62
     2
  5
83
 10
957588.758
 20
7306736.086
 30
0.0
  0
SEQEND
  8
0
  6
CONTINUOUS
 62
     2
  5
84
  0
POLYLINE
  8
0
  6
CONTINUOUS
 62
     2
  5
85
 66
     1
 10
0.0
 20
0.0
 30
0.0
 70
     1
  0
VERTEX
  8
0
  6
CONTINUOUS
 62
     2
  5
86
 10
957551.783
 20
7306892.207
 30
0.0
  0
VERTEX
  8
0
  6
CONTINUOUS
 62
     2
  5
87
 10
957579.103
 20
7306891.405
 30
0.0
  0
VERTEX
  8
0
  6
CONTINUOUS
 62
     2
  5
88
 10
957578.262
 20
7306862.739
 30
0.0
  0
VERTEX
  8
0
  6
CONTINUOUS
 62
     2
  5
89
 10
957550.942
 20
7306863.54
 30
0.0
  0
SEQEND
  8
0
  6
CONTINUOUS
 62
     2
  5
8A
  0
POLYLINE
  8
0
  6
CONTINUOUS
 62
     2
  5
8B
 66
     1
 10
0.0
 20
0.0
 30
0.0
 70
     1
  0
VERTEX
  8
0
  6
CONTINUOUS
 62
     2
  5
8C
 10
958450.077
 20
7305150.898
 30
0.0
  0
VERTEX
  8
0
  6
CONTINUOUS
 62
     2
  5
8D
 10
958579.883
 20
7305147.088
 30
0.0
  0
VERTEX
  8
0
  6
CONTINUOUS
 62
     2
  5
8E
 10
958576.82
 20
7305042.729
 30
0.0
  0
VERTEX
  8
0
  6
CONTINUOUS
 62
     2
  5
8F
 10
958447.014
 20
7305046.539
 30
0.0
  0
SEQEND
  8
0
  6
CONTINUOUS
 62
     2
  5
90
  0
POLYLINE
  8
0
  6
CONTINUOUS
 62
     2
  5
91
 66
     1
 10
0.0
 20
0.0
 30
0.0
  0
VERTEX
  8
0
  6
CONTINUOUS
 62
     2
  5
92
 10
957584.689
 20
7307067.894
 30
0.0
  0
VERTEX
  8
0
  6
CONTINUOUS
 62
     2
  5
93
 10
957559.323
 20
7307068.639
 30
0.0
  0
VERTEX
  8
0
  6
CONTINUOUS
 62
     2
  5
94
 10
957558.833
 20
7307051.949
 30
0.0
  0
VERTEX
  8
0
  6
CONTINUOUS
 62
     2
  5
95
 10
957584.2
 20
7307051.205
 30
0.0
  0
SEQEND
  8
0
  6
CONTINUOUS
 62
     2
  5
96
  0
POLYLINE
  8
0
  6
CONTINUOUS
 62
     2
  5
97
 66
     1
 10
0.0
 20
0.0
 30
0.0
  0
VERTEX
  8
0
  6
CONTINUOUS
 62
     2
  5
98
 10
957585.363
 20
7307090.839
 30
0.0
  0
VERTEX
  8
0
  6
CONTINUOUS
 62
     2
  5
99
 10
957606.557
 20
7307090.217
 30
0.0
  0
VERTEX
  8
0
  6
CONTINUOUS
 62
     2
  5
9A
 10
957603.827
 20
7306997.219
 30
0.0
  0
VERTEX
  8
0
  6
CONTINUOUS
 62
     2
  5
9B
 10
957582.633
 20
7306997.841
 30
0.0
  0
VERTEX
  8
0
  6
CONTINUOUS
 62
     2
  5
9C
 10
957584.2
 20
7307051.205
 30
0.0
  0
SEQEND
  8
0
  6
CONTINUOUS
 62
     2
  5
9D
  0
LINE
  8
0
  6
CONTINUOUS
 62
     2
  5
9E
 10
957584.689
 20
7307067.894
 30
0.0
 11
957585.363
 21
7307090.839
 31
0.0
  0
SOLID
  8
0
  6
CONTINUOUS
 62
     2
  5
9F
 10
958579.883
 20
7305147.088
 30
0.0
 11
958576.82
 21
7305042.729
 31
0.0
 12
958450.077
 22
7305150.898
 32
0.0
 13
958447.014
 23
7305046.539
 33
0.0
  0
SOLID
  8
0
  6
CONTINUOUS
 62
     2
  5
A0
 10
957606.557
 20
7307090.217
 30
0.0
 11
957603.827
 21
7306997.219
 31
0.0
 12
957585.363
 22
7307090.839
 32
0.0
 13
957582.633
 23
7306997.841
 33
0.0
  0
SOLID
  8
0
  6
CONTINUOUS
 62
     2
  5
A1
 10
957585.363
 20
7307090.839
 30
0.0
 11
957582.633
 21
7306997.841
 31
0.0
 12
957584.689
 22
7307067.894
 32
0.0
 13
957584.2
 23
7307051.205
 33
0.0
  0
SOLID
  8
0
  6
CONTINUOUS
 62
     2
  5
A2
 10
957584.689
 20
7307067.894
 30
0.0
 11
957584.2
 21
7307051.205
 31
0.0
 12
957559.323
 22
7307068.639
 32
0.0
 13
957558.833
 23
7307051.949
 33
0.0
  0
SOLID
  8
0
  6
CONTINUOUS
 62
     2
  5
A3
 10
957615.403
 20
7306762.777
 30
0.0
 11
957614.598
 21
7306735.328
 31
0.0
 12
957589.564
 22
7306763.535
 32
0.0
 13
957588.758
 23
7306736.086
 33
0.0
  0
SOLID
  8
0
  6
CONTINUOUS
 62
     2
  5
A4
 10
957579.103
 20
7306891.405
 30
0.0
 11
957578.262
 21
7306862.739
 31
0.0
 12
957551.783
 22
7306892.207
 32
0.0
 13
957550.942
 23
7306863.54
 33
0.0
  0
POLYLINE
  8
0
  6
CONTINUOUS
 62
     2
  5
A5
 66
     1
 10
0.0
 20
0.0
 30
0.0
 70
     1
  0
VERTEX
  8
0
  6
CONTINUOUS
 62
     2
  5
A6
 10
958376.711
 20
7304688.825
 30
0.0
  0
VERTEX
  8
0
  6
CONTINUOUS
 62
     2
  5
A7
 10
958396.633
 20
7304688.24
 30
0.0
  0
VERTEX
  8
0
  6
CONTINUOUS
 62
     2
  5
A8
 10
958395.46
 20
7304648.274
 30
0.0
  0
VERTEX
  8
0
  6
CONTINUOUS
 62
     2
  5
A9
 10
958375.538
 20
7304648.858
 30
0.0
  0
SEQEND
  8
0
  6
CONTINUOUS
 62
     2
  5
AA
  0
SOLID
  8
0
  6
CONTINUOUS
 62
     2
  5
AB
 10
958396.633
 20
7304688.24
 30
0.0
 11
958395.46
 21
7304648.274
 31
0.0
 12
958376.711
 22
7304688.825
 32
0.0
 13
958375.538
 23
7304648.858
 33
0.0
  0
LINE
  8
0
  6
CONTINUOUS
 62
     7
  5
AC
 10
958605.178
 20
7304620.9
 30
0.0
 11
958620.61
 21
7305146.705
 31
0.0
  0
LINE
  8
0
  6
CONTINUOUS
 62
     7
  5
AD
 10
958625.162
 20
7304620.313
 30
0.0
 11
958641.938
 21
7305191.941
 31
0.0
  0
LINE
  8
0
  6
CONTINUOUS
 62
     7
  5
AE
 10
958449.585
 20
7305152.327
 30
0.0
 11
958450.912
 21
7305197.547
 31
0.0
  0
LINE
  8
0
  6
CONTINUOUS
 62
     7
  5
AF
 10
958450.912
 20
7305197.547
 30
0.0
 11
958641.938
 21
7305191.941
 31
0.0
  0
LINE
  8
0
  6
CONTINUOUS
 62
     7
  5
B0
 10
958576.471
 20
7305148.001
 30
0.0
 11
958620.61
 21
7305146.705
 31
0.0
  0
LINE
  8
0
  6
CONTINUOUS
 62
     7
  5
B1
 10
958357.412
 20
7305206.018
 30
0.0
 11
958654.556
 21
7305197.297
 31
0.0
  0
LINE
  8
0
  6
CONTINUOUS
 62
     7
  5
B2
 10
958654.556
 20
7305197.297
 30
0.0
 11
958637.611
 21
7304619.948
 31
0.0
  0
LINE
  8
0
  6
DASHED
 62
     3
  5
B3
 10
954079.816
 20
7310035.996
 30
0.0
 11
958541.045
 21
7309905.062
 31
0.0
  0
LINE
  8
0
  6
DASHED
 62
     3
  5
B4
 10
953924.919
 20
7304758.261
 30
0.0
 11
958386.148
 21
7304627.328
 31
0.0
  0
LINE
  8
0
  6
CONTINUOUS
 62
     7
  5
B5
 10
958546.169
 20
7304622.631
 30
0.0
 11
958774.921
 21
7304615.918
 31
0.0
  0
LINE
  8
0
  6
CONTINUOUS
 62
     7
  5
B6
 10
958701.066
 20
7309900.366
 30
0.0
 11
958949.297
 21
7309893.08
 31
0.0
  0
LINE
  8
0
  6
CONTINUOUS
 62
     7
  5
B7
 10
953671.57
 20
7310047.977
 30
0.0
 11
953919.801
 21
7310040.692
 31
0.0
  0
LINE
  8
0
  6
CONTINUOUS
 62
     7
  5
B8
 10
953655.662
 20
7304766.163
 30
0.0
 11
953764.904
 21
7304762.957
 31
0.0
  0
LINE
  8
0
  6
CONTINUOUS
 62
     7
  5
B9
 10
956694.557
 20
7309959.255
 30
0.0
 11
956545.853
 21
7304892.545
 31
0.0
  0
LINE
  8
0
  6
CONTINUOUS
 62
     7
  5
BA
 10
956674.973
 20
7309959.83
 30
0.0
 11
956526.165
 21
7304889.556
 31
0.0
  0
ARC
  8
0
  6
CONTINUOUS
 62
     7
  5
BB
 10
958095.997336
 20
7304621.221239
 30
0.0
 40
209.80069
 50
26.682122
 51
88.3189
210
0.0
220
0.0
230
1.0
  0
ARC
  8
0
  6
CONTINUOUS
 62
     7
  5
BC
 10
958095.997336
 20
7304621.221239
 30
0.0
 40
190.200625
 50
26.682122
 51
88.3189
210
0.0
220
0.0
230
1.0
  0
ARC
  8
0
  6
CONTINUOUS
 62
     7
  5
BD
 10
958453.08655
 20
7304799.467145
 30
0.0
 40
189.355392
 50
206.354531
 51
245.107911
210
0.0
220
0.0
230
1.0
  0
ARC
  8
0
  6
CONTINUOUS
 62
     7
  5
BE
 10
958455.347645
 20
7304802.095795
 30
0.0
 40
212.153193
 50
206.749844
 51
234.726647
210
0.0
220
0.0
230
1.0
  0
LINE
  8
0
  6
CONTINUOUS
 62
     7
  5
BF
 10
958357.412
 20
7305206.018
 30
0.0
 11
958341.001
 21
7304646.847
 31
0.0
  0
LINE
  8
0
  6
CONTINUOUS
 62
     6
  5
C0
 10
957614.999
 20
7306748.988
 30
0.0
 11
957621.643
 21
7306745.897
 31
0.0
  0
LINE
  8
0
  6
CONTINUOUS
 62
     7
  5
C1
 10
956561.331
 20
7304876.131
 30
0.0
 11
958102.127
 21
7304830.91
 31
0.0
  0
LINE
  8
0
  6
CONTINUOUS
 62
     7
  5
C2
 10
956557.193
 20
7304856.652
 30
0.0
 11
958101.552
 21
7304811.326
 31
0.0
  0
ARC
  8
0
  6
CONTINUOUS
 62
     7
  5
C3
 10
956561.833576
 20
7304892.145616
 30
0.0
 40
16.000053
 50
178.3189
 51
268.3189
210
0.0
220
0.0
230
1.0
  0
ARC
  8
0
  6
CONTINUOUS
 62
     7
  5
C4
 10
956558.129502
 20
7304888.652766
 30
0.0
 40
32.000105
 50
178.3189
 51
268.3189
210
0.0
220
0.0
230
1.0
  0
POLYLINE
  8
0
  6
CONTINUOUS
 62
     7
  5
C5
 66
     1
 10
0.0
 20
0.0
 30
0.0
  0
VERTEX
  8
0
  6
CONTINUOUS
 62
     7
  5
C6
 10
958554.378
 20
7304622.39
 30
0.0
  0
VERTEX
  8
0
  6
CONTINUOUS
 62
     7
  5
C7
 10
958561.04
 20
7304849.361
 30
0.0
  0
VERTEX
  8
0
  6
CONTINUOUS
 62
     7
  5
C8
 10
958347.129
 20
7304855.639
 30
0.0
  0
SEQEND
  8
0
  6
CONTINUOUS
 62
     7
  5
C9
  0
TEXT
  8
0
  6
CONTINUOUS
 62
     6
  5
CB
 10
953891.265
 20
7308253.852
 30
0.0
 40
30.32
  1
X
 50
268.3189
  7
MONOTXT
210
0.0
220
0.0
230
1.0
  0
TEXT
  8
0
  6
CONTINUOUS
 62
     6
  5
CC
 10
953876.061
 20
7307696.858
 30
0.0
 40
30.32
  1
X
 50
268.3189
  7
MONOTXT
210
0.0
220
0.0
230
1.0
  0
TEXT
  8
0
  6
CONTINUOUS
 62
     6
  5
CD
 10
953856.585
 20
7307072.247
 30
0.0
 40
30.32
  1
X
 50
268.3189
  7
MONOTXT
210
0.0
220
0.0
230
1.0
  0
TEXT
  8
0
  6
CONTINUOUS
 62
     6
  5
CE
 10
953838.21
 20
7306407.189
 30
0.0
 40
30.32
  1
X
 50
268.3189
  7
MONOTXT
210
0.0
220
0.0
230
1.0
  0
TEXT
  8
0
  6
CONTINUOUS
 62
     6
  5
CF
 10
953829.184
 20
7305808.132
 30
0.0
 40
30.32
  1
X
 50
262.063156
  7
MONOTXT
210
0.0
220
0.0
230
1.0
  0
TEXT
  8
0
  6
CONTINUOUS
 62
     6
  5
D0
 10
953780.035
 20
7305384.137
 30
0.0
 40
30.32
  1
X
 50
262.063156
  7
MONOTXT
210
0.0
220
0.0
230
1.0
  0
TEXT
  8
0
  6
CONTINUOUS
 62
     6
  5
D1
 10
953682.468
 20
7304937.388
 30
0.0
 40
30.32
  1
X
 50
262.063156
  7
MONOTXT
210
0.0
220
0.0
230
1.0
  0
TEXT
  8
0
  6
CONTINUOUS
 62
     6
  5
D2
 10
953957.955
 20
7309356.597
 30
0.0
 40
30.32
  1
X
 50
262.063156
  7
MONOTXT
210
0.0
220
0.0
230
1.0
  0
TEXT
  8
0
  6
CONTINUOUS
 62
     6
  5
D3
 10
956693.865
 20
7309593.907
 30
0.0
 40
30.32
  1
X
 50
268.3189
  7
MONOTXT
210
0.0
220
0.0
230
1.0
  0
TEXT
  8
0
  6
CONTINUOUS
 62
     6
  5
D4
 10
956676.325
 20
7309042.174
 30
0.0
 40
30.32
  1
X
 50
268.3189
  7
MONOTXT
210
0.0
220
0.0
230
1.0
  0
TEXT
  8
0
  6
CONTINUOUS
 62
     6
  5
D5
 10
956659.283
 20
7308415.609
 30
0.0
 40
30.32
  1
X
 50
268.3189
  7
MONOTXT
210
0.0
220
0.0
230
1.0
  0
TEXT
  8
0
  6
CONTINUOUS
 62
     6
  5
D6
 10
956639.053
 20
7307746.835
 30
0.0
 40
30.32
  1
X
 50
268.3189
  7
MONOTXT
210
0.0
220
0.0
230
1.0
  0
TEXT
  8
0
  6
CONTINUOUS
 62
     6
  5
D7
 10
956618.923
 20
7307060.949
 30
0.0
 40
30.32
  1
X
 50
268.3189
  7
MONOTXT
210
0.0
220
0.0
230
1.0
  0
TEXT
  8
0
  6
CONTINUOUS
 62
     6
  5
D8
 10
956602.583
 20
7306504.192
 30
0.0
 40
30.32
  1
X
 50
268.3189
  7
MONOTXT
210
0.0
220
0.0
230
1.0
  0
TEXT
  8
0
  6
CONTINUOUS
 62
     6
  5
D9
 10
956583.844
 20
7305877.264
 30
0.0
 40
30.32
  1
X
 50
268.3189
  7
MONOTXT
210
0.0
220
0.0
230
1.0
  0
TEXT
  8
0
  6
CONTINUOUS
 62
     6
  5
DA
 10
956564.3
 20
7305211.367
 30
0.0
 40
30.32
  1
X
 50
268.3189
  7
MONOTXT
210
0.0
220
0.0
230
1.0
  0
TEXT
  8
0
  6
CONTINUOUS
 62
     6
  5
DB
 10
958082.157
 20
7304877.832
 30
0.0
 40
30.32
  1
X
 50
178.3189
  7
MONOTXT
210
0.0
220
0.0
230
1.0
  0
TEXT
  8
0
  6
CONTINUOUS
 62
     6
  5
DC
 10
957457.44
 20
7304896.032
 30
0.0
 40
30.32
  1
X
 50
178.3189
  7
MONOTXT
210
0.0
220
0.0
230
1.0
  0
TEXT
  8
0
  6
CONTINUOUS
 62
     6
  5
DD
 10
956789.588
 20
7304915.632
 30
0.0
 40
30.32
  1
X
 50
178.3189
  7
MONOTXT
210
0.0
220
0.0
230
1.0
  0
POLYLINE
  8
0
  6
CONTINUOUS
 62
     6
  5
DE
 66
     1
 10
0.0
 20
0.0
 30
0.0
  0
VERTEX
  8
0
  6
CONTINUOUS
 62
     6
  5
DF
 10
953792.674582
 20
7305389.985784
 30
0.0
 42
0.024661
  0
VERTEX
  8
0
  6
CONTINUOUS
 62
     6
  5
E0
 10
953837.824804
 20
7305781.102628
 30
0.0
  0
SEQEND
  8
0
  6
CONTINUOUS
 62
     6
  5
E1
  0
POLYLINE
  8
0
  6
CONTINUOUS
 62
     6
  5
E2
 66
     1
 10
0.0
 20
0.0
 30
0.0
  0
VERTEX
  8
0
  6
CONTINUOUS
 62
     6
  5
E3
 10
953696.431
 20
7304944.985
 30
0.0
  0
VERTEX
  8
0
  6
CONTINUOUS
 62
     6
  5
E4
 10
953736.349
 20
7305111.918
 30
0.0
  0
VERTEX
  8
0
  6
CONTINUOUS
 62
     6
  5
E5
 10
953736.377453
 20
7305111.930281
 30
0.0
 42
0.015671
  0
VERTEX
  8
0
  6
CONTINUOUS
 62
     6
  5
E6
 10
953787.070179
 20
7305357.026121
 30
0.0
  0
SEQEND
  8
0
  6
CONTINUOUS
 62
     6
  5
E7
  0
LINE
  8
0
  6
CONTINUOUS
 62
     6
  5
E8
 10
953673.34
 20
7304848.889
 30
0.0
 11
953688.756
 21
7304912.959
 31
0.0
  0
ARC
  8
0
  6
CONTINUOUS
 62
     6
  5
E9
 10
957271.548109
 20
7304261.602756
 30
0.0
 40
3645.841986
 50
170.730275
 51
172.047481
210
0.0
220
0.0
230
1.0
  0
LINE
  8
0
  6
CONTINUOUS
 62
     6
  5
EA
 10
956719.653
 20
7309958.519
 30
0.0
 11
956709.385
 21
7309608.68
 31
0.0
  0
LINE
  8
0
  6
CONTINUOUS
 62
     6
  5
EB
 10
956708.163
 20
7309567.023
 30
0.0
 11
956693.053
 21
7309052.188
 31
0.0
  0
LINE
  8
0
  6
CONTINUOUS
 62
     6
  5
EC
 10
956692.026
 20
7309017.198
 30
0.0
 11
956674.754
 21
7308428.685
 31
0.0
  0
LINE
  8
0
  6
CONTINUOUS
 62
     6
  5
ED
 10
956673.571
 20
7308388.381
 30
0.0
 11
956655.117
 21
7307759.623
 31
0.0
  0
LINE
  8
0
  6
CONTINUOUS
 62
     6
  5
EE
 10
956653.853
 20
7307716.56
 30
0.0
 11
956634.722
 21
7307064.722
 31
0.0
  0
LINE
  8
0
  6
CONTINUOUS
 62
     6
  5
EF
 10
956633.816
 20
7307033.838
 30
0.0
 11
956618.507
 21
7306512.213
 31
0.0
  0
LINE
  8
0
  6
CONTINUOUS
 62
     6
  5
F0
 10
956617.482
 20
7306477.291
 30
0.0
 11
956600.324
 21
7305892.679
 31
0.0
  0
LINE
  8
0
  6
CONTINUOUS
 62
     6
  5
F1
 10
956599.101
 20
7305851.022
 30
0.0
 11
956580.569
 21
7305219.58
 31
0.0
  0
POLYLINE
  8
0
  6
CONTINUOUS
 62
     6
  5
F2
 66
     1
 10
0.0
 20
0.0
 30
0.0
  0
VERTEX
  8
0
  6
CONTINUOUS
 62
     6
  5
F3
 10
956579.502
 20
7305183.239
 30
0.0
  0
VERTEX
  8
0
  6
CONTINUOUS
 62
     6
  5
F4
 10
956571.417
 20
7304907.754
 30
0.0
  0
VERTEX
  8
0
  6
CONTINUOUS
 62
     6
  5
F5
 10
956761.646
 20
7304902.171
 30
0.0
  0
SEQEND
  8
0
  6
CONTINUOUS
 62
     6
  5
F6
  0
LINE
  8
0
  6
CONTINUOUS
 62
     6
  5
F7
 10
956789.575
 20
7304901.352
 30
0.0
 11
957431.181
 21
7304882.521
 31
0.0
  0
LINE
  8
0
  6
CONTINUOUS
 62
     6
  5
F8
 10
957459.104
 20
7304881.702
 30
0.0
 11
958056.165
 21
7304864.178
 31
0.0
  0
LINE
  8
0
  6
CONTINUOUS
 62
     6
  5
F9
 10
958085.771
 20
7304863.309
 30
0.0
 11
958347.129
 21
7304855.639
 31
0.0
  0
LINE
  8
0
  6
CENTER
 62
     7
  5
FA
 10
956402.253
 20
7304685.554
 30
0.0
 11
956557.15
 21
7309963.288
 31
0.0
  0
POLYLINE
  8
0
  6
CENTER
 62
     7
  5
FB
 66
     1
 10
0.0
 20
0.0
 30
0.0
  0
VERTEX
  8
0
  6
CENTER
 62
     7
  5
FC
 10
955789.432
 20
7305503.901
 30
0.0
  0
VERTEX
  8
0
  6
CENTER
 62
     7
  5
FD
 10
956164.053
 20
7306110.888
 30
0.0
  0
VERTEX
  8
0
  6
CENTER
 62
     7
  5
FE
 10
956164.049659
 20
7306110.87373
 30
0.0
 42
-0.267949
  0
VERTEX
  8
0
  6
CENTER
 62
     7
  5
FF
 10
956296.098231
 20
7306182.030757
 30
0.0
  0
VERTEX
  8
0
  6
CENTER
 62
     7
  5
100
 10
956296.127
 20
7306182.039
 30
0.0
  0
VERTEX
  8
0
  6
CENTER
 62
     7
  5
101
 10
956465.493
 20
7306177.068
 30
0.0
  0
SEQEND
  8
0
  6
CENTER
 62
     7
  5
102
  0
LINE
  8
0
  6
CONTINUOUS
 62
     7
  5
103
 10
958539.986
 20
7304726.532
 30
0.0
 11
958573.943
 21
7304694.692
 31
0.0
  0
LINE
  8
0
  6
CONTINUOUS
 62
     7
  5
104
 10
958437.073
 20
7304868.35
 30
0.0
 11
958471.025
 21
7304836.584
 31
0.0
  0
LINE
  8
0
  6
CONTINUOUS
 62
     7
  5
105
 10
958648.333
 20
7305077.057
 30
0.0
 11
958682.288
 21
7305045.156
 31
0.0
  0
LINE
  8
0
  6
CONTINUOUS
 62
     7
  5
106
 10
958486.316
 20
7305233.754
 30
0.0
 11
958520.34
 21
7305201.905
 31
0.0
  0
LINE
  8
0
  6
CONTINUOUS
 62
     7
  5
107
 10
958317.148
 20
7305144.701
 30
0.0
 11
958351.171
 21
7305112.852
 31
0.0
  0
POLYLINE
  8
0
  6
CONTINUOUS
 62
     7
  5
108
 66
     1
 10
0.0
 20
0.0
 30
0.0
  0
VERTEX
  8
0
  6
CONTINUOUS
 62
     7
  5
109
 10
958326.113
 20
7304857.941
 30
0.0
  0
VERTEX
  8
0
  6
CONTINUOUS
 62
     7
  5
10A
 10
958336.819
 20
7305222.717
 30
0.0
  0
VERTEX
  8
0
  6
CONTINUOUS
 62
     7
  5
10B
 10
958669.764
 20
7305212.946
 30
0.0
  0
VERTEX
  8
0
  6
CONTINUOUS
 62
     7
  5
10C
 10
958652.687
 20
7304631.093
 30
0.0
  0
SEQEND
  8
0
  6
CONTINUOUS
 62
     7
  5
10D
  0
LINE
  8
0
  6
CONTINUOUS
 62
     7
  5
10E
 10
958641.152
 20
7304832.396
 30
0.0
 11
958675.107
 21
7304800.489
 31
0.0
  0
POLYLINE
  8
0
  6
CONTINUOUS
 62
     2
  5
10F
 66
     1
 10
0.0
 20
0.0
 30
0.0
  0
VERTEX
  8
0
  6
CONTINUOUS
 62
     2
  5
110
 10
954549.344156
 20
7305256.726905
 30
0.0
 42
1.0
  0
VERTEX
  8
0
  6
CONTINUOUS
 62
     2
  5
111
 10
954548.75208
 20
7305236.553384
 30
0.0
 42
1.0
  0
VERTEX
  8
0
  6
CONTINUOUS
 62
     2
  5
112
 10
954549.344156
 20
7305256.726905
 30
0.0
  0
SEQEND
  8
0
  6
CONTINUOUS
 62
     2
  5
113
  0
POLYLINE
  8
0
  6
CONTINUOUS
 62
     7
  5
114
 66
     1
 10
0.0
 20
0.0
 30
0.0
 70
     1
  0
VERTEX
  8
0
  6
CONTINUOUS
 62
     7
  5
115
 10
955377.827
 20
7309747.566
 30
0.0
  0
VERTEX
  8
0
  6
CONTINUOUS
 62
     7
  5
116
 10
955424.461
 20
7309746.198
 30
0.0
  0
VERTEX
  8
0
  6
CONTINUOUS
 62
     7
  5
117
 10
955422.91
 20
7309693.376
 30
0.0
  0
VERTEX
  8
0
  6
CONTINUOUS
 62
     7
  5
118
 10
955376.277
 20
7309694.745
 30
0.0
  0
SEQEND
  8
0
  6
CONTINUOUS
 62
     7
  5
119
  0
ARC
  8
0
  6
DOT
 62
   204
  5
11A
 10
953814.475111
 20
7306506.770688
 30
0.0
 40
50.000164
 50
88.3189
 51
178.3189
210
0.0
220
0.0
230
1.0
  0
ARC
  8
0
  6
DOT
 62
   204
  5
11B
 10
953818.435554
 20
7306641.713026
 30
0.0
 40
50.000164
 50
178.3189
 51
268.3189
210
0.0
220
0.0
230
1.0
  0
ARC
  8
6
  6
CONTINUOUS
 62
     7
  5
11D
 10
949868.901813
 20
7306010.045007
 30
0.0
 40
3977.607629
 50
343.419978
 51
357.704289
210
0.0
220
0.0
230
1.0
  0
LINE
  8
0
  6
CONTINUOUS
 62
     7
  5
11E
 10
958902.709
 20
7309894.781
 30
0.0
 11
958774.921
 21
7304615.918
 31
0.0
  0
LINE
  8
0
  6
CONTINUOUS
 62
     7
  5
11F
 10
958957.738
 20
7309893.026
 30
0.0
 11
958829.929
 21
7304614.303
 31
0.0
  0
LINE
  8
0
  6
CENTER
 62
     7
  5
120
 10
955856.135
 20
7306530.629
 30
0.0
 11
955957.397
 21
7309980.89
 31
0.0
  0
LINE
  8
0
  6
CENTER
 62
     7
  5
121
 10
956179.069
 20
7308031.34
 30
0.0
 11
956178.693
 21
7308018.552
 31
0.0
  0
LINE
  8
0
  6
CENTER
 62
     7
  5
122
 10
956178.316
 20
7308005.696
 30
0.0
 11
956177.937
 21
7307992.78
 31
0.0
  0
LINE
  8
0
  6
CENTER
 62
     7
  5
123
 10
956177.561
 20
7307979.992
 30
0.0
 11
956177.184
 21
7307967.137
 31
0.0
  0
LINE
  8
0
  6
CENTER
 62
     7
  5
124
 10
956179.825
 20
7308057.112
 30
0.0
 11
956179.448
 21
7308044.255
 31
0.0
  0
LINE
  8
0
  6
CENTER
 62
     7
  5
125
 10
955627.514
 20
7307914.983
 30
0.0
 11
955628.177
 21
7307937.59
 31
0.0
  0
LINE
  8
0
  6
CENTER
 62
     7
  5
126
 10
955631.487
 20
7308050.368
 30
0.0
 11
955632.151
 21
7308072.983
 31
0.0
  0
LINE
  8
0
  6
CENTER
 62
     7
  5
127
 10
955630.162
 20
7308005.222
 30
0.0
 11
955630.824
 21
7308027.761
 31
0.0
  0
LINE
  8
0
  6
CENTER
 62
     7
  5
128
 10
955628.839
 20
7307960.129
 30
0.0
 11
955629.498
 21
7307982.609
 31
0.0
  0
ARC
  8
0
  6
CONTINUOUS
 62
     7
  5
129
 10
955062.078126
 20
7309980.649935
 30
0.0
 40
50.000164
 50
358.3189
 51
30.331939
210
0.0
220
0.0
230
1.0
  0
LINE
  8
0
  6
CONTINUOUS
 62
     7
  5
12A
 10
955035.641
 20
7306707.368
 30
0.0
 11
954977.529
 21
7304727.368
 31
0.0
  0
LINE
  8
0
  6
CONTINUOUS
 62
     7
  5
12B
 10
955016.119
 20
7306710.093
 30
0.0
 11
955000.674
 21
7306183.822
 31
0.0
  0
LINE
  8
0
  6
CENTER
 62
     7
  5
12C
 10
956078.379
 20
7306057.842
 30
0.0
 11
956089.297
 21
7306051.186
 31
0.0
  0
LINE
  8
0
  6
CENTER
 62
     7
  5
12D
 10
956144.002
 20
7306017.397
 30
0.0
 11
956155.054
 21
7306010.67
 31
0.0
  0
LINE
  8
0
  6
CENTER
 62
     7
  5
12E
 10
956122.171
 20
7306030.897
 30
0.0
 11
956133.154
 21
7306024.172
 31
0.0
  0
LINE
  8
0
  6
CENTER
 62
     7
  5
12F
 10
956100.347
 20
7306044.398
 30
0.0
 11
956111.261
 21
7306037.614
 31
0.0
  0
LINE
  8
0
  6
CENTER
 62
     7
  5
130
 10
955536.99
 20
7304830.626
 30
0.0
 11
955537.403
 21
7304844.686
 31
0.0
  0
LINE
  8
0
  6
CENTER
 62
     7
  5
131
 10
955539.469
 20
7304915.076
 30
0.0
 11
955539.884
 21
7304929.21
 31
0.0
  0
LINE
  8
0
  6
CENTER
 62
     7
  5
132
 10
955538.643
 20
7304886.951
 30
0.0
 11
955539.056
 21
7304901.017
 31
0.0
  0
LINE
  8
0
  6
CENTER
 62
     7
  5
133
 10
955537.816
 20
7304858.759
 30
0.0
 11
955538.229
 21
7304872.818
 31
0.0
  0
LINE
  8
0
  6
CENTER
 62
     6
  5
134
 10
955132.821
 20
7307280.947
 30
0.0
 11
955212.704
 21
7310002.746
 31
0.0
  0
LINE
  8
0
  6
CONTINUOUS
 62
     7
  5
135
 10
955112.064
 20
7309979.162
 30
0.0
 11
955016.119
 21
7306710.093
 31
0.0
  0
LINE
  8
0
  6
CONTINUOUS
 62
     7
  5
136
 10
954998.106
 20
7306096.349
 30
0.0
 11
954992.764
 21
7305914.33
 31
0.0
  0
LINE
  8
0
  6
CONTINUOUS
 62
     7
  5
137
 10
954992.181
 20
7305894.474
 30
0.0
 11
954974.579
 21
7305294.729
 31
0.0
  0
POLYLINE
  8
0
  6
CONTINUOUS
 62
     7
  5
138
 66
     1
 10
0.0
 20
0.0
 30
0.0
  0
VERTEX
  8
0
  6
CONTINUOUS
 62
     7
  5
139
 10
954992.764
 20
7305914.33
 30
0.0
  0
VERTEX
  8
0
  6
CONTINUOUS
 62
     7
  5
13A
 10
954974.364
 20
7305918.098
 30
0.0
  0
VERTEX
  8
0
  6
CONTINUOUS
 62
     7
  5
13B
 10
954944.694
 20
7306034.207
 30
0.0
  0
VERTEX
  8
0
  6
CONTINUOUS
 62
     7
  5
13C
 10
954951.591
 20
7306037.442
 30
0.0
  0
VERTEX
  8
0
  6
CONTINUOUS
 62
     7
  5
13D
 10
954965.394
 20
7306048.814
 30
0.0
  0
VERTEX
  8
0
  6
CONTINUOUS
 62
     7
  5
13E
 10
954977.61
 20
7306065.634
 30
0.0
  0
VERTEX
  8
0
  6
CONTINUOUS
 62
     7
  5
13F
 10
954987.61
 20
7306082.782
 30
0.0
  0
VERTEX
  8
0
  6
CONTINUOUS
 62
     7
  5
140
 10
954998.106
 20
7306096.349
 30
0.0
  0
SEQEND
  8
0
  6
CONTINUOUS
 62
     7
  5
141
  0
LINE
  8
0
  6
CONTINUOUS
 62
     7
  5
142
 10
954186.89
 20
7305317.847
 30
0.0
 11
954974.579
 21
7305294.729
 31
0.0
  0
LINE
  8
0
  6
CONTINUOUS
 62
     7
  5
143
 10
954973.928
 20
7305272.52
 30
0.0
 11
954186.238
 21
7305295.638
 31
0.0
  0
LINE
  8
0
  6
CONTINUOUS
 62
     7
  5
144
 10
954973.928
 20
7305272.52
 30
0.0
 11
954957.945
 21
7304727.943
 31
0.0
  0
LINE
  8
0
  6
CONTINUOUS
 62
     3
  5
145
 10
955212.704
 20
7310002.746
 30
0.0
 11
955085.815
 21
7305679.316
 31
0.0
  0
LINE
  8
0
  6
CONTINUOUS
 62
     3
  5
146
 10
956579.053
 20
7305766.823
 30
0.0
 11
956702.09
 21
7309959.034
 31
0.0
  0
LINE
  8
0
  6
CONTINUOUS
 62
     3
  5
147
 10
956547.193
 20
7304681.3
 30
0.0
 11
956572.65
 21
7305548.665
 31
0.0
  0
LINE
  8
0
  6
CONTINUOUS
 62
     3
  5
148
 10
955079.572
 20
7305466.616
 30
0.0
 11
955057.807
 21
7304725.012
 31
0.0
  0
LINE
  8
0
  6
CENTER
 62
     7
  5
149
 10
955802.5
 20
7304703.156
 30
0.0
 11
955856.085
 21
7306528.924
 31
0.0
  0
LINE
  8
0
  6
CONTINUOUS
 62
     7
  5
14A
 10
955898.968
 20
7307990.056
 30
0.0
 11
955898.966
 21
7307989.989
 31
0.0
  0
LINE
  8
0
  6
CONTINUOUS
 62
     7
  5
14B
 10
955885.071
 20
7307516.539
 30
0.0
 11
955885.069
 21
7307516.472
 31
0.0
  0
LINE
  8
0
  6
CONTINUOUS
 62
     7
  5
14C
 10
954857.428
 20
7305979.724
 30
0.0
 11
954729.517
 21
7306231.449
 31
0.0
  0
LINE
  8
0
  6
CONTINUOUS
 62
     7
  5
14D
 10
954081.609
 20
7305363.293
 30
0.0
 11
953953.626
 21
7305614.892
 31
0.0
  0
LINE
  8
0
  6
CONTINUOUS
 62
     7
  5
14E
 10
958354.254
 20
7304708.475
 30
0.0
 11
958046.323
 21
7305084.161
 31
0.0
  0
LINE
  8
0
  6
CONTINUOUS
 62
     7
  5
14F
 10
958046.323
 20
7305084.161
 30
0.0
 11
958050.32
 21
7305220.35
 31
0.0
  0
LINE
  8
0
  6
CONTINUOUS
 62
     7
  5
150
 10
958531.354
 20
7305248.995
 30
0.0
 11
958538.507
 21
7305492.722
 31
0.0
  0
LINE
  8
0
  6
CONTINUOUS
 62
     2
  5
151
 10
955718.75
 20
7308394.176
 30
0.0
 11
955460.879
 21
7307976.383
 31
0.0
  0
LINE
  8
0
  6
CONTINUOUS
 62
     2
  5
152
 10
955715.815
 20
7308294.186
 30
0.0
 11
955602.89
 21
7308111.215
 31
0.0
  0
LINE
  8
0
  6
CENTER
 62
     7
  5
153
 10
955619.731
 20
7307911.576
 30
0.0
 11
955624.475
 21
7308073.208
 31
0.0
  0
LINE
  8
0
  6
CONTINUOUS
 62
     2
  5
154
 10
956187.555
 20
7308056.682
 30
0.0
 11
956365.937
 21
7308051.447
 31
0.0
  0
LINE
  8
0
  6
CONTINUOUS
 62
     2
  5
155
 10
956184.912
 20
7307966.646
 30
0.0
 11
956363.294
 21
7307961.41
 31
0.0
  0
LINE
  8
0
  6
CENTER
 62
     7
  5
156
 10
956187.555
 20
7308056.682
 30
0.0
 11
956184.912
 21
7307966.646
 31
0.0
  0
LINE
  8
0
  6
CENTER
 62
     7
  5
157
 10
956082.478
 20
7306064.456
 30
0.0
 11
956159.084
 21
7306017.218
 31
0.0
  0
LINE
  8
0
  6
CONTINUOUS
 62
     2
  5
158
 10
956082.478
 20
7306064.456
 30
0.0
 11
956125.753
 21
7306134.504
 31
0.0
  0
LINE
  8
0
  6
CONTINUOUS
 62
     2
  5
159
 10
956159.084
 20
7306017.218
 30
0.0
 11
956202.358
 21
7306087.266
 31
0.0
  0
ARC
  8
0
  6
CONTINUOUS
 62
     2
  5
15A
 10
955663.926596
 20
7307821.857596
 30
0.0
 40
100.000329
 50
116.228128
 51
178.3189
210
0.0
220
0.0
230
1.0
  0
LINE
  8
0
  6
CENTER
 62
     7
  5
15B
 10
955529.182
 20
7304826.348
 30
0.0
 11
955532.255
 21
7304931.052
 31
0.0
  0
LINE
  8
0
  6
CONTINUOUS
 62
     2
  5
15C
 10
955818.872
 20
7307817.372
 30
0.0
 11
955737.722
 21
7305052.367
 31
0.0
  0
ARC
  8
0
  6
CONTINUOUS
 62
     2
  5
15D
 10
955687.73278
 20
7305053.826241
 30
0.0
 40
50.000164
 50
298.3189
 51
358.3189
210
0.0
220
0.0
230
1.0
  0
LINE
  8
0
  6
CONTINUOUS
 62
     2
  5
15E
 10
955711.425
 20
7305009.842
 30
0.0
 11
955571.687
 21
7304934.47
 31
0.0
  0
ARC
  8
0
  6
CONTINUOUS
 62
     2
  5
15F
 10
955547.962602
 20
7304978.508272
 30
0.0
 40
50.000164
 50
178.3189
 51
251.691639
210
0.0
220
0.0
230
1.0
  0
LINE
  8
0
  6
CONTINUOUS
 62
     2
  5
160
 10
955497.936
 20
7304980.006
 30
0.0
 11
955498.815
 21
7305009.95
 31
0.0
  0
LINE
  8
0
  6
CONTINUOUS
 62
     2
  5
161
 10
955498.815
 20
7305009.95
 30
0.0
 11
955481.894
 21
7305027.956
 31
0.0
  0
LINE
  8
0
  6
CONTINUOUS
 62
     2
  5
162
 10
955481.894
 20
7305027.956
 30
0.0
 11
955563.98
 21
7307824.853
 31
0.0
  0
ARC
  8
0
  6
CONTINUOUS
 62
     2
  5
163
 10
955547.962602
 20
7304978.508272
 30
0.0
 40
50.000164
 50
251.691639
 51
298.3189
210
0.0
220
0.0
230
1.0
  0
ARC
  8
0
  6
CONTINUOUS
 62
     2
  5
164
 10
955542.034476
 20
7304776.521987
 30
0.0
 40
50.000164
 50
118.3189
 51
178.3189
210
0.0
220
0.0
230
1.0
  0
LINE
  8
0
  6
CONTINUOUS
 62
     2
  5
165
 10
955518.372
 20
7304820.533
 30
0.0
 11
955529.182
 21
7304826.348
 31
0.0
  0
POLYLINE
  8
0
  6
CONTINUOUS
 62
     2
  5
166
 66
     1
 10
0.0
 20
0.0
 30
0.0
  0
VERTEX
  8
0
  6
CONTINUOUS
 62
     2
  5
167
 10
955472.645
 20
7304712.837
 30
0.0
  0
VERTEX
  8
0
  6
CONTINUOUS
 62
     2
  5
168
 10
955473.179
 20
7304731.015
 30
0.0
  0
VERTEX
  8
0
  6
CONTINUOUS
 62
     2
  5
169
 10
955491.126
 20
7304747.991
 30
0.0
  0
VERTEX
  8
0
  6
CONTINUOUS
 62
     2
  5
16A
 10
955492.007
 20
7304778.003
 30
0.0
  0
SEQEND
  8
0
  6
CONTINUOUS
 62
     2
  5
16B
  0
POLYLINE
  8
0
  6
CONTINUOUS
 62
     2
  5
16C
 66
     1
 10
0.0
 20
0.0
 30
0.0
  0
VERTEX
  8
0
  6
CONTINUOUS
 62
     2
  5
16D
 10
955529.182
 20
7304826.348
 30
0.0
  0
VERTEX
  8
0
  6
CONTINUOUS
 62
     2
  5
16E
 10
955581.876
 20
7304854.771
 30
0.0
  0
VERTEX
  8
0
  6
CONTINUOUS
 62
     2
  5
16F
 10
955581.847365
 20
7304854.773618
 30
0.0
 42
-0.57735
  0
VERTEX
  8
0
  6
CONTINUOUS
 62
     2
  5
170
 10
955729.242672
 20
7304763.807575
 30
0.0
  0
SEQEND
  8
0
  6
CONTINUOUS
 62
     2
  5
171
  0
LINE
  8
0
  6
CONTINUOUS
 62
     7
  5
172
 10
956189.634
 20
7308127.539
 30
0.0
 11
956194.536
 21
7308294.553
 31
0.0
  0
LINE
  8
0
  6
CONTINUOUS
 62
     7
  5
173
 10
954510.672
 20
7304741.07
 30
0.0
 11
954665.569
 21
7310018.804
 31
0.0
  0
POLYLINE
  8
0
  6
DIVIDE
 62
     5
  5
174
 66
     1
 10
0.0
 20
0.0
 30
0.0
  0
VERTEX
  8
0
  6
DIVIDE
 62
     5
  5
175
 10
954008.683
 20
7310039.641
 30
0.0
  0
VERTEX
  8
0
  6
DIVIDE
 62
     5
  5
176
 10
954031.953
 20
7310036.791
 30
0.0
  0
VERTEX
  8
0
  6
DIVIDE
 62
     5
  5
177
 10
954031.885
 20
7310036.793
 30
0.0
  0
VERTEX
  8
0
  6
DIVIDE
 62
     5
  5
178
 10
954031.903
 20
7310037.402
 30
0.0
  0
SEQEND
  8
0
  6
DIVIDE
 62
     5
  5
179
  0
POLYLINE
  8
0
  6
CONTINUOUS
 62
     6
  5
17A
 66
     1
 10
0.0
 20
0.0
 30
0.0
  0
VERTEX
  8
0
  6
CONTINUOUS
 62
     6
  5
17B
 10
953840.015223
 20
7305816.88983
 30
0.0
 42
0.007595
  0
VERTEX
  8
0
  6
CONTINUOUS
 62
     6
  5
17C
 10
953845.042992
 20
7305938.113313
 30
0.0
  0
VERTEX
  8
0
  6
CONTINUOUS
 62
     6
  5
17D
 10
953844.985
 20
7305938.12
 30
0.0
  0
VERTEX
  8
0
  6
CONTINUOUS
 62
     6
  5
17E
 10
953848.36
 20
7306059.777
 30
0.0
  0
SEQEND
  8
0
  6
CONTINUOUS
 62
     6
  5
17F
  0
LINE
  8
0
  6
CONTINUOUS
 62
     6
  5
180
 10
953892.988
 20
7307715.969
 30
0.0
 11
953906.302
 21
7308213.199
 31
0.0
  0
LINE
  8
0
  6
CONTINUOUS
 62
     6
  5
181
 10
953876.438
 20
7307101.566
 30
0.0
 11
953891.426
 21
7307658.16
 31
0.0
  0
LINE
  8
0
  6
CONTINUOUS
 62
     6
  5
182
 10
953848.36
 20
7306059.777
 30
0.0
 11
953856.493
 21
7306362.272
 31
0.0
  0
LINE
  8
0
  6
CONTINUOUS
 62
     6
  5
183
 10
953858.256
 20
7306426.939
 30
0.0
 11
953874.485
 21
7307028.086
 31
0.0
  0
LINE
  8
0
  6
CONTINUOUS
 62
     6
  5
184
 10
955815.386
 20
7308554.389
 30
0.0
 11
955857.339
 21
7309983.827
 31
0.0
  0
LINE
  8
0
  6
CONTINUOUS
 62
     6
  5
185
 10
955801.305
 20
7308074.61
 30
0.0
 11
955809.414
 21
7308350.906
 31
0.0
  0
LINE
  8
0
  6
CONTINUOUS
 62
     6
  5
186
 10
956001.353
 20
7308068.739
 30
0.0
 11
956057.387
 21
7309977.956
 31
0.0
  0
POLYLINE
  8
0
  6
CONTINUOUS
 62
     6
  5
187
 66
     1
 10
0.0
 20
0.0
 30
0.0
  0
VERTEX
  8
0
  6
CONTINUOUS
 62
     6
  5
188
 10
955936.271
 20
7305851.213
 30
0.0
  0
VERTEX
  8
0
  6
CONTINUOUS
 62
     6
  5
189
 10
955996.031
 20
7307887.396
 30
0.0
  0
SEQEND
  8
0
  6
CONTINUOUS
 62
     6
  5
18A
  0
LINE
  8
0
  6
CONTINUOUS
 62
     6
  5
18B
 10
955711.355
 20
7305009.777
 30
0.0
 11
955795.716
 21
7307884.185
 31
0.0
  0
LINE
  8
0
  6
CONTINUOUS
 62
     6
  5
18C
 10
955902.49
 20
7304700.221
 30
0.0
 11
955924.68
 21
7305456.29
 31
0.0
  0
LINE
  8
0
  6
CONTINUOUS
 62
     6
  5
18D
 10
955702.442
 20
7304706.092
 30
0.0
 11
955706.1
 21
7304830.719
 31
0.0
  0
LINE
  8
6
  6
CONTINUOUS
 62
     7
  5
18E
 10
953922.515
 20
7308736.831
 30
0.0
 11
954963.084
 21
7308706.291
 31
0.0
  0
LINE
  8
6
  6
CONTINUOUS
 62
     7
  5
18F
 10
954963.084
 20
7308706.291
 30
0.0
 11
954885.635
 21
7306067.428
 31
0.0
  0
LINE
  8
6
  6
CONTINUOUS
 62
     7
  5
190
 10
954885.635
 20
7306067.428
 30
0.0
 11
953825.345
 21
7306098.546
 31
0.0
  0
POLYLINE
  8
6
  6
CONTINUOUS
 62
     7
  5
191
 66
     1
 10
0.0
 20
0.0
 30
0.0
  0
VERTEX
  8
6
  6
CONTINUOUS
 62
     7
  5
192
 10
953922.515
 20
7308736.831
 30
0.0
  0
VERTEX
  8
6
  6
CONTINUOUS
 62
     7
  5
193
 10
954040.461
 20
7310013.285
 30
0.0
  0
VERTEX
  8
6
  6
CONTINUOUS
 62
     7
  5
194
 10
954044.388
 20
7310074.283
 30
0.0
  0
SEQEND
  8
6
  6
CONTINUOUS
 62
     7
  5
195
  0
TEXT
  8
0
  6
CONTINUOUS
 62
    30
  5
197
 10
955251.455
 20
7309635.025
 30
0.0
 40
50.0
  1
I.L.S. GLIDE
 50
358.3189
  7
ROMANC
210
0.0
220
0.0
230
1.0
  0
TEXT
  8
0
  6
CONTINUOUS
 62
    30
  5
198
 10
955249.255
 20
7309560.058
 30
0.0
 40
50.0
  1
PATH
 50
358.3189
  7
ROMANC
210
0.0
220
0.0
230
1.0
  0
TEXT
  8
0
  6
CONTINUOUS
 62
    30
  5
199
 10
955247.054
 20
7309485.09
 30
0.0
 40
50.0
  1
TRANSMITTER
 50
358.3189
  7
ROMANC
210
0.0
220
0.0
230
1.0
  0
TEXT
  8
0
  6
CONTINUOUS
 62
    30
  5
19A
 10
954283.668
 20
7306332.151
 30
0.0
 40
50.0
  1
REMOTE
 50
358.3189
  7
ROMANC
210
0.0
220
0.0
230
1.0
  0
TEXT
  8
0
  6
CONTINUOUS
 62
    30
  5
19B
 10
954281.468
 20
7306257.183
 30
0.0
 40
50.0
  1
TRANSMITTER
 50
358.3189
  7
ROMANC
210
0.0
220
0.0
230
1.0
  0
TEXT
  8
0
  6
CONTINUOUS
 62
    30
  5
19C
 10
954279.268
 20
7306182.216
 30
0.0
 40
50.0
  1
SITE
 50
358.3189
  7
ROMANC
210
0.0
220
0.0
230
1.0
  0
TEXT
  8
0
  6
CONTINUOUS
 62
    30
  5
19D
 10
953931.756
 20
7305777.34
 30
0.0
 40
50.0
  1
TRANSMITTER
 50
358.3189
  7
ROMANC
210
0.0
220
0.0
230
1.0
  0
TEXT
  8
0
  6
CONTINUOUS
 62
    30
  5
19E
 10
953929.555
 20
7305702.373
 30
0.0
 40
50.0
  1
& RECEIVER
 50
358.3189
  7
ROMANC
210
0.0
220
0.0
230
1.0
  0
TEXT
  8
0
  6
CONTINUOUS
 62
    30
  5
19F
 10
953927.355
 20
7305627.405
 30
0.0
 40
50.0
  1
SITE
 50
358.3189
  7
ROMANC
210
0.0
220
0.0
230
1.0
  0
TEXT
  8
0
  6
CONTINUOUS
 62
    30
  5
1A0
 10
957365.963
 20
7305426.173
 30
0.0
 40
50.0
  1
AIRPORT
 50
358.3189
  7
ROMANC
210
0.0
220
0.0
230
1.0
  0
TEXT
  8
0
  6
CONTINUOUS
 62
    30
  5
1A1
 10
957363.763
 20
7305351.206
 30
0.0
 40
50.0
  1
TRANSMITTER
 50
358.3189
  7
ROMANC
210
0.0
220
0.0
230
1.0
  0
TEXT
  8
0
  6
CONTINUOUS
 62
    30
  5
1A2
 10
957361.562
 20
7305276.238
 30
0.0
 40
50.0
  1
VAULT & STANDBY
 50
358.3189
  7
ROMANC
210
0.0
220
0.0
230
1.0
  0
TEXT
  8
0
  6
CONTINUOUS
 62
    30
  5
1A3
 10
957359.362
 20
7305201.27
 30
0.0
 40
50.0
  1
GENERATOR
 50
358.3189
  7
ROMANC
210
0.0
220
0.0
230
1.0
  0
TEXT
  8
0
  6
CONTINUOUS
 62
    30
  5
1A4
 10
958314.47
 20
7305756.612
 30
0.0
 40
50.0
  1
AIR
 50
358.3189
  7
ROMANC
210
0.0
220
0.0
230
1.0
  0
TEXT
  8
0
  6
CONTINUOUS
 62
    30
  5
1A5
 10
958312.27
 20
7305681.644
 30
0.0
 40
50.0
  1
TRAFFIC
 50
358.3189
  7
ROMANC
210
0.0
220
0.0
230
1.0
  0
TEXT
  8
0
  6
CONTINUOUS
 62
    30
  5
1A6
 10
958310.07
 20
7305606.676
 30
0.0
 40
50.0
  1
CONTROL
 50
358.3189
  7
ROMANC
210
0.0
220
0.0
230
1.0
  0
TEXT
  8
0
  6
CONTINUOUS
 62
    30
  5
1A7
 10
958307.869
 20
7305531.709
 30
0.0
 40
50.0
  1
TOWER
 50
358.3189
  7
ROMANC
210
0.0
220
0.0
230
1.0
  0
TEXT
  8
0
  6
CONTINUOUS
 62
    30
  5
1A8
 10
956014.878
 20
7307996.647
 30
0.0
 40
48.0
  1
TAXIWAY  S
 50
358.3189
  7
MONOTXT
 72
     1
 11
956242.112154
 21
7307989.97787
 31
0.0
210
0.0
220
0.0
230
1.0
  0
TEXT
  8
0
  6
CONTINUOUS
 62
    30
  5
1A9
 10
955964.914
 20
7305731.294
 30
0.0
 40
48.0
  1
TAXIWAY  N
 50
60.523708
  7
MONOTXT
 72
     1
 11
956076.775751
 21
7305929.200005
 31
0.0
210
0.0
220
0.0
230
1.0
  0
TEXT
  8
0
  6
CONTINUOUS
 62
    30
  5
1AA
 10
955560.509
 20
7308046.719
 30
0.0
 40
48.0
  1
TAXIWAY  A
 50
58.318094
  7
MONOTXT
 72
     1
 11
955681.193806
 21
7308242.262455
 31
0.0
210
0.0
220
0.0
230
1.0
  0
TEXT
  8
0
  6
CONTINUOUS
 62
    30
  5
1AB
 10
955500.098
 20
7305466.355
 30
0.0
 40
48.0
  1
TAXIWAY  A
 50
88.3189
  7
MONOTXT
 72
     1
 11
955506.839151
 21
7305696.043098
 31
0.0
210
0.0
220
0.0
230
1.0
  0
TEXT
  8
0
  6
CONTINUOUS
 62
    30
  5
1AC
 10
955481.073
 20
7304818.345
 30
0.0
 40
48.0
  1
TWY  B
 50
28.342847
  7
MONOTXT
 72
     1
 11
955612.799185
 21
7304889.399362
 31
0.0
210
0.0
220
0.0
230
1.0
  0
TEXT
  8
19
  6
CONTINUOUS
 62
     1
  5
1AE
 10
953718.006
 20
7307356.329
 30
0.0
 40
24.0
  1
INTERSTATE 27
 50
88.3189
  7
ROMANC
 72
     4
 11
953710.673325
 21
7307515.532638
 31
0.0
210
0.0
220
0.0
230
1.0
  0
TEXT
  8
0
  6
CONTINUOUS
 62
    30
  5
1AF
 10
955105.23
 20
7305507.602
 30
0.0
 40
64.0
  1
BRL
 50
88.3189
  7
MONOTXT
210
0.0
220
0.0
230
1.0
  0
TEXT
  8
0
  6
CONTINUOUS
 62
    30
  5
1B0
 10
956661.125
 20
7305583.732
 30
0.0
 40
64.0
  1
BRL
 50
88.3189
  7
MONOTXT
210
0.0
220
0.0
230
1.0
  0
TEXT
  8
0
  6
CONTINUOUS
 62
    30
  5
1B1
 10
956552.834
 20
7308911.941
 30
0.0
 40
50.0
  1
TAXIWAY  M
 50
88.3189
  7
ROMANC
210
0.0
220
0.0
230
1.0
  0
INSERT
  8
0
  6
CONTINUOUS
 62
     7
  5
1C0
  2
*D0
 10
955904.901
 20
7308195.928
 30
0.0
 70
     0
 71
     0
  0
INSERT
  8
0
  6
CONTINUOUS
 62
     7
  5
1CA
  2
*D1
 10
956190.887
 20
7308187.535
 30
0.0
 70
     0
 71
     0
  0
INSERT
  8
0
  6
CONTINUOUS
 62
     7
  5
1D4
  2
*D2
 10
956448.604
 20
7307547.817
 30
0.0
 70
     0
 71
     0
  0
INSERT
  8
0
  6
CONTINUOUS
 62
     7
  5
1DE
  2
*D3
 10
956483.757
 20
7307453.835
 30
0.0
 70
     0
 71
     0
  0
INSERT
  8
0
  6
CONTINUOUS
 62
     7
  5
1EA
  2
*D4
 10
956522.065
 20
7307452.423
 30
0.0
 70
     0
 71
     0
  0
INSERT
  8
0
  6
CONTINUOUS
 62
     7
  5
1F6
  2
*D5
 10
955884.335
 20
7307471.392
 30
0.0
 70
     0
 71
     0
  0
INSERT
  8
0
  6
CONTINUOUS
 62
     7
  5
202
  2
*D6
 10
955534.491
 20
7307481.66
 30
0.0
 70
     0
 71
     0
  0
INSERT
  8
0
  6
CONTINUOUS
 62
     7
  5
20C
  2
*D7
 10
955883.004
 20
7307471.432
 30
0.0
 70
     0
 71
     0
  0
INSERT
  8
0
  6
CONTINUOUS
 62
     7
  5
216
  2
*D8
 10
955527.179
 20
7306579.979
 30
0.0
 70
     0
 71
     0
  0
INSERT
  8
0
  6
CONTINUOUS
 62
     7
  5
222
  2
*D9
 10
955487.273
 20
7306581.15
 30
0.0
 70
     0
 71
     0
  0
INSERT
  8
0
  6
CONTINUOUS
 62
     7
  5
22C
  2
*D10
 10
956158.901
 20
7306017.044
 30
0.0
 70
     0
 71
     0
  0
INSERT
  8
0
  6
CONTINUOUS
 62
     7
  5
238
  2
*D11
 10
956081.82
 20
7306063.716
 30
0.0
 70
     0
 71
     0
  0
TEXT
  8
0
  6
CONTINUOUS
 62
     7
  5
239
 10
958864.285
 20
7307332.252
 30
0.0
 40
8.0
  1
5280'
 50
88.3189
  7
ROMANS
210
0.0
220
0.0
230
1.0
  0
TEXT
  8
0
  6
CONTINUOUS
 62
     7
  5
23A
 10
958431.941
 20
7309897.26
 30
0.0
 40
8.0
  1
2216.78'
 50
358.3189
  7
ROMANS
210
0.0
220
0.0
230
1.0
  0
TEXT
  8
0
  6
CONTINUOUS
 62
     7
  5
23B
 10
954023.842
 20
7310020.638
 30
0.0
 40
8.0
  1
34'
 50
88.3189
  7
ROMANS
210
0.0
220
0.0
230
1.0
  0
TEXT
  8
0
  6
CONTINUOUS
 62
     7
  5
23C
 10
953991.012
 20
7309664.927
 30
0.0
 40
8.0
  1
1287.61'       n2%%d43'45"e
 50
85.590197
  7
ROMANS
210
0.0
220
0.0
230
1.0
  0
TEXT
  8
0
  6
CONTINUOUS
 62
     7
  5
23D
 10
954388.945
 20
7308712.137
 30
0.0
 40
8.0
  1
1055.1'
 50
358.3189
  7
ROMANS
210
0.0
220
0.0
230
1.0
  0
TEXT
  8
0
  6
CONTINUOUS
 62
     7
  5
23E
 10
954956.505
 20
7307952.408
 30
0.0
 40
8.0
  1
2640'
 50
88.3189
  7
ROMANS
210
0.0
220
0.0
230
1.0
  0
TEXT
  8
0
  6
CONTINUOUS
 62
     7
  5
23F
 10
954366.297
 20
7306085.671
 30
0.0
 40
8.0
  1
1060'
 50
358.3189
  7
ROMANS
210
0.0
220
0.0
230
1.0
  0
TEXT
  8
0
  6
CONTINUOUS
 62
     7
  5
240
 10
953805.356
 20
7305571.137
 30
0.0
 40
8.0
  1
829.82'
 50
83.192628
  7
ROMANS
210
0.0
220
0.0
230
1.0
  0
TEXT
  8
0
  6
CONTINUOUS
 62
     7
  5
241
 10
953757.602
 20
7305269.758
 30
0.0
 40
8.0
  1
R=3969.83'
 50
78.799722
  7
ROMANS
210
0.0
220
0.0
230
1.0
  0
TEXT
  8
0
  6
CONTINUOUS
 62
    30
  5
242
 10
954545.296
 20
7305178.254
 30
0.0
 40
50.0
  1
AIRPORT
 50
358.3189
  7
ROMANC
210
0.0
220
0.0
230
1.0
  0
TEXT
  8
0
  6
CONTINUOUS
 62
    30
  5
243
 10
954543.095
 20
7305103.287
 30
0.0
 40
50.0
  1
BEACON
 50
358.3189
  7
ROMANC
210
0.0
220
0.0
230
1.0
  0
TEXT
  8
0
  6
CONTINUOUS
 62
     7
  5
244
 10
958768.027
 20
7304623.195
 30
0.0
 40
8.0
  1
35'
 50
358.3189
  7
ROMANS
 72
     4
 11
958777.473329
 21
7304626.919481
 31
0.0
210
0.0
220
0.0
230
1.0
  0
TEXT
  8
0
  6
CONTINUOUS
 62
     7
  5
245
 10
958922.228
 20
7309877.215
 30
0.0
 40
8.0
  1
35'
 50
358.3189
  7
ROMANS
 72
     4
 11
958931.674329
 21
7309880.939481
 31
0.0
210
0.0
220
0.0
230
1.0
  0
POLYLINE
  8
1
  6
HIDDEN
 62
   253
  5
247
 66
     1
 10
0.0
 20
0.0
 30
0.0
 70
     1
  0
VERTEX
  8
1
  6
HIDDEN
 62
   253
  5
248
 10
958790.272
 20
7304667.735
 30
0.0
  0
VERTEX
  8
1
  6
HIDDEN
 62
   253
  5
249
 10
953708.493
 20
7304805.145
 30
0.0
  0
VERTEX
  8
1
  6
HIDDEN
 62
   253
  5
24A
 10
953873.213
 20
7310078.944
 30
0.0
  0
VERTEX
  8
1
  6
HIDDEN
 62
   253
  5
24B
 10
958935.555
 20
7309941.091
 30
0.0
  0
SEQEND
  8
1
  6
HIDDEN
 62
   253
  5
24C
  0
LINE
  8
6
  6
CONTINUOUS
 62
     7
  5
24D
 10
953915.314
 20
7308592.479
 30
0.0
 11
953922.515
 21
7308736.831
 31
0.0
  0
LINE
  8
6
  6
CONTINUOUS
 62
     7
  5
24E
 10
953843.317
 20
7305850.714
 30
0.0
 11
953915.314
 21
7308592.479
 31
0.0
  0
TEXT
  8
19
  6
CONTINUOUS
 62
     1
  5
24F
 10
958872.791
 20
7309125.472
 30
0.0
 40
24.0
  1
N MARTIN LUTHER KING, JR BLVD
 50
88.3189
  7
ROMANC
 72
     4
 11
958871.650501
 21
7309495.65879
 31
0.0
210
0.0
220
0.0
230
1.0
  0
TEXT
  8
19
  6
CONTINUOUS
 62
     1
  5
250
 10
958812.802
 20
7306920.82
 30
0.0
 40
24.0
  1
N MARTIN LUTHER KING, JR BLVD
 50
88.3189
  7
ROMANC
 72
     4
 11
958811.661501
 21
7307291.00679
 31
0.0
210
0.0
220
0.0
230
1.0
  0
TEXT
  8
19
  6
CONTINUOUS
 62
     1
  5
251
 10
958737.459
 20
7304625.965
 30
0.0
 40
24.0
  1
N MARTIN LUTHER KING, JR BLVD
 50
88.3189
  7
ROMANC
 72
     4
 11
958736.318501
 21
7304996.15179
 31
0.0
210
0.0
220
0.0
230
1.0
  0
TEXT
  8
19
  6
CONTINUOUS
 62
     1
  5
252
 10
954183.332
 20
7310004.539
 30
0.0
 40
24.0
  1
E KEUKA ST
 50
358.3189
  7
ROMANC
 72
     4
 11
954316.470861
 21
7310012.636654
 31
0.0
210
0.0
220
0.0
230
1.0
  0
TEXT
  8
19
  6
CONTINUOUS
 62
     1
  5
253
 10
953883.717
 20
7304765.163
 30
0.0
 40
24.0
  1
E STONEHILL ST
 50
358.3189
  7
ROMANC
 72
     4
 11
954056.330863
 21
7304772.102097
 31
0.0
210
0.0
220
0.0
230
1.0
  0
POLYLINE
  8
0
  6
CONTINUOUS
 62
     6
  5
254
 66
     1
 10
0.0
 20
0.0
 30
0.0
  0
VERTEX
  8
0
  6
CONTINUOUS
 62
     6
  5
255
 10
953971.822
 20
7309360.123
 30
0.0
  0
VERTEX
  8
0
  6
CONTINUOUS
 62
     6
  5
256
 10
954008.683
 20
7310039.641
 30
0.0
  0
VERTEX
  8
0
  6
CONTINUOUS
 62
     6
  5
257
 10
954040.352
 20
7310039.122
 30
0.0
  0
VERTEX
  8
0
  6
CONTINUOUS
 62
     6
  5
258
 10
954040.352
 20
7310051.584
 30
0.0
  0
SEQEND
  8
0
  6
CONTINUOUS
 62
     6
  5
259
  0
LINE
  8
10
  6
CONTINUOUS
 62
     6
  5
25B
 10
954013.241
 20
7310052.142
 30
0.0
 11
954040.352
 21
7310051.584
 31
0.0
  0
POLYLINE
  8
0
  6
CONTINUOUS
 62
     6
  5
25C
 66
     1
 10
0.0
 20
0.0
 30
0.0
  0
VERTEX
  8
0
  6
CONTINUOUS
 62
     6
  5
25D
 10
953907.674
 20
7308262.257
 30
0.0
  0
VERTEX
  8
0
  6
CONTINUOUS
 62
     6
  5
25E
 10
953914.073
 20
7308498.527
 30
0.0
  0
VERTEX
  8
0
  6
CONTINUOUS
 62
     6
  5
25F
 10
953912.118
 20
7308657.811
 30
0.0
  0
VERTEX
  8
0
  6
CONTINUOUS
 62
     6
  5
260
 10
953916.271
 20
7308747.118
 30
0.0
  0
VERTEX
  8
0
  6
CONTINUOUS
 62
     6
  5
261
 10
953968.707
 20
7309325.854
 30
0.0
  0
SEQEND
  8
0
  6
CONTINUOUS
 62
     6
  5
262
  0
ARC
  8
6
  6
CONTINUOUS
 62
     7
  5
263
 10
956013.979797
 20
7304271.827734
 30
0.0
 40
2409.570779
 50
165.5029
 51
168.161422
210
0.0
220
0.0
230
1.0
  0
LINE
  8
58
  6
DIVIDE
 62
   216
  5
265
 10
955802.5
 20
7304703.156
 30
0.0
 11
955841.717
 21
7306039.367
 31
0.0
  0
POLYLINE
  8
58
  6
DIVIDE
 62
   216
  5
266
 66
     1
 10
0.0
 20
0.0
 30
0.0
  0
VERTEX
  8
58
  6
DIVIDE
 62
   216
  5
267
 10
954044.388
 20
7310074.283
 30
0.0
  0
VERTEX
  8
58
  6
DIVIDE
 62
   216
  5
268
 10
953922.515
 20
7308736.831
 30
0.0
  0
VERTEX
  8
58
  6
DIVIDE
 62
   216
  5
269
 10
954961.589
 20
7308706.335
 30
0.0
  0
VERTEX
  8
58
  6
DIVIDE
 62
   216
  5
26A
 10
954884.14
 20
7306067.471
 30
0.0
  0
VERTEX
  8
58
  6
DIVIDE
 62
   216
  5
26B
 10
955843.727
 20
7306039.308
 30
0.0
  0
SEQEND
  8
58
  6
DIVIDE
 62
   216
  5
26C
  0
POLYLINE
  8
58
  6
DIVIDE
 62
   216
  5
26D
 66
     1
 10
0.0
 20
0.0
 30
0.0
  0
VERTEX
  8
58
  6
DIVIDE
 62
   216
  5
26E
 10
958749.927
 20
7304655.096
 30
0.0
  0
VERTEX
  8
58
  6
DIVIDE
 62
   216
  5
26F
 10
958904.18
 20
7309910.89
 30
0.0
  0
VERTEX
  8
58
  6
DIVIDE
 62
   216
  5
270
 10
956618.384
 20
7309977.976
 30
0.0
  0
SEQEND
  8
58
  6
DIVIDE
 62
   216
  5
271
  0
ENDSEC
  0
EOF
