  0
SECTION
  2
HEADER
  9
$ACADVER
  1
AC1009
  9
$INSBASE
 10
0.0
 20
0.0
 30
0.0
  9
$EXTMIN
 10
943083.155
 20
7304747.892
 30
0.0
  9
$EXTMAX
 10
953873.213
 20
7310388.055
 30
0.0
  9
$LIMMIN
 10
0.0
 20
0.0
  9
$LIMMAX
 10
12.0
 20
9.0
  9
$ORTHOMODE
 70
     0
  9
$REGENMODE
 70
     1
  9
$FILLMODE
 70
     1
  9
$QTEXTMODE
 70
     0
  9
$MIRRTEXT
 70
     1
  9
$DRAGMODE
 70
     2
  9
$LTSCALE
 40
1.0
  9
$OSMODE
 70
     0
  9
$ATTMODE
 70
     1
  9
$TEXTSIZE
 40
0.2
  9
$TRACEWID
 40
0.05
  9
$TEXTSTYLE
  7
STANDARD
  9
$CLAYER
  8
0
  9
$CELTYPE
  6
CONTINUOUS
  9
$CECOLOR
 62
   256
  9
$DIMSCALE
 40
1.0
  9
$DIMASZ
 40
0.18
  9
$DIMEXO
 40
0.0625
  9
$DIMDLI
 40
0.38
  9
$DIMRND
 40
0.0
  9
$DIMDLE
 40
0.0
  9
$DIMEXE
 40
0.18
  9
$DIMTP
 40
0.0
  9
$DIMTM
 40
0.0
  9
$DIMTXT
 40
0.18
  9
$DIMCEN
 40
0.09
  9
$DIMTSZ
 40
0.0
  9
$DIMTOL
 70
     0
  9
$DIMLIM
 70
     0
  9
$DIMTIH
 70
     1
  9
$DIMTOH
 70
     1
  9
$DIMSE1
 70
     0
  9
$DIMSE2
 70
     0
  9
$DIMTAD
 70
     0
  9
$DIMZIN
 70
     0
  9
$DIMBLK
  1

  9
$DIMASO
 70
     1
  9
$DIMSHO
 70
     1
  9
$DIMPOST
  1

  9
$DIMAPOST
  1

  9
$DIMALT
 70
     0
  9
$DIMALTD
 70
     2
  9
$DIMALTF
 40
25.4
  9
$DIMLFAC
 40
1.0
  9
$DIMTOFL
 70
     0
  9
$DIMTVP
 40
0.0
  9
$DIMTIX
 70
     0
  9
$DIMSOXD
 70
     0
  9
$DIMSAH
 70
     0
  9
$DIMBLK1
  1

  9
$DIMBLK2
  1

  9
$DIMSTYLE
  2
STANDARD
  9
$DIMCLRD
 70
     0
  9
$DIMCLRE
 70
     0
  9
$DIMCLRT
 70
     0
  9
$DIMTFAC
 40
1.0
  9
$DIMGAP
 40
0.09
  9
$LUNITS
 70
     2
  9
$LUPREC
 70
     4
  9
$AXISMODE
 70
     0
  9
$AXISUNIT
 10
0.0
 20
0.0
  9
$SKETCHINC
 40
0.1
  9
$FILLETRAD
 40
0.0
  9
$AUNITS
 70
     0
  9
$AUPREC
 70
     0
  9
$MENU
  1
acad
  9
$ELEVATION
 40
0.0
  9
$PELEVATION
 40
0.0
  9
$THICKNESS
 40
0.0
  9
$LIMCHECK
 70
     0
  9
$BLIPMODE
 70
     1
  9
$CHAMFERA
 40
0.0
  9
$CHAMFERB
 40
0.0
  9
$SKPOLY
 70
     0
  9
$TDCREATE
 40
2453013.904166667
  9
$TDUPDATE
 40
2453013.904166667
  9
$TDINDWG
 40
0.0000000000
  9
$TDUSRTIMER
 40
0.0000000000
  9
$USRTIMER
 70
     1
  9
$ANGBASE
 50
0.0
  9
$ANGDIR
 70
     0
  9
$PDMODE
 70
     0
  9
$PDSIZE
 40
0.0
  9
$PLINEWID
 40
0.0
  9
$COORDS
 70
     0
  9
$SPLFRAME
 70
     0
  9
$SPLINETYPE
 70
     6
  9
$SPLINESEGS
 70
    10
  9
$ATTDIA
 70
     0
  9
$ATTREQ
 70
     1
  9
$HANDLING
 70
     1
  9
$HANDSEED
  5
EB
  9
$SURFTAB1
 70
     6
  9
$SURFTAB2
 70
     6
  9
$SURFTYPE
 70
     6
  9
$SURFU
 70
     6
  9
$SURFV
 70
     6
  9
$UCSNAME
  2

  9
$UCSORG
 10
0.0
 20
0.0
 30
0.0
  9
$UCSXDIR
 10
1.0
 20
0.0
 30
0.0
  9
$UCSYDIR
 10
0.0
 20
1.0
 30
0.0
  9
$PUCSNAME
  2

  9
$PUCSORG
 10
0.0
 20
0.0
 30
0.0
  9
$PUCSXDIR
 10
1.0
 20
0.0
 30
0.0
  9
$PUCSYDIR
 10
0.0
 20
1.0
 30
0.0
  9
$USERI1
 70
     0
  9
$USERI2
 70
     0
  9
$USERI3
 70
     0
  9
$USERI4
 70
     0
  9
$USERI5
 70
     0
  9
$USERR1
 40
0.0
  9
$USERR2
 40
0.0
  9
$USERR3
 40
0.0
  9
$USERR4
 40
0.0
  9
$USERR5
 40
0.0
  9
$WORLDVIEW
 70
     1
  9
$SHADEDGE
 70
     3
  9
$SHADEDIF
 70
    70
  9
$TILEMODE
 70
     1
  9
$MAXACTVP
 70
    16
  9
$PINSBASE
 10
0.0
 20
0.0
 30
0.0
  9
$PLIMCHECK
 70
     0
  9
$PEXTMIN
 10
-1.000000E+20
 20
-1.000000E+20
 30
-1.000000E+20
  9
$PEXTMAX
 10
-1.000000E+20
 20
-1.000000E+20
 30
-1.000000E+20
  9
$PLIMMIN
 10
0.0
 20
0.0
  9
$PLIMMAX
 10
12.0
 20
9.0
  9
$UNITMODE
 70
     0
  9
$VISRETAIN
 70
     0
  9
$PLINEGEN
 70
     1
  9
$PSLTSCALE
 70
     0
  9
$TREEDEPTH
 70
  3020
  9
$DWGCODEPAGE
  3
ansi_1252
  0
ENDSEC
  0
SECTION
  2
TABLES
  0
TABLE
  2
VPORT
 70
     1
  0
VPORT
  2
*ACTIVE
 70
     0
 10
0.0
 20
0.0
 11
1.0
 21
1.0
 12
0.0
 22
0.0
 13
0.0
 23
0.0
 14
0.0
 24
0.0
 15
0.0
 25
0.0
 16
0.0
 26
0.0
 36
1.0
 17
948350.260221
 27
7309986.896443
 37
0.0
 40
937.868
 41
1.346667
 42
50.0
 43
0.004
 44
0.0
 50
1.548879
 51
0.0
 71
     0
 72
   100
 73
     1
 74
     0
 75
     0
 76
     0
 77
     0
 78
     0
  0
ENDTAB
  0
TABLE
  2
LTYPE
 70
     7
  0
LTYPE
  2
CONTINUOUS
 70
     0
  3
Solid line
 72
    65
 73
     0
 40
0.0
  0
LTYPE
  2
DOT
 70
    64
  3
. . . . . . . . . . . . . . . . . . . . . . . . . . . . . . . . .
 72
    65
 73
     2
 40
0.25
 49
0.0
 49
-0.25
  0
LTYPE
  2
HIDDEN
 70
    64
  3
__ __ __ __ __ __ __ __ __ __ __ __ __ __ __ __ __ __ __ __ __ 
 72
    65
 73
     2
 40
0.375
 49
0.25
 49
-0.125
  0
LTYPE
  2
DASHED
 70
    64
  3
__ __ __ __ __ __ __ __ __ __ __ __ __ __ __ __ __ __ __ __ __
 72
    65
 73
     2
 40
0.75
 49
0.5
 49
-0.25
  0
LTYPE
  2
DASHDOT
 70
    64
  3
__ . __ . __ . __ . __ . __ . __ . __ . __ . __ . __ . __ . _
 72
    65
 73
     4
 40
1.0
 49
0.5
 49
-0.25
 49
0.0
 49
-0.25
  0
LTYPE
  2
DIVIDE
 70
    64
  3
____ . . ____ . . ____ . . ____ . . ____ . . ____ . . ____ . .
 72
    65
 73
     6
 40
1.25
 49
0.5
 49
-0.25
 49
0.0
 49
-0.25
 49
0.0
 49
-0.25
  0
LTYPE
  2
CENTER
 70
    64
  3
____ _ ____ _ ____ _ ____ _ ____ _ ____ _ ____ _ ____ _ ____ _
 72
    65
 73
     4
 40
2.0
 49
1.25
 49
-0.25
 49
0.25
 49
-0.25
  0
ENDTAB
  0
TABLE
  2
LAYER
 70
    21
  0
LAYER
  2
0
 70
     0
 62
     7
  6
CONTINUOUS
  0
LAYER
  2
CONSTRUCTION_CLASS
 70
     1
 62
     7
  6
CONTINUOUS
  0
LAYER
  2
PATTERN_CLASS
 70
     0
 62
     7
  6
CONTINUOUS
  0
LAYER
  2
6
 70
    64
 62
     7
  6
CONTINUOUS
  0
LAYER
  2
15
 70
    64
 62
     7
  6
CONTINUOUS
  0
LAYER
  2
11
 70
    64
 62
     7
  6
CONTINUOUS
  0
LAYER
  2
1
 70
    64
 62
     7
  6
CONTINUOUS
  0
LAYER
  2
19
 70
    64
 62
     7
  6
CONTINUOUS
  0
LAYER
  2
21
 70
    64
 62
     7
  6
CONTINUOUS
  0
LAYER
  2
13
 70
    64
 62
     7
  6
CONTINUOUS
  0
LAYER
  2
58
 70
    64
 62
     7
  6
CONTINUOUS
  0
LAYER
  2
10
 70
    64
 62
     7
  6
CONTINUOUS
  0
LAYER
  2
-6
 70
    64
 62
     7
  6
CONTINUOUS
  0
LAYER
  2
-27
 70
    64
 62
     7
  6
CONTINUOUS
  0
LAYER
  2
-19
 70
    64
 62
     7
  6
CONTINUOUS
  0
LAYER
  2
-11
 70
    64
 62
     7
  6
CONTINUOUS
  0
LAYER
  2
DEFPOINTS
 70
    64
 62
     7
  6
CONTINUOUS
  0
LAYER
  2
-1
 70
    64
 62
     7
  6
CONTINUOUS
  0
LAYER
  2
-28
 70
    64
 62
     7
  6
CONTINUOUS
  0
LAYER
  2
-58
 70
    64
 62
     7
  6
CONTINUOUS
  0
LAYER
  2
-10
 70
    64
 62
     7
  6
CONTINUOUS
  0
ENDTAB
  0
TABLE
  2
STYLE
 70
     4
  0
STYLE
  2
STANDARD
 70
     0
 40
0.0
 41
1.0
 50
0.0
 71
     0
 42
0.0
  3
txt
  4

  0
STYLE
  2
ROMANC
 70
     0
 40
0.2
 41
1.0
 50
0.0
 71
     0
 42
0.2
  3
ROMANC
  4

  0
STYLE
  2
ROMANS
 70
     0
 40
0.2
 41
1.0
 50
0.0
 71
     0
 42
0.2
  3
ROMANS
  4

  0
STYLE
  2
txt
 70
     0
 40
0.2
 41
1.0
 50
0.0
 71
     0
 42
0.2
  3
TXT
  4

  0
ENDTAB
  0
TABLE
  2
VIEW
 70
     0
  0
ENDTAB
  0
TABLE
  2
UCS
 70
     0
  0
ENDTAB
  0
TABLE
  2
APPID
 70
     1
  0
APPID
  2
ACAD
 70
     0
  0
ENDTAB
  0
TABLE
  2
DIMSTYLE
 70
     2
  0
DIMSTYLE
  2
STANDARD
 70
     0
  3

  4

  5

  6

  7

 40
1.0
 41
0.18
 42
0.0625
 43
0.38
 44
0.18
 45
0.0
 46
0.0
 47
0.0
 48
0.0
140
0.18
141
0.09
142
0.0
143
25.4
144
1.0
145
0.0
146
1.0
147
0.09
 71
     0
 72
     0
 73
     1
 74
     1
 75
     0
 76
     0
 77
     0
 78
     0
170
     0
171
     2
172
     0
173
     0
174
     0
175
     0
176
     0
177
     0
178
     0
  0
DIMSTYLE
  2
MSADIM
 70
     0
  3

  4

  5

  6

  7

 40
1.0
 41
8.0
 42
4.0
 43
0.0
 44
4.0
 45
0.0
 46
0.0
 47
0.0
 48
0.0
140
8.0
141
4.0
142
0.0
143
25.4
144
1.0
145
4.0
146
1.0
147
4.0
 71
     0
 72
     0
 73
     1
 74
     1
 75
     1
 76
     1
 77
     0
 78
     2
170
     0
171
     2
172
     0
173
     0
174
     0
175
     0
176
     0
177
     0
178
     0
  0
ENDTAB
  0
ENDSEC
  0
SECTION
  2
BLOCKS
  0
BLOCK
  8
-11
  6
CONTINUOUS
 62
     7
  5
82
  2
*D0
 70
     1
 10
0.0
 20
0.0
 30
0.0
  3
*N0
  0
TEXT
  8
-11
  6
CONTINUOUS
 62
     7
  5
83
 10
950610.032
 20
7309905.028
 30
0.0
 40
8.0
  1
N24%%d45'42"E
 50
65.238222
  7
ROMANS
 72
     1
 11
950620.568516
 21
7309946.971198
 31
0.0
210
0.0
220
0.0
230
1.0
 73
     3
  0
TEXT
  8
-11
  6
CONTINUOUS
 62
     7
  5
84
 10
950602.693
 20
7309927.318
 30
0.0
 40
8.0
  1
510.03'
 50
65.238222
  7
ROMANS
 72
     1
 11
950613.303636
 21
7309950.32181
 31
0.0
210
0.0
220
0.0
230
1.0
  0
ENDBLK
  8
-11
  6
CONTINUOUS
 62
     7
  5
85
  0
BLOCK
  8
-11
  6
CONTINUOUS
 62
     7
  5
A7
  2
*D1
 70
     1
 10
0.0
 20
0.0
 30
0.0
  3
*N1
  0
TEXT
  8
-11
  6
CONTINUOUS
 62
     7
  5
A8
 10
950256.258
 20
7307344.832
 30
0.0
 40
8.0
  1
N03%%d34'09"W
 50
273.569072
  7
ROMANS
 72
     1
 11
950266.910844
 21
7307302.54915
 31
0.0
210
0.0
220
0.0
230
1.0
 73
     3
  0
TEXT
  8
-11
  6
CONTINUOUS
 62
     7
  5
A9
 10
950273.07
 20
7307332.323
 30
0.0
 40
8.0
  1
3207.25'
 50
273.569072
  7
ROMANS
 72
     1
 11
950274.896032
 21
7307303.046892
 31
0.0
210
0.0
220
0.0
230
1.0
  0
ENDBLK
  8
-11
  6
CONTINUOUS
 62
     7
  5
AA
  0
ENDSEC
  0
SECTION
  2
ENTITIES
  0
LINE
  8
6
  6
CONTINUOUS
 62
     7
  5
29
 10
943083.155
 20
7305092.49
 30
0.0
 11
943220.806
 21
7310345.297
 31
0.0
  0
TEXT
  8
15
  6
CONTINUOUS
 62
    30
  5
2C
 10
946820.907
 20
7307504.685
 30
0.0
 40
50.0
  1
LUBBOCK  LANDFILL
 50
28.1874
  7
ROMANC
 72
     4
 11
947216.641444
 21
7307745.127643
 31
0.0
210
0.0
220
0.0
230
1.0
  0
TEXT
  8
11
  6
CONTINUOUS
 62
     7
  5
2F
 10
943175.472
 20
7305125.812
 30
0.0
 40
8.0
  1
40'
 50
358.1874
  7
ROMANS
210
0.0
220
0.0
230
1.0
  0
TEXT
  8
11
  6
CONTINUOUS
 62
     7
  5
30
 10
943341.612
 20
7310364.33
 30
0.0
 40
8.0
  1
40'
 50
358.1874
  7
ROMANS
210
0.0
220
0.0
230
1.0
  0
TEXT
  8
11
  6
CONTINUOUS
 62
     7
  5
31
 10
947186.065
 20
7310251.894
 30
0.0
 40
8.0
  1
2640'
 50
358.1874
  7
ROMANS
 72
     4
 11
947203.515849
 21
7310255.343746
 31
0.0
210
0.0
220
0.0
230
1.0
  0
TEXT
  8
11
  6
CONTINUOUS
 62
     7
  5
32
 10
947004.415
 20
7304999.554
 30
0.0
 40
8.0
  1
2640'
 50
358.1874
  7
ROMANS
 72
     4
 11
947021.865849
 21
7305003.003746
 31
0.0
210
0.0
220
0.0
230
1.0
  0
LINE
  8
1
  6
HIDDEN
 62
   253
  5
34
 10
943306.202
 20
7310366.693
 30
0.0
 11
943142.656
 21
7305090.841
 31
0.0
  0
LINE
  8
1
  6
HIDDEN
 62
   253
  5
35
 10
948614.274
 20
7310222.149
 30
0.0
 11
948447.39
 21
7304947.403
 31
0.0
  0
LINE
  8
1
  6
HIDDEN
 62
   253
  5
36
 10
948614.274
 20
7310222.149
 30
0.0
 11
943306.202
 21
7310366.693
 31
0.0
  0
LINE
  8
1
  6
HIDDEN
 62
   253
  5
37
 10
943142.656
 20
7305090.841
 30
0.0
 11
948447.39
 21
7304947.403
 31
0.0
  0
TEXT
  8
19
  6
CONTINUOUS
 62
     1
  5
39
 10
943303.275
 20
7305116.662
 30
0.0
 40
24.0
  1
STONEHILL ST
 50
358.1874
  7
ROMANC
 72
     4
 11
943449.839383
 21
7305124.029773
 31
0.0
210
0.0
220
0.0
230
1.0
  0
TEXT
  8
19
  6
CONTINUOUS
 62
     1
  5
3A
 10
948021.465
 20
7304968.677
 30
0.0
 40
24.0
  1
STONEHILL ST
 50
358.1874
  7
ROMANC
 72
     4
 11
948168.029383
 21
7304976.044773
 31
0.0
210
0.0
220
0.0
230
1.0
  0
TEXT
  8
19
  6
CONTINUOUS
 62
     1
  5
3B
 10
945794.092
 20
7305036.756
 30
0.0
 40
24.0
  1
STONEHILL ST
 50
358.1874
  7
ROMANC
 72
     4
 11
945940.656383
 21
7305044.123773
 31
0.0
210
0.0
220
0.0
230
1.0
  0
TEXT
  8
19
  6
CONTINUOUS
 62
     1
  5
3C
 10
943508.147
 20
7310352.073
 30
0.0
 40
24.0
  1
KEUKA ST
 50
358.1874
  7
ROMANC
 72
     4
 11
943615.239144
 21
7310360.689927
 31
0.0
210
0.0
220
0.0
230
1.0
  0
TEXT
  8
19
  6
CONTINUOUS
 62
     1
  5
3D
 10
945991.758
 20
7310273.477
 30
0.0
 40
24.0
  1
KEUKA ST
 50
358.1874
  7
ROMANC
 72
     4
 11
946098.850144
 21
7310282.093927
 31
0.0
210
0.0
220
0.0
230
1.0
  0
TEXT
  8
19
  6
CONTINUOUS
 62
     1
  5
3E
 10
948252.695
 20
7310200.852
 30
0.0
 40
24.0
  1
KEUKA ST
 50
358.1874
  7
ROMANC
 72
     4
 11
948359.787144
 21
7310209.468927
 31
0.0
210
0.0
220
0.0
230
1.0
  0
TEXT
  8
19
  6
CONTINUOUS
 62
     1
  5
3F
 10
943197.26
 20
7305228.229
 30
0.0
 40
24.0
  1
N UNIVERSITY AVE
 50
88.1874
  7
ROMANC
 72
     4
 11
943191.828808
 21
7305435.987748
 31
0.0
210
0.0
220
0.0
230
1.0
  0
TEXT
  8
19
  6
CONTINUOUS
 62
     1
  5
40
 10
943261.183
 20
7307314.322
 30
0.0
 40
24.0
  1
N UNIVERSITY AVE
 50
88.1874
  7
ROMANC
 72
     4
 11
943255.751808
 21
7307522.080748
 31
0.0
210
0.0
220
0.0
230
1.0
  0
TEXT
  8
19
  6
CONTINUOUS
 62
     1
  5
41
 10
943334.12
 20
7309510.608
 30
0.0
 40
24.0
  1
N UNIVERSITY AVE
 50
88.1874
  7
ROMANC
 72
     4
 11
943328.688808
 21
7309718.366748
 31
0.0
210
0.0
220
0.0
230
1.0
  0
TEXT
  8
19
  6
CONTINUOUS
 62
     1
  5
42
 10
948434.238
 20
7305123.089
 30
0.0
 40
24.0
  1
N AVE Q
 50
88.1874
  7
ROMANC
 72
     4
 11
948425.184698
 21
7305216.392047
 31
0.0
210
0.0
220
0.0
230
1.0
  0
TEXT
  8
19
  6
CONTINUOUS
 62
     1
  5
43
 10
948581.91
 20
7309871.887
 30
0.0
 40
24.0
  1
N AVE Q
 50
88.1874
  7
ROMANC
 72
     4
 11
948572.856698
 21
7309965.190047
 31
0.0
210
0.0
220
0.0
230
1.0
  0
TEXT
  8
19
  6
CONTINUOUS
 62
     1
  5
44
 10
948510.676
 20
7307576.987
 30
0.0
 40
24.0
  1
N AVE Q
 50
88.1874
  7
ROMANC
 72
     4
 11
948501.622698
 21
7307670.290047
 31
0.0
210
0.0
220
0.0
230
1.0
  0
SOLID
  8
21
  6
DASHDOT
 62
     7
  5
46
 10
948606.315
 20
7310222.404
 30
0.0
 11
948439.305
 21
7304945.046
 31
0.0
 12
948546.345
 22
7310224.301
 32
0.0
 13
948379.335
 23
7304946.943
 33
0.0
  0
LINE
  8
6
  6
CONTINUOUS
 62
     7
  5
47
 10
948227.331
 20
7305169.64
 30
0.0
 11
948356.559
 21
7310176.666
 31
0.0
  0
TEXT
  8
13
  6
CONTINUOUS
 62
    14
  5
4A
 10
948547.406
 20
7309330.17
 30
0.0
 40
8.0
  1
V1328 P340
 50
88.1874
  7
txt
 72
     4
 11
948544.603447
 21
7309368.071611
 31
0.0
210
0.0
220
0.0
230
1.0
  0
LINE
  8
6
  6
CONTINUOUS
 62
     7
  5
4B
 10
945779.696
 20
7308101.982
 30
0.0
 11
945681.854
 21
7305010.25
 31
0.0
  0
LINE
  8
6
  6
CONTINUOUS
 62
     7
  5
4C
 10
945681.854
 20
7305010.25
 30
0.0
 11
944975.256
 21
7305037.424
 31
0.0
  0
LINE
  8
6
  6
CONTINUOUS
 62
     7
  5
4D
 10
944975.256
 20
7305037.424
 30
0.0
 11
945087.878
 21
7308596.142
 31
0.0
  0
LINE
  8
6
  6
CONTINUOUS
 62
     7
  5
4E
 10
945087.878
 20
7308596.142
 30
0.0
 11
945779.698
 21
7308101.985
 31
0.0
  0
LINE
  8
6
  6
CONTINUOUS
 62
     7
  5
4F
 10
943220.806
 20
7310345.297
 30
0.0
 11
948356.559
 21
7310176.666
 31
0.0
  0
POLYLINE
  8
58
  6
DIVIDE
 62
   216
  5
51
 66
     1
 10
0.0
 20
0.0
 30
0.0
  0
VERTEX
  8
58
  6
DIVIDE
 62
   216
  5
52
 10
948219.415
 20
7304952.004
 30
0.0
  0
VERTEX
  8
58
  6
DIVIDE
 62
   216
  5
53
 10
945800.626
 20
7305028.55
 30
0.0
  0
VERTEX
  8
58
  6
DIVIDE
 62
   216
  5
54
 10
945967.636
 20
7310305.908
 30
0.0
  0
VERTEX
  8
58
  6
DIVIDE
 62
   216
  5
55
 10
948606.315
 20
7310222.404
 30
0.0
  0
SEQEND
  8
58
  6
DIVIDE
 62
   216
  5
56
  0
ARC
  8
6
  6
CONTINUOUS
 62
     7
  5
57
 10
949450.411995
 20
7305065.018394
 30
0.0
 40
1221.68785
 50
179.606206
 51
195.045211
210
0.0
220
0.0
230
1.0
  0
TEXT
  8
13
  6
CONTINUOUS
 62
    14
  5
58
 10
945371.868
 20
7306631.162
 30
0.0
 40
8.0
  1
V5626 P231
 50
358.1874
  7
ROMANS
 72
     4
 11
945409.308842
 21
7306633.979135
 31
0.0
210
0.0
220
0.0
230
1.0
  0
TEXT
  8
10
  6
CONTINUOUS
 62
   134
  5
5A
 10
944808.145
 20
7307998.734
 30
0.0
 40
13.999
  1
UNSUBDIVIDED
 50
358.1874
  7
ROMANS
 11
944808.587796
 21
7308012.725995
 31
0.0
210
0.0
220
0.0
230
1.0
 73
     3
  0
LINE
  8
6
  6
CONTINUOUS
 62
     7
  5
5B
 10
948227.331
 20
7305169.64
 30
0.0
 11
948228.753
 21
7305073.415
 31
0.0
  0
LINE
  8
58
  6
DIVIDE
 62
   216
  5
5C
 10
948303.287
 20
7304949.35
 30
0.0
 11
948379.335
 21
7304946.943
 31
0.0
  0
LINE
  8
-6
  6
CONTINUOUS
 62
     7
  5
5E
 10
953573.133
 20
7310005.381
 30
0.0
 11
953599.036
 21
7308603.599
 31
0.0
  0
LINE
  8
-6
  6
CONTINUOUS
 62
     7
  5
5F
 10
953599.036
 20
7308603.599
 30
0.0
 11
953522.812
 21
7305700.863
 31
0.0
  0
LINE
  8
-6
  6
CONTINUOUS
 62
     7
  5
60
 10
953388.783
 20
7304954.647
 30
0.0
 11
953454.367
 21
7305228.542
 31
0.0
  0
ARC
  8
-6
  6
CONTINUOUS
 62
     7
  5
61
 10
951237.64791
 20
7305790.520264
 30
0.0
 40
2286.922243
 50
345.774986
 51
357.753181
210
0.0
220
0.0
230
1.0
  0
LINE
  8
-6
  6
CONTINUOUS
 62
     7
  5
62
 10
950292.933
 20
7305166.071
 30
0.0
 11
950074.011
 21
7308384.433
 31
0.0
  0
ARC
  8
-6
  6
CONTINUOUS
 62
     7
  5
63
 10
952958.640192
 20
7308560.545509
 30
0.0
 40
2880.18
 50
154.812214
 51
183.4103
210
0.0
220
0.0
230
1.0
  0
POLYLINE
  8
-6
  6
CONTINUOUS
 62
     7
  5
64
 66
     1
 10
0.0
 20
0.0
 30
0.0
  0
VERTEX
  8
-6
  6
CONTINUOUS
 62
     7
  5
65
 10
950352.314
 20
7309786.311
 30
0.0
  0
VERTEX
  8
-6
  6
CONTINUOUS
 62
     7
  5
66
 10
950306.809
 20
7309807.026
 30
0.0
  0
VERTEX
  8
-6
  6
CONTINUOUS
 62
     7
  5
67
 10
950472.309
 20
7310171.553
 30
0.0
  0
SEQEND
  8
-6
  6
CONTINUOUS
 62
     7
  5
68
  0
LINE
  8
-6
  6
CONTINUOUS
 62
     7
  5
69
 10
950392.711
 20
7305172.731
 30
0.0
 11
950173.25
 21
7308391.127
 31
0.0
  0
ARC
  8
-6
  6
CONTINUOUS
 62
     7
  5
6A
 10
952975.286001
 20
7308556.11818
 30
0.0
 40
2797.14
 50
154.8403
 51
183.2703
210
0.0
220
0.0
230
1.0
  0
POLYLINE
  8
-6
  6
CONTINUOUS
 62
     7
  5
6B
 66
     1
 10
0.0
 20
0.0
 30
0.0
  0
VERTEX
  8
-6
  6
CONTINUOUS
 62
     7
  5
6C
 10
950444.032
 20
7309744.603
 30
0.0
  0
VERTEX
  8
-6
  6
CONTINUOUS
 62
     7
  5
6D
 10
950489.067
 20
7309724.674
 30
0.0
  0
VERTEX
  8
-6
  6
CONTINUOUS
 62
     7
  5
6E
 10
950692.428
 20
7310165.559
 30
0.0
  0
SEQEND
  8
-6
  6
CONTINUOUS
 62
     7
  5
6F
  0
LINE
  8
-27
  6
CONTINUOUS
 62
    32
  5
71
 10
950342.822
 20
7305169.401
 30
0.0
 11
950129.914
 21
7308358.722
 31
0.0
  0
ARC
  8
-27
  6
CONTINUOUS
 62
    32
  5
72
 10
953162.149546
 20
7308510.244204
 30
0.0
 40
3036.019003
 50
155.570717
 51
182.860717
210
0.0
220
0.0
230
1.0
  0
LINE
  8
-27
  6
CONTINUOUS
 62
    32
  5
73
 10
950397.938
 20
7309765.85
 30
0.0
 11
950585.716
 21
7310181.43
 31
0.0
  0
TEXT
  8
-19
  6
CONTINUOUS
 62
     1
  5
75
 10
953655.431
 20
7306242.135
 30
0.0
 40
24.0
  1
INTERSTATE 27
 50
88.3203
  7
ROMANC
 72
     4
 11
953648.094435
 21
7306401.338459
 31
0.0
210
0.0
220
0.0
230
1.0
  0
TEXT
  8
-19
  6
CONTINUOUS
 62
     1
  5
76
 10
953760.424
 20
7309570.765
 30
0.0
 40
24.0
  1
INTERSTATE 27
 50
88.3203
  7
ROMANC
 72
     4
 11
953753.087435
 21
7309729.968459
 31
0.0
210
0.0
220
0.0
230
1.0
  0
TEXT
  8
-19
  6
CONTINUOUS
 62
     1
  5
77
 10
953616.113
 20
7304873.932
 30
0.0
 40
24.0
  1
INTERSTATE 27
 50
88.3203
  7
ROMANC
 72
     4
 11
953608.776435
 21
7305033.135459
 31
0.0
210
0.0
220
0.0
230
1.0
  0
TEXT
  8
-11
  6
CONTINUOUS
 62
     7
  5
79
 10
948541.121
 20
7310222.165
 30
0.0
 40
8.0
  1
60'
 50
358.3203
  7
ROMANS
 72
     4
 11
948550.567238
 21
7310225.889711
 31
0.0
210
0.0
220
0.0
230
1.0
  0
TEXT
  8
-11
  6
CONTINUOUS
 62
     7
  5
7A
 10
949589.578
 20
7310198.711
 30
0.0
 40
8.0
  1
1927.53'
 50
358.3203
  7
ROMANS
 72
     4
 11
949619.015644
 21
7310201.84947
 31
0.0
210
0.0
220
0.0
230
1.0
  0
TEXT
  8
-11
  6
CONTINUOUS
 62
     7
  5
7B
 10
950513.934
 20
7310111.428
 30
0.0
 40
8.0
  1
100'
 50
328.3203
  7
ROMANS
 72
     4
 11
950527.381027
 21
7310107.829895
 31
0.0
210
0.0
220
0.0
230
1.0
  0
TEXT
  8
-11
  6
CONTINUOUS
 62
     7
  5
7C
 10
950606.127
 20
7310075.355
 30
0.0
 40
8.0
  1
100'
 50
328.3203
  7
ROMANS
 72
     4
 11
950619.574027
 21
7310071.756895
 31
0.0
210
0.0
220
0.0
230
1.0
  0
TEXT
  8
-11
  6
CONTINUOUS
 62
     7
  5
7D
 10
950338.652
 20
7309661.327
 30
0.0
 40
8.0
  1
50'
 50
340.3203
  7
ROMANS
 72
     4
 11
950348.786905
 21
7309661.950363
 31
0.0
210
0.0
220
0.0
230
1.0
  0
TEXT
  8
-11
  6
CONTINUOUS
 62
     7
  5
7E
 10
950384.449
 20
7309638.762
 30
0.0
 40
8.0
  1
50'
 50
340.3203
  7
ROMANS
 72
     4
 11
950394.583905
 21
7309639.385363
 31
0.0
210
0.0
220
0.0
230
1.0
  0
INSERT
  8
-11
  6
CONTINUOUS
 62
     7
  5
86
  2
*D0
 10
950509.348
 20
7309715.397
 30
0.0
 70
     0
 71
     0
  0
TEXT
  8
-11
  6
CONTINUOUS
 62
     7
  5
87
 10
950294.375
 20
7305028.412
 30
0.0
 40
8.0
  1
2
 50
83.365169
  7
ROMANS
 72
     1
 11
950294.644557
 21
7305030.729375
 31
0.0
210
0.0
220
0.0
230
1.0
  0
TEXT
  8
-11
  6
CONTINUOUS
 62
     7
  5
88
 10
950295.291
 20
7305036.295
 30
0.0
 40
8.0
  1
6
 50
83.365169
  7
ROMANS
 72
     1
 11
950295.582163
 21
7305038.798123
 31
0.0
210
0.0
220
0.0
230
1.0
  0
TEXT
  8
-11
  6
CONTINUOUS
 62
     7
  5
89
 10
950296.093
 20
7305044.101
 30
0.0
 40
8.0
  1
7
 50
85.064236
  7
ROMANS
 72
     1
 11
950296.293729
 21
7305046.425349
 31
0.0
210
0.0
220
0.0
230
1.0
  0
TEXT
  8
-11
  6
CONTINUOUS
 62
     7
  5
8A
 10
950296.776
 20
7305052.009
 30
0.0
 40
8.0
  1
.
 50
85.064236
  7
ROMANS
 72
     1
 11
950296.889743
 21
7305053.326098
 31
0.0
210
0.0
220
0.0
230
1.0
  0
TEXT
  8
-11
  6
CONTINUOUS
 62
     7
  5
8B
 10
950297.515
 20
7305059.823
 30
0.0
 40
8.0
  1
3
 50
86.763306
  7
ROMANS
 72
     1
 11
950297.646723
 21
7305062.152278
 31
0.0
210
0.0
220
0.0
230
1.0
  0
TEXT
  8
-11
  6
CONTINUOUS
 62
     7
  5
8C
 10
950297.963
 20
7305067.747
 30
0.0
 40
8.0
  1
3
 50
86.763306
  7
ROMANS
 72
     1
 11
950298.094723
 21
7305070.076278
 31
0.0
210
0.0
220
0.0
230
1.0
  0
TEXT
  8
-11
  6
CONTINUOUS
 62
     7
  5
8D
 10
950298.411
 20
7305075.672
 30
0.0
 40
8.0
  1
'
 50
86.763306
  7
ROMANS
 72
     1
 11
950298.486262
 21
7305077.002874
 31
0.0
210
0.0
220
0.0
230
1.0
  0
TEXT
  8
-11
  6
CONTINUOUS
 62
     7
  5
8E
 10
950401.127
 20
7305028.077
 30
0.0
 40
8.0
  1
2
 50
83.907119
  7
ROMANS
 72
     1
 11
950401.374626
 21
7305030.396821
 31
0.0
210
0.0
220
0.0
230
1.0
  0
TEXT
  8
-11
  6
CONTINUOUS
 62
     7
  5
8F
 10
950401.969
 20
7305035.969
 30
0.0
 40
8.0
  1
7
 50
83.907119
  7
ROMANS
 72
     1
 11
950402.216626
 21
7305038.288821
 31
0.0
210
0.0
220
0.0
230
1.0
  0
TEXT
  8
-11
  6
CONTINUOUS
 62
     7
  5
90
 10
950402.811
 20
7305043.861
 30
0.0
 40
8.0
  1
6
 50
83.907119
  7
ROMANS
 72
     1
 11
950403.078474
 21
7305046.366765
 31
0.0
210
0.0
220
0.0
230
1.0
  0
TEXT
  8
-11
  6
CONTINUOUS
 62
     7
  5
91
 10
950403.482
 20
7305051.672
 30
0.0
 40
8.0
  1
.
 50
85.749706
  7
ROMANS
 72
     1
 11
950403.579978
 21
7305052.990364
 31
0.0
210
0.0
220
0.0
230
1.0
  0
TEXT
  8
-11
  6
CONTINUOUS
 62
     7
  5
92
 10
950404.069
 20
7305059.587
 30
0.0
 40
8.0
  1
8
 50
85.749706
  7
ROMANS
 72
     1
 11
950404.241907
 21
7305061.913584
 31
0.0
210
0.0
220
0.0
230
1.0
  0
TEXT
  8
-11
  6
CONTINUOUS
 62
     7
  5
93
 10
950404.618
 20
7305067.408
 30
0.0
 40
8.0
  1
4
 50
87.592294
  7
ROMANS
 72
     1
 11
950404.716009
 21
7305069.73894
 31
0.0
210
0.0
220
0.0
230
1.0
  0
TEXT
  8
-11
  6
CONTINUOUS
 62
     7
  5
94
 10
950404.952
 20
7305075.339
 30
0.0
 40
8.0
  1
'
 50
87.592294
  7
ROMANS
 72
     1
 11
950405.007999
 21
7305076.670823
 31
0.0
210
0.0
220
0.0
230
1.0
  0
TEXT
  8
-11
  6
CONTINUOUS
 62
     7
  5
95
 10
950307.821
 20
7305022.851
 30
0.0
 40
8.0
  1
R
 50
83.365169
  7
ROMANS
 72
     1
 11
950300.165742
 21
7305026.278451
 31
0.0
210
0.0
220
0.0
230
1.0
 73
     3
  0
TEXT
  8
-11
  6
CONTINUOUS
 62
     7
  5
96
 10
950308.739
 20
7305030.736
 30
0.0
 40
8.0
  1
=
 50
83.365169
  7
ROMANS
 72
     1
 11
950301.177676
 21
7305034.971006
 31
0.0
210
0.0
220
0.0
230
1.0
 73
     3
  0
TEXT
  8
-11
  6
CONTINUOUS
 62
     7
  5
97
 10
950309.7
 20
7305038.942
 30
0.0
 40
8.0
  1
7
 50
85.064236
  7
ROMANS
 72
     1
 11
950301.930394
 21
7305041.954659
 31
0.0
210
0.0
220
0.0
230
1.0
 73
     3
  0
TEXT
  8
-11
  6
CONTINUOUS
 62
     7
  5
98
 10
950310.383
 20
7305046.849
 30
0.0
 40
8.0
  1
2
 50
85.064236
  7
ROMANS
 72
     1
 11
950302.613394
 21
7305049.861659
 31
0.0
210
0.0
220
0.0
230
1.0
 73
     3
  0
TEXT
  8
-11
  6
CONTINUOUS
 62
     7
  5
99
 10
950311.066
 20
7305054.757
 30
0.0
 40
8.0
  1
7
 50
85.064236
  7
ROMANS
 72
     1
 11
950303.296394
 21
7305057.769659
 31
0.0
210
0.0
220
0.0
230
1.0
 73
     3
  0
TEXT
  8
-11
  6
CONTINUOUS
 62
     7
  5
9A
 10
950311.717
 20
7305062.995
 30
0.0
 40
8.0
  1
.
 50
86.763306
  7
ROMANS
 72
     1
 11
950303.804403
 21
7305064.766579
 31
0.0
210
0.0
220
0.0
230
1.0
 73
     3
  0
TEXT
  8
-11
  6
CONTINUOUS
 62
     7
  5
9B
 10
950312.165
 20
7305070.918
 30
0.0
 40
8.0
  1
8
 50
86.763306
  7
ROMANS
 72
     1
 11
950304.309485
 21
7305073.698966
 31
0.0
210
0.0
220
0.0
230
1.0
 73
     3
  0
TEXT
  8
-11
  6
CONTINUOUS
 62
     7
  5
9C
 10
950312.613
 20
7305078.843
 30
0.0
 40
8.0
  1
'
 50
86.763306
  7
ROMANS
 72
     1
 11
950304.701024
 21
7305080.625561
 31
0.0
210
0.0
220
0.0
230
1.0
 73
     3
  0
TEXT
  8
-11
  6
CONTINUOUS
 62
     7
  5
9D
 10
950413.676
 20
7305016.43
 30
0.0
 40
8.0
  1
R
 50
82.064531
  7
ROMANS
 72
     1
 11
950406.100512
 21
7305020.030331
 31
0.0
210
0.0
220
0.0
230
1.0
 73
     3
  0
TEXT
  8
-11
  6
CONTINUOUS
 62
     7
  5
9E
 10
950414.84
 20
7305024.639
 30
0.0
 40
8.0
  1
=
 50
83.907119
  7
ROMANS
 72
     1
 11
950407.238957
 21
7305028.802296
 31
0.0
210
0.0
220
0.0
230
1.0
 73
     3
  0
TEXT
  8
-11
  6
CONTINUOUS
 62
     7
  5
9F
 10
950415.681
 20
7305032.531
 30
0.0
 40
8.0
  1
6
 50
83.907119
  7
ROMANS
 72
     1
 11
950407.993665
 21
7305035.885889
 31
0.0
210
0.0
220
0.0
230
1.0
 73
     3
  0
TEXT
  8
-11
  6
CONTINUOUS
 62
     7
  5
A0
 10
950416.523
 20
7305040.422
 30
0.0
 40
8.0
  1
1
 50
83.907119
  7
ROMANS
 72
     1
 11
950408.709676
 21
7305042.596594
 31
0.0
210
0.0
220
0.0
230
1.0
 73
     3
  0
TEXT
  8
-11
  6
CONTINUOUS
 62
     7
  5
A1
 10
950417.297
 20
7305048.677
 30
0.0
 40
8.0
  1
8
 50
85.749706
  7
ROMANS
 72
     1
 11
950409.491909
 21
7305051.596493
 31
0.0
210
0.0
220
0.0
230
1.0
 73
     3
  0
TEXT
  8
-11
  6
CONTINUOUS
 62
     7
  5
A2
 10
950417.887
 20
7305056.592
 30
0.0
 40
8.0
  1
.
 50
85.749706
  7
ROMANS
 72
     1
 11
950410.00698
 21
7305058.503273
 31
0.0
210
0.0
220
0.0
230
1.0
 73
     3
  0
TEXT
  8
-11
  6
CONTINUOUS
 62
     7
  5
A3
 10
950418.524
 20
7305064.859
 30
0.0
 40
8.0
  1
8
 50
87.592294
  7
ROMANS
 72
     1
 11
950410.629072
 21
7305067.526021
 31
0.0
210
0.0
220
0.0
230
1.0
 73
     3
  0
TEXT
  8
-11
  6
CONTINUOUS
 62
     7
  5
A4
 10
950418.858
 20
7305072.789
 30
0.0
 40
8.0
  1
4
 50
87.592294
  7
ROMANS
 72
     1
 11
950410.963072
 21
7305075.456021
 31
0.0
210
0.0
220
0.0
230
1.0
 73
     3
  0
TEXT
  8
-11
  6
CONTINUOUS
 62
     7
  5
A5
 10
950419.191
 20
7305080.718
 30
0.0
 40
8.0
  1
'
 50
87.592294
  7
ROMANS
 72
     1
 11
950411.254062
 21
7305082.385903
 31
0.0
210
0.0
220
0.0
230
1.0
 73
     3
  0
INSERT
  8
-11
  6
CONTINUOUS
 62
     7
  5
AB
  2
*D1
 10
950402.936
 20
7305185.97
 30
0.0
 70
     0
 71
     0
  0
TEXT
  8
-11
  6
CONTINUOUS
 62
     7
  5
AC
 10
950245.693
 20
7308991.382
 30
0.0
 40
8.0
  1
1
 50
80.873797
  7
ROMANS
 72
     1
 11
950238.005696
 21
7308993.967003
 31
0.0
210
0.0
220
0.0
230
1.0
 73
     3
  0
TEXT
  8
-11
  6
CONTINUOUS
 62
     7
  5
AD
 10
950246.951
 20
7308999.22
 30
0.0
 40
8.0
  1
3
 50
80.873797
  7
ROMANS
 72
     1
 11
950239.422305
 21
7309002.792344
 31
0.0
210
0.0
220
0.0
230
1.0
 73
     3
  0
TEXT
  8
-11
  6
CONTINUOUS
 62
     7
  5
AE
 10
950248.159
 20
7309006.897
 30
0.0
 40
8.0
  1
7
 50
80.007122
  7
ROMANS
 72
     1
 11
950240.685201
 21
7309010.582813
 31
0.0
210
0.0
220
0.0
230
1.0
 73
     3
  0
TEXT
  8
-11
  6
CONTINUOUS
 62
     7
  5
AF
 10
950249.536
 20
7309014.713
 30
0.0
 40
8.0
  1
3
 50
80.007122
  7
ROMANS
 72
     1
 11
950242.062201
 21
7309018.398813
 31
0.0
210
0.0
220
0.0
230
1.0
 73
     3
  0
TEXT
  8
-11
  6
CONTINUOUS
 62
     7
  5
B0
 10
950250.914
 20
7309022.53
 30
0.0
 40
8.0
  1
.
 50
80.007122
  7
ROMANS
 72
     1
 11
950243.264766
 21
7309025.22015
 31
0.0
210
0.0
220
0.0
230
1.0
 73
     3
  0
TEXT
  8
-11
  6
CONTINUOUS
 62
     7
  5
B1
 10
950252.292
 20
7309030.346
 30
0.0
 40
8.0
  1
7
 50
80.007122
  7
ROMANS
 72
     1
 11
950244.818201
 21
7309034.031813
 31
0.0
210
0.0
220
0.0
230
1.0
 73
     3
  0
TEXT
  8
-11
  6
CONTINUOUS
 62
     7
  5
B2
 10
950253.668
 20
7309038.163
 30
0.0
 40
8.0
  1
4
 50
80.007122
  7
ROMANS
 72
     1
 11
950246.194201
 21
7309041.848813
 31
0.0
210
0.0
220
0.0
230
1.0
 73
     3
  0
TEXT
  8
-11
  6
CONTINUOUS
 62
     7
  5
B3
 10
950255.046
 20
7309045.979
 30
0.0
 40
8.0
  1
'
 50
80.007122
  7
ROMANS
 72
     1
 11
950247.398849
 21
7309048.680968
 31
0.0
210
0.0
220
0.0
230
1.0
 73
     3
  0
TEXT
  8
-11
  6
CONTINUOUS
 62
     7
  5
B4
 10
950159.204
 20
7309150.503
 30
0.0
 40
8.0
  1
R
 50
78.0487
  7
ROMANS
 72
     1
 11
950159.725842
 21
7309152.968376
 31
0.0
210
0.0
220
0.0
230
1.0
  0
TEXT
  8
-11
  6
CONTINUOUS
 62
     7
  5
B5
 10
950160.847
 20
7309158.268
 30
0.0
 40
8.0
  1
=
 50
78.0487
  7
ROMANS
 72
     1
 11
950161.537198
 21
7309161.528754
 31
0.0
210
0.0
220
0.0
230
1.0
  0
TEXT
  8
-11
  6
CONTINUOUS
 62
     7
  5
B6
 10
950162.49
 20
7309166.032
 30
0.0
 40
8.0
  1
2
 50
78.0487
  7
ROMANS
 72
     1
 11
950162.973118
 21
7309168.31443
 31
0.0
210
0.0
220
0.0
230
1.0
  0
TEXT
  8
-11
  6
CONTINUOUS
 62
     7
  5
B7
 10
950164.218
 20
7309173.825
 30
0.0
 40
8.0
  1
8
 50
77.194611
  7
ROMANS
 72
     1
 11
950164.735308
 21
7309176.10095
 31
0.0
210
0.0
220
0.0
230
1.0
  0
TEXT
  8
-11
  6
CONTINUOUS
 62
     7
  5
B8
 10
950165.977
 20
7309181.565
 30
0.0
 40
8.0
  1
8
 50
77.194611
  7
ROMANS
 72
     1
 11
950166.494308
 21
7309183.84095
 31
0.0
210
0.0
220
0.0
230
1.0
  0
TEXT
  8
-11
  6
CONTINUOUS
 62
     7
  5
B9
 10
950167.737
 20
7309189.305
 30
0.0
 40
8.0
  1
0
 50
77.194611
  7
ROMANS
 72
     1
 11
950168.324568
 21
7309191.890066
 31
0.0
210
0.0
220
0.0
230
1.0
  0
TEXT
  8
-11
  6
CONTINUOUS
 62
     7
  5
BA
 10
950169.496
 20
7309197.044
 30
0.0
 40
8.0
  1
.
 50
77.194611
  7
ROMANS
 72
     1
 11
950169.789008
 21
7309198.33312
 31
0.0
210
0.0
220
0.0
230
1.0
  0
TEXT
  8
-11
  6
CONTINUOUS
 62
     7
  5
BB
 10
950171.255
 20
7309204.784
 30
0.0
 40
8.0
  1
1
 50
77.194611
  7
ROMANS
 72
     1
 11
950171.550668
 21
7309206.084821
 31
0.0
210
0.0
220
0.0
230
1.0
  0
TEXT
  8
-11
  6
CONTINUOUS
 62
     7
  5
BC
 10
950173.052
 20
7309212.561
 30
0.0
 40
8.0
  1
8
 50
76.340519
  7
ROMANS
 72
     1
 11
950173.60294
 21
7309214.828014
 31
0.0
210
0.0
220
0.0
230
1.0
  0
TEXT
  8
-11
  6
CONTINUOUS
 62
     7
  5
BD
 10
950174.925
 20
7309220.273
 30
0.0
 40
8.0
  1
'
 50
76.340519
  7
ROMANS
 72
     1
 11
950175.240025
 21
7309221.56927
 31
0.0
210
0.0
220
0.0
230
1.0
  0
TEXT
  8
-11
  6
CONTINUOUS
 62
     7
  5
BE
 10
950230.111
 20
7308982.662
 30
0.0
 40
8.0
  1
R
 50
80.873797
  7
ROMANS
 72
     1
 11
950230.510696
 21
7308985.1501
 31
0.0
210
0.0
220
0.0
230
1.0
  0
TEXT
  8
-11
  6
CONTINUOUS
 62
     7
  5
BF
 10
950231.371
 20
7308990.5
 30
0.0
 40
8.0
  1
=
 50
80.873797
  7
ROMANS
 72
     1
 11
950231.899646
 21
7308993.790809
 31
0.0
210
0.0
220
0.0
230
1.0
  0
TEXT
  8
-11
  6
CONTINUOUS
 62
     7
  5
C0
 10
950232.63
 20
7308998.336
 30
0.0
 40
8.0
  1
2
 50
80.873797
  7
ROMANS
 72
     1
 11
950233.000036
 21
7309000.639467
 31
0.0
210
0.0
220
0.0
230
1.0
  0
TEXT
  8
-11
  6
CONTINUOUS
 62
     7
  5
C1
 10
950233.889
 20
7309006.173
 30
0.0
 40
8.0
  1
7
 50
80.873797
  7
ROMANS
 72
     1
 11
950234.259036
 21
7309008.476467
 31
0.0
210
0.0
220
0.0
230
1.0
  0
TEXT
  8
-11
  6
CONTINUOUS
 62
     7
  5
C2
 10
950235.203
 20
7309014.046
 30
0.0
 40
8.0
  1
9
 50
80.007122
  7
ROMANS
 72
     1
 11
950235.607836
 21
7309016.343607
 31
0.0
210
0.0
220
0.0
230
1.0
  0
TEXT
  8
-11
  6
CONTINUOUS
 62
     7
  5
C3
 10
950236.58
 20
7309021.862
 30
0.0
 40
8.0
  1
7
 50
80.007122
  7
ROMANS
 72
     1
 11
950236.984836
 21
7309024.159607
 31
0.0
210
0.0
220
0.0
230
1.0
  0
TEXT
  8
-11
  6
CONTINUOUS
 62
     7
  5
C4
 10
950237.958
 20
7309029.68
 30
0.0
 40
8.0
  1
.
 50
80.007122
  7
ROMANS
 72
     1
 11
950238.187401
 21
7309030.981944
 31
0.0
210
0.0
220
0.0
230
1.0
  0
TEXT
  8
-11
  6
CONTINUOUS
 62
     7
  5
C5
 10
950239.336
 20
7309037.496
 30
0.0
 40
8.0
  1
9
 50
80.007122
  7
ROMANS
 72
     1
 11
950239.740836
 21
7309039.793607
 31
0.0
210
0.0
220
0.0
230
1.0
  0
TEXT
  8
-11
  6
CONTINUOUS
 62
     7
  5
C6
 10
950240.712
 20
7309045.312
 30
0.0
 40
8.0
  1
4
 50
80.007122
  7
ROMANS
 72
     1
 11
950241.116836
 21
7309047.609607
 31
0.0
210
0.0
220
0.0
230
1.0
  0
TEXT
  8
-11
  6
CONTINUOUS
 62
     7
  5
C7
 10
950242.107
 20
7309053.172
 30
0.0
 40
8.0
  1
'
 50
79.140447
  7
ROMANS
 72
     1
 11
950242.35814
 21
7309054.481129
 31
0.0
210
0.0
220
0.0
230
1.0
  0
TEXT
  8
-11
  6
CONTINUOUS
 62
     7
  5
C8
 10
949385.854
 20
7304940.541
 30
0.0
 40
8.0
  1
1847.59'
 50
358.3203
  7
ROMANS
 72
     4
 11
949415.291644
 21
7304943.67947
 31
0.0
210
0.0
220
0.0
230
1.0
  0
TEXT
  8
-11
  6
CONTINUOUS
 62
     7
  5
C9
 10
948381.783
 20
7304969.985
 30
0.0
 40
8.0
  1
60'
 50
358.3203
  7
ROMANS
 72
     4
 11
948391.229238
 21
7304973.709711
 31
0.0
210
0.0
220
0.0
230
1.0
  0
LINE
  8
-1
  6
HIDDEN
 62
   253
  5
CB
 10
948447.39
 20
7304947.403
 30
0.0
 11
948614.274
 21
7310222.149
 31
0.0
  0
POLYLINE
  8
-1
  6
HIDDEN
 62
   253
  5
CC
 66
     1
 10
0.0
 20
0.0
 30
0.0
  0
VERTEX
  8
-1
  6
HIDDEN
 62
   253
  5
CD
 10
948614.274
 20
7310222.149
 30
0.0
  0
VERTEX
  8
-1
  6
HIDDEN
 62
   253
  5
CE
 10
953873.213
 20
7310078.944
 30
0.0
  0
VERTEX
  8
-1
  6
HIDDEN
 62
   253
  5
CF
 10
953708.493
 20
7304805.145
 30
0.0
  0
VERTEX
  8
-1
  6
HIDDEN
 62
   253
  5
D0
 10
948447.39
 20
7304947.403
 30
0.0
  0
SEQEND
  8
-1
  6
HIDDEN
 62
   253
  5
D1
  0
TEXT
  8
-19
  6
CONTINUOUS
 62
     1
  5
D2
 10
948640.643
 20
7310211.439
 30
0.0
 40
24.0
  1
KEUKA ST
 50
358.3203
  7
ROMANC
 72
     4
 11
948747.714869
 21
7310220.304308
 31
0.0
210
0.0
220
0.0
230
1.0
  0
TEXT
  8
-19
  6
CONTINUOUS
 62
     1
  5
D3
 10
950977.453
 20
7310142.656
 30
0.0
 40
24.0
  1
KEUKA ST
 50
358.3203
  7
ROMANC
 72
     4
 11
951084.524869
 21
7310151.521308
 31
0.0
210
0.0
220
0.0
230
1.0
  0
TEXT
  8
-19
  6
CONTINUOUS
 62
     1
  5
D4
 10
953214.589
 20
7310076.781
 30
0.0
 40
24.0
  1
KEUKA ST
 50
358.3203
  7
ROMANC
 72
     4
 11
953321.660869
 21
7310085.646308
 31
0.0
210
0.0
220
0.0
230
1.0
  0
TEXT
  8
-19
  6
CONTINUOUS
 62
     1
  5
D5
 10
948543.513
 20
7309890.394
 30
0.0
 40
24.0
  1
N AVE Q
 50
88.3203
  7
ROMANC
 72
     4
 11
948534.243302
 21
7309983.675797
 31
0.0
210
0.0
220
0.0
230
1.0
  0
TEXT
  8
-19
  6
CONTINUOUS
 62
     1
  5
D6
 10
948403.73
 20
7305142.146
 30
0.0
 40
24.0
  1
N AVE Q
 50
88.3203
  7
ROMANC
 72
     4
 11
948394.460302
 21
7305235.427797
 31
0.0
210
0.0
220
0.0
230
1.0
  0
TEXT
  8
-19
  6
CONTINUOUS
 62
     1
  5
D7
 10
948475.308
 20
7307597.768
 30
0.0
 40
24.0
  1
N AVE Q
 50
88.3203
  7
ROMANC
 72
     4
 11
948466.038302
 21
7307691.049797
 31
0.0
210
0.0
220
0.0
230
1.0
  0
TEXT
  8
-28
  6
CONTINUOUS
 62
    32
  5
D9
 10
950294.625
 20
7306059.392
 30
0.0
 40
24.0
  1
ATCHISON TOPEKA & SANTA FE RAILROAD
 50
274.0
  7
txt
 72
     4
 11
950334.481198
 21
7305661.448858
 31
0.0
210
0.0
220
0.0
230
1.0
  0
TEXT
  8
-28
  6
CONTINUOUS
 62
    32
  5
DA
 10
950231.374
 20
7309429.11
 30
0.0
 40
24.0
  1
ATCHISON TOPEKA & SANTA FE RAILROAD
 50
65.0
  7
txt
 72
     4
 11
950389.441647
 21
7309796.481582
 31
0.0
210
0.0
220
0.0
230
1.0
  0
POLYLINE
  8
-58
  6
DIVIDE
 62
   216
  5
DC
 66
     1
 10
0.0
 20
0.0
 30
0.0
  0
VERTEX
  8
-58
  6
DIVIDE
 62
   216
  5
DD
 10
948447.39
 20
7304947.403
 30
0.0
  0
VERTEX
  8
-58
  6
DIVIDE
 62
   216
  5
DE
 10
948602.158
 20
7310225.134
 30
0.0
  0
VERTEX
  8
-58
  6
DIVIDE
 62
   216
  5
DF
 10
948542.184
 20
7310226.893
 30
0.0
  0
SEQEND
  8
-58
  6
DIVIDE
 62
   216
  5
E0
  0
TEXT
  8
-10
  6
CONTINUOUS
 62
   134
  5
E2
 10
949248.083
 20
7307381.71
 30
0.0
 40
13.999
  1
UNSUBDIVIDED
 50
358.3203
  7
ROMANS
 11
949248.49334
 21
7307395.702985
 31
0.0
210
0.0
220
0.0
230
1.0
 73
     3
  0
TEXT
  8
-10
  6
CONTINUOUS
 62
   134
  5
E3
 10
951974.242
 20
7307607.867
 30
0.0
 40
13.999
  1
UNSUBDIVIDED
 50
358.3203
  7
ROMANS
 11
951974.65234
 21
7307621.859985
 31
0.0
210
0.0
220
0.0
230
1.0
 73
     3
  0
ARC
  8
-6
  6
CONTINUOUS
 62
     7
  5
E4
 10
949035.799572
 20
7305067.799881
 30
0.0
 40
1362.207797
 50
357.147892
 51
4.396492
210
0.0
220
0.0
230
1.0
  0
ARC
  8
-6
  6
CONTINUOUS
 62
     7
  5
E5
 10
949023.154167
 20
7305067.627683
 30
0.0
 40
1274.853499
 50
357.086675
 51
4.457825
210
0.0
220
0.0
230
1.0
  0
ARC
  8
-27
  6
CONTINUOUS
 62
    32
  5
E6
 10
949028.94068
 20
7305057.859265
 30
0.0
 40
1318.607478
 50
357.547128
 51
4.852481
210
0.0
220
0.0
230
1.0
  0
ARC
  8
-6
  6
CONTINUOUS
 62
     7
  5
E7
 10
956014.986372
 20
7304275.606441
 30
0.0
 40
2712.570779
 50
165.5029
 51
168.443844
210
0.0
220
0.0
230
1.0
  0
ENDSEC
  0
EOF
