  0
SECTION
  2
HEADER
  9
$ACADVER
  1
AC1009
  9
$INSBASE
 10
0.0
 20
0.0
 30
0.0
  9
$EXTMIN
 10
905393.263
 20
7279748.899
 30
0.0
  9
$EXTMAX
 10
910827.848
 20
7285215.098
 30
0.0
  9
$LIMMIN
 10
0.0
 20
0.0
  9
$LIMMAX
 10
12.0
 20
9.0
  9
$ORTHOMODE
 70
     0
  9
$REGENMODE
 70
     1
  9
$FILLMODE
 70
     1
  9
$QTEXTMODE
 70
     0
  9
$MIRRTEXT
 70
     1
  9
$DRAGMODE
 70
     2
  9
$LTSCALE
 40
1.0
  9
$OSMODE
 70
     0
  9
$ATTMODE
 70
     1
  9
$TEXTSIZE
 40
0.2
  9
$TRACEWID
 40
0.05
  9
$TEXTSTYLE
  7
STANDARD
  9
$CLAYER
  8
0
  9
$CELTYPE
  6
CONTINUOUS
  9
$CECOLOR
 62
   256
  9
$DIMSCALE
 40
1.0
  9
$DIMASZ
 40
0.18
  9
$DIMEXO
 40
0.0625
  9
$DIMDLI
 40
0.38
  9
$DIMRND
 40
0.0
  9
$DIMDLE
 40
0.0
  9
$DIMEXE
 40
0.18
  9
$DIMTP
 40
0.0
  9
$DIMTM
 40
0.0
  9
$DIMTXT
 40
0.18
  9
$DIMCEN
 40
0.09
  9
$DIMTSZ
 40
0.0
  9
$DIMTOL
 70
     0
  9
$DIMLIM
 70
     0
  9
$DIMTIH
 70
     1
  9
$DIMTOH
 70
     1
  9
$DIMSE1
 70
     0
  9
$DIMSE2
 70
     0
  9
$DIMTAD
 70
     0
  9
$DIMZIN
 70
     0
  9
$DIMBLK
  1

  9
$DIMASO
 70
     1
  9
$DIMSHO
 70
     1
  9
$DIMPOST
  1

  9
$DIMAPOST
  1

  9
$DIMALT
 70
     0
  9
$DIMALTD
 70
     2
  9
$DIMALTF
 40
25.4
  9
$DIMLFAC
 40
1.0
  9
$DIMTOFL
 70
     0
  9
$DIMTVP
 40
0.0
  9
$DIMTIX
 70
     0
  9
$DIMSOXD
 70
     0
  9
$DIMSAH
 70
     0
  9
$DIMBLK1
  1

  9
$DIMBLK2
  1

  9
$DIMSTYLE
  2
STANDARD
  9
$DIMCLRD
 70
     0
  9
$DIMCLRE
 70
     0
  9
$DIMCLRT
 70
     0
  9
$DIMTFAC
 40
1.0
  9
$DIMGAP
 40
0.09
  9
$LUNITS
 70
     2
  9
$LUPREC
 70
     4
  9
$AXISMODE
 70
     0
  9
$AXISUNIT
 10
0.0
 20
0.0
  9
$SKETCHINC
 40
0.1
  9
$FILLETRAD
 40
0.0
  9
$AUNITS
 70
     0
  9
$AUPREC
 70
     0
  9
$MENU
  1
acad
  9
$ELEVATION
 40
0.0
  9
$PELEVATION
 40
0.0
  9
$THICKNESS
 40
0.0
  9
$LIMCHECK
 70
     0
  9
$BLIPMODE
 70
     1
  9
$CHAMFERA
 40
0.0
  9
$CHAMFERB
 40
0.0
  9
$SKPOLY
 70
     0
  9
$TDCREATE
 40
2453013.904131944
  9
$TDUPDATE
 40
2453013.904131944
  9
$TDINDWG
 40
0.0000000000
  9
$TDUSRTIMER
 40
0.0000000000
  9
$USRTIMER
 70
     1
  9
$ANGBASE
 50
0.0
  9
$ANGDIR
 70
     0
  9
$PDMODE
 70
     0
  9
$PDSIZE
 40
0.0
  9
$PLINEWID
 40
0.0
  9
$COORDS
 70
     0
  9
$SPLFRAME
 70
     0
  9
$SPLINETYPE
 70
     6
  9
$SPLINESEGS
 70
    10
  9
$ATTDIA
 70
     0
  9
$ATTREQ
 70
     1
  9
$HANDLING
 70
     1
  9
$HANDSEED
  5
41C
  9
$SURFTAB1
 70
     6
  9
$SURFTAB2
 70
     6
  9
$SURFTYPE
 70
     6
  9
$SURFU
 70
     6
  9
$SURFV
 70
     6
  9
$UCSNAME
  2

  9
$UCSORG
 10
0.0
 20
0.0
 30
0.0
  9
$UCSXDIR
 10
1.0
 20
0.0
 30
0.0
  9
$UCSYDIR
 10
0.0
 20
1.0
 30
0.0
  9
$PUCSNAME
  2

  9
$PUCSORG
 10
0.0
 20
0.0
 30
0.0
  9
$PUCSXDIR
 10
1.0
 20
0.0
 30
0.0
  9
$PUCSYDIR
 10
0.0
 20
1.0
 30
0.0
  9
$USERI1
 70
     0
  9
$USERI2
 70
     0
  9
$USERI3
 70
     0
  9
$USERI4
 70
     0
  9
$USERI5
 70
     0
  9
$USERR1
 40
0.0
  9
$USERR2
 40
0.0
  9
$USERR3
 40
0.0
  9
$USERR4
 40
0.0
  9
$USERR5
 40
0.0
  9
$WORLDVIEW
 70
     1
  9
$SHADEDGE
 70
     3
  9
$SHADEDIF
 70
    70
  9
$TILEMODE
 70
     1
  9
$MAXACTVP
 70
    16
  9
$PINSBASE
 10
0.0
 20
0.0
 30
0.0
  9
$PLIMCHECK
 70
     0
  9
$PEXTMIN
 10
-1.000000E+20
 20
-1.000000E+20
 30
-1.000000E+20
  9
$PEXTMAX
 10
-1.000000E+20
 20
-1.000000E+20
 30
-1.000000E+20
  9
$PLIMMIN
 10
0.0
 20
0.0
  9
$PLIMMAX
 10
12.0
 20
9.0
  9
$UNITMODE
 70
     0
  9
$VISRETAIN
 70
     0
  9
$PLINEGEN
 70
     1
  9
$PSLTSCALE
 70
     0
  9
$TREEDEPTH
 70
  3020
  9
$DWGCODEPAGE
  3
ansi_1252
  0
ENDSEC
  0
SECTION
  2
TABLES
  0
TABLE
  2
VPORT
 70
     1
  0
VPORT
  2
*ACTIVE
 70
     0
 10
0.0
 20
0.0
 11
1.0
 21
1.0
 12
0.0
 22
0.0
 13
0.0
 23
0.0
 14
0.0
 24
0.0
 15
0.0
 25
0.0
 16
0.0
 26
0.0
 36
1.0
 17
908084.219
 27
7282598.250712
 37
0.0
 40
5847.021424
 41
1.534884
 42
50.0
 43
0.004
 44
0.0
 50
0.0
 51
0.0
 71
     0
 72
   100
 73
     1
 74
     0
 75
     0
 76
     0
 77
     0
 78
     0
  0
ENDTAB
  0
TABLE
  2
LTYPE
 70
     7
  0
LTYPE
  2
CONTINUOUS
 70
     0
  3
Solid line
 72
    65
 73
     0
 40
0.0
  0
LTYPE
  2
DOT
 70
    64
  3
. . . . . . . . . . . . . . . . . . . . . . . . . . . . . . . . .
 72
    65
 73
     2
 40
0.25
 49
0.0
 49
-0.25
  0
LTYPE
  2
HIDDEN
 70
    64
  3
__ __ __ __ __ __ __ __ __ __ __ __ __ __ __ __ __ __ __ __ __ 
 72
    65
 73
     2
 40
0.375
 49
0.25
 49
-0.125
  0
LTYPE
  2
DASHED
 70
    64
  3
__ __ __ __ __ __ __ __ __ __ __ __ __ __ __ __ __ __ __ __ __
 72
    65
 73
     2
 40
0.75
 49
0.5
 49
-0.25
  0
LTYPE
  2
DASHDOT
 70
    64
  3
__ . __ . __ . __ . __ . __ . __ . __ . __ . __ . __ . __ . _
 72
    65
 73
     4
 40
1.0
 49
0.5
 49
-0.25
 49
0.0
 49
-0.25
  0
LTYPE
  2
DIVIDE
 70
    64
  3
____ . . ____ . . ____ . . ____ . . ____ . . ____ . . ____ . .
 72
    65
 73
     6
 40
1.25
 49
0.5
 49
-0.25
 49
0.0
 49
-0.25
 49
0.0
 49
-0.25
  0
LTYPE
  2
CENTER
 70
    64
  3
____ _ ____ _ ____ _ ____ _ ____ _ ____ _ ____ _ ____ _ ____ _
 72
    65
 73
     4
 40
2.0
 49
1.25
 49
-0.25
 49
0.25
 49
-0.25
  0
ENDTAB
  0
TABLE
  2
LAYER
 70
    14
  0
LAYER
  2
0
 70
     0
 62
     7
  6
CONTINUOUS
  0
LAYER
  2
CONSTRUCTION_CLASS
 70
     1
 62
     7
  6
CONTINUOUS
  0
LAYER
  2
PATTERN_CLASS
 70
     0
 62
     7
  6
CONTINUOUS
  0
LAYER
  2
6
 70
    64
 62
     7
  6
CONTINUOUS
  0
LAYER
  2
7
 70
    64
 62
     7
  6
CONTINUOUS
  0
LAYER
  2
10
 70
    64
 62
     7
  6
CONTINUOUS
  0
LAYER
  2
11
 70
    64
 62
     7
  6
CONTINUOUS
  0
LAYER
  2
DEFPOINTS
 70
    64
 62
     7
  6
CONTINUOUS
  0
LAYER
  2
19
 70
    64
 62
     7
  6
CONTINUOUS
  0
LAYER
  2
15
 70
    64
 62
     7
  6
CONTINUOUS
  0
LAYER
  2
21
 70
    64
 62
     7
  6
CONTINUOUS
  0
LAYER
  2
22
 70
    64
 62
     7
  6
CONTINUOUS
  0
LAYER
  2
1
 70
    64
 62
     7
  6
CONTINUOUS
  0
LAYER
  2
58
 70
    64
 62
     7
  6
CONTINUOUS
  0
ENDTAB
  0
TABLE
  2
STYLE
 70
     4
  0
STYLE
  2
STANDARD
 70
     0
 40
0.0
 41
1.0
 50
0.0
 71
     0
 42
0.0
  3
txt
  4

  0
STYLE
  2
ROMANS
 70
     0
 40
0.2
 41
1.0
 50
0.0
 71
     0
 42
0.2
  3
ROMANS
  4

  0
STYLE
  2
ROMANC
 70
     0
 40
0.2
 41
1.0
 50
0.0
 71
     0
 42
0.2
  3
ROMANC
  4

  0
STYLE
  2
MONOTXT
 70
     0
 40
0.2
 41
1.0
 50
0.0
 71
     0
 42
0.2
  3
MONOTXT
  4

  0
ENDTAB
  0
TABLE
  2
VIEW
 70
     0
  0
ENDTAB
  0
TABLE
  2
UCS
 70
     0
  0
ENDTAB
  0
TABLE
  2
APPID
 70
     1
  0
APPID
  2
ACAD
 70
     0
  0
ENDTAB
  0
TABLE
  2
DIMSTYLE
 70
     2
  0
DIMSTYLE
  2
STANDARD
 70
     0
  3

  4

  5

  6

  7

 40
1.0
 41
0.18
 42
0.0625
 43
0.38
 44
0.18
 45
0.0
 46
0.0
 47
0.0
 48
0.0
140
0.18
141
0.09
142
0.0
143
25.4
144
1.0
145
0.0
146
1.0
147
0.09
 71
     0
 72
     0
 73
     1
 74
     1
 75
     0
 76
     0
 77
     0
 78
     0
170
     0
171
     2
172
     0
173
     0
174
     0
175
     0
176
     0
177
     0
178
     0
  0
DIMSTYLE
  2
MSADIM
 70
     0
  3

  4

  5

  6

  7

 40
1.0
 41
10.0
 42
5.0
 43
0.0
 44
5.0
 45
0.0
 46
0.0
 47
0.0
 48
0.0
140
10.0
141
5.0
142
0.0
143
25.4
144
1.0
145
5.0
146
1.0
147
5.0
 71
     0
 72
     0
 73
     1
 74
     1
 75
     1
 76
     1
 77
     0
 78
     2
170
     0
171
     2
172
     0
173
     0
174
     0
175
     0
176
     0
177
     0
178
     0
  0
ENDTAB
  0
ENDSEC
  0
SECTION
  2
BLOCKS
  0
BLOCK
  8
11
  6
CONTINUOUS
 62
     7
  5
255
  2
*D0
 70
     1
 10
0.0
 20
0.0
 30
0.0
  3
*N0
  0
POLYLINE
  8
11
  6
CONTINUOUS
 62
     7
  5
256
 66
     1
 10
0.0
 20
0.0
 30
0.0
  0
VERTEX
  8
11
  6
CONTINUOUS
 62
     7
  5
257
 10
910593.881
 20
7279807.748
 30
0.0
  0
VERTEX
  8
11
  6
CONTINUOUS
 62
     7
  5
258
 10
910595.184
 20
7279799.605
 30
0.0
  0
VERTEX
  8
11
  6
CONTINUOUS
 62
     7
  5
259
 10
910590.202
 20
7279806.176
 30
0.0
  0
SEQEND
  8
11
  6
CONTINUOUS
 62
     7
  5
25A
  0
LINE
  8
11
  6
CONTINUOUS
 62
     7
  5
25B
 10
910595.184
 20
7279799.605
 30
0.0
 11
910580.138
 21
7279834.827
 31
0.0
  0
LINE
  8
11
  6
CONTINUOUS
 62
     7
  5
25C
 10
910580.138
 20
7279834.827
 30
0.0
 11
910564.138
 21
7279834.827
 31
0.0
  0
TEXT
  8
11
  6
CONTINUOUS
 62
     7
  5
25D
 10
910530.836
 20
7279830.827
 30
0.0
 40
8.0
  1
R=30
  7
ROMANS
 11
910530.836
 21
7279834.827
 31
0.0
210
0.0
220
0.0
230
1.0
 73
     2
  0
ENDBLK
  8
11
  6
CONTINUOUS
 62
     7
  5
25E
  0
BLOCK
  8
11
  6
CONTINUOUS
 62
     7
  5
309
  2
*D1
 70
     1
 10
0.0
 20
0.0
 30
0.0
  3
*N1
  0
POLYLINE
  8
11
  6
CONTINUOUS
 62
     7
  5
30A
 66
     1
 10
0.0
 20
0.0
 30
0.0
  0
VERTEX
  8
11
  6
CONTINUOUS
 62
     7
  5
30B
 10
907358.645
 20
7283118.482
 30
0.0
  0
VERTEX
  8
11
  6
CONTINUOUS
 62
     7
  5
30C
 10
907364.212
 20
7283124.566
 30
0.0
  0
VERTEX
  8
11
  6
CONTINUOUS
 62
     7
  5
30D
 10
907362.163
 20
7283116.578
 30
0.0
  0
SEQEND
  8
11
  6
CONTINUOUS
 62
     7
  5
30E
  0
LINE
  8
11
  6
CONTINUOUS
 62
     7
  5
30F
 10
907364.212
 20
7283124.566
 30
0.0
 11
907345.471
 21
7283089.938
 31
0.0
  0
LINE
  8
11
  6
CONTINUOUS
 62
     7
  5
310
 10
907345.471
 20
7283089.938
 30
0.0
 11
907329.471
 21
7283089.938
 31
0.0
  0
TEXT
  8
11
  6
CONTINUOUS
 62
     7
  5
311
 10
907282.805
 20
7283085.938
 30
0.0
 40
8.0
  1
CH=40'
  7
ROMANS
 11
907282.805
 21
7283089.938
 31
0.0
210
0.0
220
0.0
230
1.0
 73
     2
  0
ENDBLK
  8
11
  6
CONTINUOUS
 62
     7
  5
312
  0
BLOCK
  8
11
  6
CONTINUOUS
 62
     7
  5
33C
  2
*D2
 70
     1
 10
0.0
 20
0.0
 30
0.0
  3
*N2
  0
POLYLINE
  8
11
  6
CONTINUOUS
 62
     7
  5
33D
 66
     1
 10
0.0
 20
0.0
 30
0.0
  0
VERTEX
  8
11
  6
CONTINUOUS
 62
     7
  5
33E
 10
906257.859
 20
7283154.197
 30
0.0
  0
VERTEX
  8
11
  6
CONTINUOUS
 62
     7
  5
33F
 10
906254.87
 20
7283161.882
 30
0.0
  0
VERTEX
  8
11
  6
CONTINUOUS
 62
     7
  5
340
 10
906261.124
 20
7283156.508
 30
0.0
  0
SEQEND
  8
11
  6
CONTINUOUS
 62
     7
  5
341
  0
LINE
  8
11
  6
CONTINUOUS
 62
     7
  5
342
 10
906254.87
 20
7283161.882
 30
0.0
 11
906288.546
 21
7283114.304
 31
0.0
  0
LINE
  8
11
  6
CONTINUOUS
 62
     7
  5
343
 10
906288.546
 20
7283114.304
 30
0.0
 11
906304.546
 21
7283114.304
 31
0.0
  0
TEXT
  8
11
  6
CONTINUOUS
 62
     7
  5
344
 10
906308.546
 20
7283110.304
 30
0.0
 40
8.0
  1
CH=35'
  7
ROMANS
 11
906308.546
 21
7283114.304
 31
0.0
210
0.0
220
0.0
230
1.0
 73
     2
  0
ENDBLK
  8
11
  6
CONTINUOUS
 62
     7
  5
345
  0
BLOCK
  8
11
  6
CONTINUOUS
 62
     7
  5
35B
  2
*D3
 70
     1
 10
0.0
 20
0.0
 30
0.0
  3
*N3
  0
POLYLINE
  8
11
  6
CONTINUOUS
 62
     7
  5
35C
 66
     1
 10
0.0
 20
0.0
 30
0.0
  0
VERTEX
  8
11
  6
CONTINUOUS
 62
     7
  5
35D
 10
905628.764
 20
7285110.485
 30
0.0
  0
VERTEX
  8
11
  6
CONTINUOUS
 62
     7
  5
35E
 10
905625.578
 20
7285118.091
 30
0.0
  0
VERTEX
  8
11
  6
CONTINUOUS
 62
     7
  5
35F
 10
905631.969
 20
7285112.88
 30
0.0
  0
SEQEND
  8
11
  6
CONTINUOUS
 62
     7
  5
360
  0
LINE
  8
11
  6
CONTINUOUS
 62
     7
  5
361
 10
905625.578
 20
7285118.091
 30
0.0
 11
905650.128
 21
7285085.236
 31
0.0
  0
LINE
  8
11
  6
CONTINUOUS
 62
     7
  5
362
 10
905650.128
 20
7285085.236
 30
0.0
 11
905666.128
 21
7285085.236
 31
0.0
  0
TEXT
  8
11
  6
CONTINUOUS
 62
     7
  5
363
 10
905670.128
 20
7285081.236
 30
0.0
 40
8.0
  1
R=30
  7
ROMANS
 11
905670.128
 21
7285085.236
 31
0.0
210
0.0
220
0.0
230
1.0
 73
     2
  0
ENDBLK
  8
11
  6
CONTINUOUS
 62
     7
  5
364
  0
BLOCK
  8
11
  6
CONTINUOUS
 62
     7
  5
383
  2
*D4
 70
     1
 10
0.0
 20
0.0
 30
0.0
  3
*N4
  0
TEXT
  8
11
  6
CONTINUOUS
 62
     7
  5
384
 10
905787.252
 20
7283244.413
 30
0.0
 40
10.0
  1
N80%%d17'55"E
 50
9.701403
  7
MONOTXT
 72
     1
 11
905832.164816
 21
7283262.236301
 31
0.0
210
0.0
220
0.0
230
1.0
 73
     3
  0
TEXT
  8
11
  6
CONTINUOUS
 62
     7
  5
385
 10
905805.49
 20
7283267.821
 30
0.0
 40
10.0
  1
607.09
 50
9.701403
  7
MONOTXT
 72
     1
 11
905830.47945
 21
7283272.093155
 31
0.0
210
0.0
220
0.0
230
1.0
  0
ENDBLK
  8
11
  6
CONTINUOUS
 62
     7
  5
386
  0
BLOCK
  8
11
  6
CONTINUOUS
 62
     7
  5
389
  2
*D5
 70
     1
 10
0.0
 20
0.0
 30
0.0
  3
*N5
  0
TEXT
  8
11
  6
CONTINUOUS
 62
     7
  5
38A
 10
905885.34
 20
7282976.224
 30
0.0
 40
10.0
  1
N50%%d14'19"E
 50
39.761439
  7
MONOTXT
 72
     1
 11
905913.589253
 21
7283012.736935
 31
0.0
210
0.0
220
0.0
230
1.0
 73
     3
  0
TEXT
  8
11
  6
CONTINUOUS
 62
     7
  5
38B
 10
905888.793
 20
7283005.115
 30
0.0
 40
10.0
  1
838.14
 50
39.761439
  7
MONOTXT
 72
     1
 11
905907.192942
 21
7283020.424286
 31
0.0
210
0.0
220
0.0
230
1.0
  0
ENDBLK
  8
11
  6
CONTINUOUS
 62
     7
  5
38C
  0
BLOCK
  8
11
  6
CONTINUOUS
 62
     7
  5
38F
  2
*D6
 70
     1
 10
0.0
 20
0.0
 30
0.0
  3
*N6
  0
TEXT
  8
11
  6
CONTINUOUS
 62
     7
  5
390
 10
906106.348
 20
7282819.398
 30
0.0
 40
10.0
  1
N23%%d44'31"E
 50
66.257981
  7
MONOTXT
 72
     1
 11
906116.418183
 21
7282867.130247
 31
0.0
210
0.0
220
0.0
230
1.0
 73
     3
  0
TEXT
  8
11
  6
CONTINUOUS
 62
     7
  5
391
 10
906096.962
 20
7282847.733
 30
0.0
 40
10.0
  1
694.03
 50
66.257981
  7
MONOTXT
 72
     1
 11
906107.264623
 21
7282871.156341
 31
0.0
210
0.0
220
0.0
230
1.0
  0
ENDBLK
  8
11
  6
CONTINUOUS
 62
     7
  5
392
  0
BLOCK
  8
11
  6
CONTINUOUS
 62
     7
  5
395
  2
*D7
 70
     1
 10
0.0
 20
0.0
 30
0.0
  3
*N7
  0
TEXT
  8
11
  6
CONTINUOUS
 62
     7
  5
396
 10
907743.861
 20
7283205.962
 30
0.0
 40
10.0
  1
S78%%d05'01"E
 50
348.083717
  7
MONOTXT
 72
     1
 11
907792.141946
 21
7283205.99352
 31
0.0
210
0.0
220
0.0
230
1.0
 73
     3
  0
TEXT
  8
11
  6
CONTINUOUS
 62
     7
  5
397
 10
907773.136
 20
7283220.225
 30
0.0
 40
10.0
  1
641.15
 50
348.083717
  7
MONOTXT
 72
     1
 11
907794.20595
 21
7283215.778611
 31
0.0
210
0.0
220
0.0
230
1.0
  0
ENDBLK
  8
11
  6
CONTINUOUS
 62
     7
  5
398
  0
BLOCK
  8
11
  6
CONTINUOUS
 62
     7
  5
39B
  2
*D8
 70
     1
 10
0.0
 20
0.0
 30
0.0
  3
*N8
  0
TEXT
  8
11
  6
CONTINUOUS
 62
     7
  5
39C
 10
907672.895
 20
7282985.875
 30
0.0
 40
10.0
  1
N48%%d53'47"W
 50
318.896369
  7
MONOTXT
 72
     1
 11
907718.354719
 21
7282959.483904
 31
0.0
210
0.0
220
0.0
230
1.0
 73
     3
  0
TEXT
  8
11
  6
CONTINUOUS
 62
     7
  5
39D
 10
907705.973
 20
7282983.558
 30
0.0
 40
10.0
  1
836.96
 50
318.896369
  7
MONOTXT
 72
     1
 11
907724.928593
 21
7282967.019867
 31
0.0
210
0.0
220
0.0
230
1.0
  0
ENDBLK
  8
11
  6
CONTINUOUS
 62
     7
  5
39E
  0
BLOCK
  8
11
  6
CONTINUOUS
 62
     7
  5
3A1
  2
*D9
 70
     1
 10
0.0
 20
0.0
 30
0.0
  3
*N9
  0
TEXT
  8
11
  6
CONTINUOUS
 62
     7
  5
3A2
 10
907474.973
 20
7282863.075
 30
0.0
 40
10.0
  1
N22%%d50'46"W
 50
292.846117
  7
MONOTXT
 72
     1
 11
907504.010606
 21
7282819.908713
 31
0.0
210
0.0
220
0.0
230
1.0
 73
     3
  0
TEXT
  8
11
  6
CONTINUOUS
 62
     7
  5
3A3
 10
907503.933
 20
7282845.849
 30
0.0
 40
10.0
  1
710.43
 50
292.846117
  7
MONOTXT
 72
     1
 11
907513.22633
 21
7282823.790757
 31
0.0
210
0.0
220
0.0
230
1.0
  0
ENDBLK
  8
11
  6
CONTINUOUS
 62
     7
  5
3A4
  0
ENDSEC
  0
SECTION
  2
ENTITIES
  0
LINE
  8
6
  6
CONTINUOUS
 62
     7
  5
29
 10
909883.68
 20
7281955.054
 30
0.0
 11
909417.83
 21
7281969.655
 31
0.0
  0
LINE
  8
7
  6
CONTINUOUS
 62
     7
  5
2B
 10
910136.831
 20
7282211.248
 30
0.0
 11
910142.027
 21
7282377.016
 31
0.0
  0
LINE
  8
7
  6
CONTINUOUS
 62
     7
  5
2C
 10
909951.922
 20
7282217.044
 30
0.0
 11
909957.118
 21
7282382.812
 31
0.0
  0
LINE
  8
7
  6
CONTINUOUS
 62
     7
  5
2D
 10
910321.741
 20
7282205.452
 30
0.0
 11
910326.937
 21
7282371.221
 31
0.0
  0
LINE
  8
7
  6
CONTINUOUS
 62
     7
  5
2E
 10
910506.724
 20
7282202.038
 30
0.0
 11
910511.846
 21
7282365.425
 31
0.0
  0
LINE
  8
6
  6
CONTINUOUS
 62
     7
  5
2F
 10
910692.67
 20
7282229.343
 30
0.0
 11
910696.755
 21
7282359.629
 31
0.0
  0
LINE
  8
7
  6
CONTINUOUS
 62
     7
  5
30
 10
909776.609
 20
7282222.539
 30
0.0
 11
909781.804
 21
7282388.307
 31
0.0
  0
LINE
  8
7
  6
CONTINUOUS
 62
     7
  5
31
 10
909601.294
 20
7282228.035
 30
0.0
 11
909606.489
 21
7282393.802
 31
0.0
  0
LINE
  8
6
  6
CONTINUOUS
 62
     7
  5
32
 10
909425.98
 20
7282233.529
 30
0.0
 11
909431.176
 21
7282399.297
 31
0.0
  0
LINE
  8
6
  6
CONTINUOUS
 62
     7
  5
33
 10
909431.176
 20
7282399.297
 30
0.0
 11
910696.755
 21
7282359.629
 31
0.0
  0
LINE
  8
6
  6
CONTINUOUS
 62
     7
  5
34
 10
909425.98
 20
7282233.529
 30
0.0
 11
910441.682
 21
7282201.692
 31
0.0
  0
LINE
  8
6
  6
CONTINUOUS
 62
     7
  5
35
 10
909431.803
 20
7282419.287
 30
0.0
 11
910712.374
 21
7282379.149
 31
0.0
  0
LINE
  8
6
  6
CONTINUOUS
 62
     7
  5
36
 10
910613.142
 20
7280011.246
 30
0.0
 11
910628.122
 21
7280195.118
 31
0.0
  0
LINE
  8
7
  6
CONTINUOUS
 62
     7
  5
37
 10
909356.357
 20
7279982.095
 30
0.0
 11
909821.383
 21
7279967.519
 31
0.0
  0
LINE
  8
7
  6
CONTINUOUS
 62
     7
  5
38
 10
909361.038
 20
7280133.453
 30
0.0
 11
909826.127
 21
7280118.875
 31
0.0
  0
LINE
  8
7
  6
CONTINUOUS
 62
     7
  5
39
 10
909365.719
 20
7280284.81
 30
0.0
 11
909830.872
 21
7280270.23
 31
0.0
  0
LINE
  8
7
  6
CONTINUOUS
 62
     7
  5
3A
 10
909370.4
 20
7280436.168
 30
0.0
 11
909835.616
 21
7280421.586
 31
0.0
  0
LINE
  8
7
  6
CONTINUOUS
 62
     7
  5
3B
 10
909375.08
 20
7280587.525
 30
0.0
 11
909840.361
 21
7280572.941
 31
0.0
  0
LINE
  8
7
  6
CONTINUOUS
 62
     7
  5
3C
 10
909379.761
 20
7280738.883
 30
0.0
 11
909845.103
 21
7280724.297
 31
0.0
  0
LINE
  8
7
  6
CONTINUOUS
 62
     7
  5
3D
 10
909384.441
 20
7280890.241
 30
0.0
 11
909849.847
 21
7280875.654
 31
0.0
  0
LINE
  8
7
  6
CONTINUOUS
 62
     7
  5
3E
 10
909389.122
 20
7281041.599
 30
0.0
 11
909854.592
 21
7281027.008
 31
0.0
  0
LINE
  8
7
  6
CONTINUOUS
 62
     7
  5
3F
 10
909393.803
 20
7281192.956
 30
0.0
 11
909859.336
 21
7281178.365
 31
0.0
  0
LINE
  8
7
  6
CONTINUOUS
 62
     7
  5
40
 10
909398.482
 20
7281344.315
 30
0.0
 11
909864.079
 21
7281329.719
 31
0.0
  0
LINE
  8
7
  6
CONTINUOUS
 62
     7
  5
41
 10
909403.164
 20
7281495.671
 30
0.0
 11
909868.824
 21
7281481.076
 31
0.0
  0
LINE
  8
7
  6
CONTINUOUS
 62
     7
  5
42
 10
909407.844
 20
7281647.03
 30
0.0
 11
909873.568
 21
7281632.432
 31
0.0
  0
LINE
  8
7
  6
CONTINUOUS
 62
     7
  5
43
 10
909412.526
 20
7281798.386
 30
0.0
 11
909878.313
 21
7281783.787
 31
0.0
  0
LINE
  8
7
  6
CONTINUOUS
 62
     7
  5
44
 10
909418.032
 20
7281949.719
 30
0.0
 11
909883.057
 21
7281935.143
 31
0.0
  0
LINE
  8
7
  6
CONTINUOUS
 62
     7
  5
45
 10
910067.782
 20
7280008.33
 30
0.0
 11
910061.516
 21
7279808.408
 31
0.0
  0
LINE
  8
7
  6
CONTINUOUS
 62
     7
  5
46
 10
910252.691
 20
7280002.533
 30
0.0
 11
910246.426
 21
7279802.612
 31
0.0
  0
LINE
  8
7
  6
CONTINUOUS
 62
     7
  5
47
 10
910437.601
 20
7279996.738
 30
0.0
 11
910431.335
 21
7279796.816
 31
0.0
  0
LINE
  8
7
  6
CONTINUOUS
 62
     7
  5
48
 10
910074.675
 20
7280228.221
 30
0.0
 11
910068.409
 21
7280028.319
 31
0.0
  0
LINE
  8
7
  6
CONTINUOUS
 62
     7
  5
49
 10
910259.584
 20
7280222.426
 30
0.0
 11
910253.318
 21
7280022.523
 31
0.0
  0
LINE
  8
7
  6
CONTINUOUS
 62
     7
  5
4A
 10
910444.494
 20
7280216.631
 30
0.0
 11
910438.227
 21
7280016.729
 31
0.0
  0
LINE
  8
7
  6
CONTINUOUS
 62
     7
  5
4B
 10
910082.82
 20
7280488.093
 30
0.0
 11
910076.555
 21
7280288.192
 31
0.0
  0
LINE
  8
7
  6
CONTINUOUS
 62
     7
  5
4C
 10
910267.729
 20
7280482.298
 30
0.0
 11
910261.463
 21
7280282.396
 31
0.0
  0
LINE
  8
7
  6
CONTINUOUS
 62
     7
  5
4D
 10
910452.638
 20
7280476.502
 30
0.0
 11
910446.373
 21
7280276.6
 31
0.0
  0
LINE
  8
7
  6
CONTINUOUS
 62
     7
  5
4E
 10
910089.713
 20
7280707.986
 30
0.0
 11
910083.447
 21
7280508.084
 31
0.0
  0
LINE
  8
7
  6
CONTINUOUS
 62
     7
  5
4F
 10
910274.622
 20
7280702.191
 30
0.0
 11
910268.356
 21
7280502.289
 31
0.0
  0
LINE
  8
7
  6
CONTINUOUS
 62
     7
  5
50
 10
910459.531
 20
7280696.395
 30
0.0
 11
910453.265
 21
7280496.493
 31
0.0
  0
LINE
  8
7
  6
CONTINUOUS
 62
     7
  5
51
 10
910097.858
 20
7280967.858
 30
0.0
 11
910091.593
 21
7280767.957
 31
0.0
  0
LINE
  8
7
  6
CONTINUOUS
 62
     7
  5
52
 10
910282.767
 20
7280962.062
 30
0.0
 11
910276.501
 21
7280762.16
 31
0.0
  0
LINE
  8
7
  6
CONTINUOUS
 62
     7
  5
53
 10
910467.676
 20
7280956.266
 30
0.0
 11
910461.41
 21
7280756.365
 31
0.0
  0
LINE
  8
7
  6
CONTINUOUS
 62
     7
  5
54
 10
910104.751
 20
7281187.751
 30
0.0
 11
910098.485
 21
7280987.849
 31
0.0
  0
LINE
  8
7
  6
CONTINUOUS
 62
     7
  5
55
 10
910289.66
 20
7281181.955
 30
0.0
 11
910283.394
 21
7280982.053
 31
0.0
  0
LINE
  8
7
  6
CONTINUOUS
 62
     7
  5
56
 10
910474.569
 20
7281176.159
 30
0.0
 11
910468.303
 21
7280976.257
 31
0.0
  0
LINE
  8
7
  6
CONTINUOUS
 62
     7
  5
57
 10
910112.896
 20
7281447.622
 30
0.0
 11
910106.631
 21
7281247.722
 31
0.0
  0
LINE
  8
7
  6
CONTINUOUS
 62
     7
  5
58
 10
910297.805
 20
7281441.827
 30
0.0
 11
910291.539
 21
7281241.925
 31
0.0
  0
LINE
  8
7
  6
CONTINUOUS
 62
     7
  5
59
 10
910482.714
 20
7281436.032
 30
0.0
 11
910476.448
 21
7281236.13
 31
0.0
  0
LINE
  8
7
  6
CONTINUOUS
 62
     7
  5
5A
 10
910119.789
 20
7281667.515
 30
0.0
 11
910113.523
 21
7281467.613
 31
0.0
  0
LINE
  8
7
  6
CONTINUOUS
 62
     7
  5
5B
 10
910304.698
 20
7281661.72
 30
0.0
 11
910298.432
 21
7281461.817
 31
0.0
  0
LINE
  8
7
  6
CONTINUOUS
 62
     7
  5
5C
 10
910489.607
 20
7281655.923
 30
0.0
 11
910483.341
 21
7281456.022
 31
0.0
  0
LINE
  8
7
  6
CONTINUOUS
 62
     7
  5
5D
 10
910127.934
 20
7281927.387
 30
0.0
 11
910121.668
 21
7281727.486
 31
0.0
  0
LINE
  8
7
  6
CONTINUOUS
 62
     7
  5
5E
 10
910312.843
 20
7281921.592
 30
0.0
 11
910306.578
 21
7281721.69
 31
0.0
  0
LINE
  8
7
  6
CONTINUOUS
 62
     7
  5
5F
 10
910497.752
 20
7281915.796
 30
0.0
 11
910491.486
 21
7281715.894
 31
0.0
  0
LINE
  8
7
  6
CONTINUOUS
 62
     7
  5
60
 10
910134.827
 20
7282147.28
 30
0.0
 11
910128.561
 21
7281947.377
 31
0.0
  0
LINE
  8
7
  6
CONTINUOUS
 62
     7
  5
61
 10
910319.736
 20
7282141.484
 30
0.0
 11
910313.47
 21
7281941.582
 31
0.0
  0
LINE
  8
7
  6
CONTINUOUS
 62
     7
  5
62
 10
910504.57
 20
7282133.305
 30
0.0
 11
910498.379
 21
7281935.786
 31
0.0
  0
LINE
  8
6
  6
CONTINUOUS
 62
     7
  5
63
 10
910683.288
 20
7281929.99
 30
0.0
 11
910688.442
 21
7282094.408
 31
0.0
  0
LINE
  8
6
  6
CONTINUOUS
 62
     7
  5
64
 10
910659.397
 20
7282125.334
 30
0.0
 11
910589.431
 21
7282127.527
 31
0.0
  0
ARC
  8
6
  6
CONTINUOUS
 62
     7
  5
65
 10
910658.456487
 20
7282095.348874
 30
0.0
 40
30.0
 50
358.2047
 51
88.2047
210
0.0
220
0.0
230
1.0
  0
LINE
  8
6
  6
CONTINUOUS
 62
     7
  5
66
 10
910439.677
 20
7282137.724
 30
0.0
 11
910589.431
 21
7282127.527
 31
0.0
  0
ARC
  8
6
  6
CONTINUOUS
 62
     7
  5
67
 10
910662.685871
 20
7282230.282607
 30
0.0
 40
30.0
 50
268.2047
 51
358.2047
210
0.0
220
0.0
230
1.0
  0
LINE
  8
6
  6
CONTINUOUS
 62
     7
  5
68
 10
910661.746
 20
7282200.298
 30
0.0
 11
910591.781
 21
7282202.491
 31
0.0
  0
LINE
  8
6
  6
CONTINUOUS
 62
     7
  5
69
 10
910441.682
 20
7282201.692
 30
0.0
 11
910591.781
 21
7282202.491
 31
0.0
  0
LINE
  8
7
  6
CONTINUOUS
 62
     7
  5
6A
 10
909728.397
 20
7281959.919
 30
0.0
 11
909734.663
 21
7282159.822
 31
0.0
  0
LINE
  8
7
  6
CONTINUOUS
 62
     7
  5
6B
 10
909573.113
 20
7281964.787
 30
0.0
 11
909579.378
 21
7282164.689
 31
0.0
  0
TEXT
  8
10
  6
CONTINUOUS
 62
   134
  5
6E
 10
909566.331
 20
7279889.976
 30
0.0
 40
13.999
  1
 1
 50
358.2047
  7
ROMANS
 72
     4
 11
909575.877721
 21
7279896.680204
 31
0.0
210
0.0
220
0.0
230
1.0
  0
TEXT
  8
10
  6
CONTINUOUS
 62
   134
  5
6F
 10
909569.485
 20
7280046.955
 30
0.0
 40
13.999
  1
 2
 50
358.2047
  7
ROMANS
 72
     4
 11
909580.780862
 21
7280053.604379
 31
0.0
210
0.0
220
0.0
230
1.0
  0
TEXT
  8
10
  6
CONTINUOUS
 62
   134
  5
70
 10
909574.053
 20
7280192.669
 30
0.0
 40
13.999
  1
 3
 50
358.2047
  7
ROMANS
 72
     4
 11
909585.348862
 21
7280199.318379
 31
0.0
210
0.0
220
0.0
230
1.0
  0
TEXT
  8
10
  6
CONTINUOUS
 62
   134
  5
71
 10
909578.622
 20
7280338.383
 30
0.0
 40
13.999
  1
 4
 50
358.2047
  7
ROMANS
 72
     4
 11
909589.917862
 21
7280345.032379
 31
0.0
210
0.0
220
0.0
230
1.0
  0
TEXT
  8
10
  6
CONTINUOUS
 62
   134
  5
72
 10
909584.242
 20
7280517.724
 30
0.0
 40
13.999
  1
 5
 50
358.2047
  7
ROMANS
 72
     4
 11
909595.555853
 21
7280524.372815
 31
0.0
210
0.0
220
0.0
230
1.0
  0
TEXT
  8
10
  6
CONTINUOUS
 62
   134
  5
73
 10
909588.127
 20
7280652.24
 30
0.0
 40
13.999
  1
 6
 50
358.2047
  7
ROMANS
 72
     4
 11
909599.750701
 21
7280658.879103
 31
0.0
210
0.0
220
0.0
230
1.0
  0
TEXT
  8
10
  6
CONTINUOUS
 62
   134
  5
74
 10
909593.025
 20
7280797.945
 30
0.0
 40
13.999
  1
 7
 50
358.2047
  7
ROMANS
 72
     4
 11
909604.320862
 21
7280804.594379
 31
0.0
210
0.0
220
0.0
230
1.0
  0
TEXT
  8
10
  6
CONTINUOUS
 62
   134
  5
75
 10
909597.593
 20
7280943.659
 30
0.0
 40
13.999
  1
 8
 50
358.2047
  7
ROMANS
 72
     4
 11
909608.888862
 21
7280950.308379
 31
0.0
210
0.0
220
0.0
230
1.0
  0
TEXT
  8
10
  6
CONTINUOUS
 62
   134
  5
76
 10
909602.863
 20
7281111.792
 30
0.0
 40
13.999
  1
 9
 50
358.2047
  7
ROMANS
 72
     4
 11
909614.158862
 21
7281118.441379
 31
0.0
210
0.0
220
0.0
230
1.0
  0
TEXT
  8
10
  6
CONTINUOUS
 62
   134
  5
77
 10
909606.528
 20
7281246.315
 30
0.0
 40
13.999
  1
10
 50
358.2047
  7
ROMANS
 72
     4
 11
909618.380588
 21
7281252.946928
 31
0.0
210
0.0
220
0.0
230
1.0
  0
TEXT
  8
10
  6
CONTINUOUS
 62
   134
  5
78
 10
909614.111
 20
7281414.373
 30
0.0
 40
13.999
  1
11
 50
358.2047
  7
ROMANS
 72
     4
 11
909623.657721
 21
7281421.077204
 31
0.0
210
0.0
220
0.0
230
1.0
  0
TEXT
  8
10
  6
CONTINUOUS
 62
   134
  5
79
 10
909616.564
 20
7281548.936
 30
0.0
 40
13.999
  1
12
 50
358.2047
  7
ROMANS
 72
     4
 11
909627.859862
 21
7281555.585379
 31
0.0
210
0.0
220
0.0
230
1.0
  0
TEXT
  8
10
  6
CONTINUOUS
 62
   134
  5
7A
 10
909621.483
 20
7281705.86
 30
0.0
 40
13.999
  1
13
 50
358.2047
  7
ROMANS
 72
     4
 11
909632.778862
 21
7281712.509379
 31
0.0
210
0.0
220
0.0
230
1.0
  0
TEXT
  8
10
  6
CONTINUOUS
 62
   134
  5
7B
 10
909626.401
 20
7281862.781
 30
0.0
 40
13.999
  1
14
 50
358.2047
  7
ROMANS
 72
     4
 11
909637.696862
 21
7281869.430379
 31
0.0
210
0.0
220
0.0
230
1.0
  0
TEXT
  8
10
  6
CONTINUOUS
 62
   134
  5
7C
 10
909800.741
 20
7282059.275
 30
0.0
 40
13.999
  1
15
 50
358.2047
  7
ROMANS
 72
     4
 11
909812.054853
 21
7282065.923815
 31
0.0
210
0.0
220
0.0
230
1.0
  0
TEXT
  8
10
  6
CONTINUOUS
 62
   134
  5
7D
 10
909643.596
 20
7282064.2
 30
0.0
 40
13.999
  1
16
 50
358.2047
  7
ROMANS
 72
     4
 11
909655.219701
 21
7282070.839103
 31
0.0
210
0.0
220
0.0
230
1.0
  0
TEXT
  8
10
  6
CONTINUOUS
 62
   134
  5
7E
 10
909487.112
 20
7282069.105
 30
0.0
 40
13.999
  1
17
 50
358.2047
  7
ROMANS
 72
     4
 11
909498.407862
 21
7282075.754379
 31
0.0
210
0.0
220
0.0
230
1.0
  0
TEXT
  8
10
  6
CONTINUOUS
 62
   134
  5
7F
 10
909494.842
 20
7282315.699
 30
0.0
 40
13.999
  1
18
 50
358.2047
  7
ROMANS
 72
     4
 11
909506.137862
 21
7282322.348379
 31
0.0
210
0.0
220
0.0
230
1.0
  0
TEXT
  8
10
  6
CONTINUOUS
 62
   134
  5
80
 10
909685.259
 20
7282309.731
 30
0.0
 40
13.999
  1
19
 50
358.2047
  7
ROMANS
 72
     4
 11
909696.554862
 21
7282316.380379
 31
0.0
210
0.0
220
0.0
230
1.0
  0
TEXT
  8
10
  6
CONTINUOUS
 62
   134
  5
81
 10
909852.723
 20
7282304.481
 30
0.0
 40
13.999
  1
20
 50
358.2047
  7
ROMANS
 72
     4
 11
909864.575588
 21
7282311.112928
 31
0.0
210
0.0
220
0.0
230
1.0
  0
TEXT
  8
10
  6
CONTINUOUS
 62
   134
  5
82
 10
910045.456
 20
7282298.44
 30
0.0
 40
13.999
  1
21
 50
358.2047
  7
ROMANS
 72
     4
 11
910055.002721
 21
7282305.144204
 31
0.0
210
0.0
220
0.0
230
1.0
  0
TEXT
  8
10
  6
CONTINUOUS
 62
   134
  5
83
 10
910211.707
 20
7282293.23
 30
0.0
 40
13.999
  1
22
 50
358.2047
  7
ROMANS
 72
     4
 11
910223.002862
 21
7282299.879379
 31
0.0
210
0.0
220
0.0
230
1.0
  0
TEXT
  8
10
  6
CONTINUOUS
 62
   134
  5
84
 10
910402.125
 20
7282287.261
 30
0.0
 40
13.999
  1
23
 50
358.2047
  7
ROMANS
 72
     4
 11
910413.420862
 21
7282293.910379
 31
0.0
210
0.0
220
0.0
230
1.0
  0
TEXT
  8
10
  6
CONTINUOUS
 62
   134
  5
85
 10
910592.543
 20
7282281.292
 30
0.0
 40
13.999
  1
24
 50
358.2047
  7
ROMANS
 72
     4
 11
910603.838862
 21
7282287.941379
 31
0.0
210
0.0
220
0.0
230
1.0
  0
TEXT
  8
10
  6
CONTINUOUS
 62
   134
  5
86
 10
910584.462
 20
7282023.489
 30
0.0
 40
13.999
  1
25
 50
358.2047
  7
ROMANS
 72
     4
 11
910595.775853
 21
7282030.137815
 31
0.0
210
0.0
220
0.0
230
1.0
  0
TEXT
  8
10
  6
CONTINUOUS
 62
   134
  5
87
 10
910393.713
 20
7282029.468
 30
0.0
 40
13.999
  1
26
 50
358.2047
  7
ROMANS
 72
     4
 11
910405.336701
 21
7282036.107103
 31
0.0
210
0.0
220
0.0
230
1.0
  0
TEXT
  8
10
  6
CONTINUOUS
 62
   134
  5
88
 10
910214.828
 20
7282035.075
 30
0.0
 40
13.999
  1
27
 50
358.2047
  7
ROMANS
 72
     4
 11
910226.123862
 21
7282041.724379
 31
0.0
210
0.0
220
0.0
230
1.0
  0
TEXT
  8
10
  6
CONTINUOUS
 62
   134
  5
89
 10
910035.612
 20
7282040.693
 30
0.0
 40
13.999
  1
28
 50
358.2047
  7
ROMANS
 72
     4
 11
910046.907862
 21
7282047.342379
 31
0.0
210
0.0
220
0.0
230
1.0
  0
TEXT
  8
10
  6
CONTINUOUS
 62
   134
  5
8A
 10
910028.936
 20
7281827.724
 30
0.0
 40
13.999
  1
29
 50
358.2047
  7
ROMANS
 72
     4
 11
910040.231862
 21
7281834.373379
 31
0.0
210
0.0
220
0.0
230
1.0
  0
TEXT
  8
10
  6
CONTINUOUS
 62
   134
  5
8B
 10
910207.602
 20
7281822.125
 30
0.0
 40
13.999
  1
30
 50
358.2047
  7
ROMANS
 72
     4
 11
910219.454588
 21
7281828.756928
 31
0.0
210
0.0
220
0.0
230
1.0
  0
TEXT
  8
10
  6
CONTINUOUS
 62
   134
  5
8C
 10
910389.132
 20
7281816.435
 30
0.0
 40
13.999
  1
31
 50
358.2047
  7
ROMANS
 72
     4
 11
910398.678721
 21
7281823.139204
 31
0.0
210
0.0
220
0.0
230
1.0
  0
TEXT
  8
10
  6
CONTINUOUS
 62
   134
  5
8D
 10
910566.586
 20
7281810.872
 30
0.0
 40
13.999
  1
32
 50
358.2047
  7
ROMANS
 72
     4
 11
910577.881862
 21
7281817.521379
 31
0.0
210
0.0
220
0.0
230
1.0
  0
TEXT
  8
10
  6
CONTINUOUS
 62
   134
  5
8E
 10
910558.154
 20
7281541.862
 30
0.0
 40
13.999
  1
33
 50
358.2047
  7
ROMANS
 72
     4
 11
910569.449862
 21
7281548.511379
 31
0.0
210
0.0
220
0.0
230
1.0
  0
TEXT
  8
10
  6
CONTINUOUS
 62
   134
  5
8F
 10
910378.936
 20
7281547.48
 30
0.0
 40
13.999
  1
34
 50
358.2047
  7
ROMANS
 72
     4
 11
910390.231862
 21
7281554.129379
 31
0.0
210
0.0
220
0.0
230
1.0
  0
TEXT
  8
10
  6
CONTINUOUS
 62
   134
  5
90
 10
910199.721
 20
7281553.097
 30
0.0
 40
13.999
  1
35
 50
358.2047
  7
ROMANS
 72
     4
 11
910211.034853
 21
7281559.745815
 31
0.0
210
0.0
220
0.0
230
1.0
  0
TEXT
  8
10
  6
CONTINUOUS
 62
   134
  5
91
 10
910020.173
 20
7281558.724
 30
0.0
 40
13.999
  1
36
 50
358.2047
  7
ROMANS
 72
     4
 11
910031.796701
 21
7281565.363103
 31
0.0
210
0.0
220
0.0
230
1.0
  0
TEXT
  8
10
  6
CONTINUOUS
 62
   134
  5
92
 10
910013.478
 20
7281334.538
 30
0.0
 40
13.999
  1
37
 50
358.2047
  7
ROMANS
 72
     4
 11
910024.773862
 21
7281341.187379
 31
0.0
210
0.0
220
0.0
230
1.0
  0
TEXT
  8
10
  6
CONTINUOUS
 62
   134
  5
93
 10
910192.695
 20
7281328.921
 30
0.0
 40
13.999
  1
38
 50
358.2047
  7
ROMANS
 72
     4
 11
910203.990862
 21
7281335.570379
 31
0.0
210
0.0
220
0.0
230
1.0
  0
TEXT
  8
10
  6
CONTINUOUS
 62
   134
  5
94
 10
910371.911
 20
7281323.303
 30
0.0
 40
13.999
  1
39
 50
358.2047
  7
ROMANS
 72
     4
 11
910383.206862
 21
7281329.952379
 31
0.0
210
0.0
220
0.0
230
1.0
  0
TEXT
  8
10
  6
CONTINUOUS
 62
   134
  5
95
 10
910550.576
 20
7281317.703
 30
0.0
 40
13.999
  1
40
 50
358.2047
  7
ROMANS
 72
     4
 11
910562.428588
 21
7281324.334928
 31
0.0
210
0.0
220
0.0
230
1.0
  0
TEXT
  8
10
  6
CONTINUOUS
 62
   134
  5
96
 10
910545.513
 20
7281082.245
 30
0.0
 40
13.999
  1
41
 50
358.2047
  7
ROMANS
 72
     4
 11
910555.059721
 21
7281088.949204
 31
0.0
210
0.0
220
0.0
230
1.0
  0
TEXT
  8
10
  6
CONTINUOUS
 62
   134
  5
97
 10
910364.533
 20
7281087.919
 30
0.0
 40
13.999
  1
42
 50
358.2047
  7
ROMANS
 72
     4
 11
910375.828862
 21
7281094.568379
 31
0.0
210
0.0
220
0.0
230
1.0
  0
TEXT
  8
10
  6
CONTINUOUS
 62
   134
  5
98
 10
910185.316
 20
7281093.535
 30
0.0
 40
13.999
  1
43
 50
358.2047
  7
ROMANS
 72
     4
 11
910196.611862
 21
7281100.184379
 31
0.0
210
0.0
220
0.0
230
1.0
  0
TEXT
  8
10
  6
CONTINUOUS
 62
   134
  5
99
 10
910006.099
 20
7281099.153
 30
0.0
 40
13.999
  1
44
 50
358.2047
  7
ROMANS
 72
     4
 11
910017.394862
 21
7281105.802379
 31
0.0
210
0.0
220
0.0
230
1.0
  0
TEXT
  8
10
  6
CONTINUOUS
 62
   134
  5
9A
 10
909998.722
 20
7280863.767
 30
0.0
 40
13.999
  1
45
 50
358.2047
  7
ROMANS
 72
     4
 11
910010.035853
 21
7280870.415815
 31
0.0
210
0.0
220
0.0
230
1.0
  0
TEXT
  8
10
  6
CONTINUOUS
 62
   134
  5
9B
 10
910177.608
 20
7280858.161
 30
0.0
 40
13.999
  1
46
 50
358.2047
  7
ROMANS
 72
     4
 11
910189.231701
 21
7280864.800103
 31
0.0
210
0.0
220
0.0
230
1.0
  0
TEXT
  8
10
  6
CONTINUOUS
 62
   134
  5
9C
 10
910357.154
 20
7280852.532
 30
0.0
 40
13.999
  1
47
 50
358.2047
  7
ROMANS
 72
     4
 11
910368.449862
 21
7280859.181379
 31
0.0
210
0.0
220
0.0
230
1.0
  0
TEXT
  8
10
  6
CONTINUOUS
 62
   134
  5
9D
 10
910536.371
 20
7280846.914
 30
0.0
 40
13.999
  1
48
 50
358.2047
  7
ROMANS
 72
     4
 11
910547.666862
 21
7280853.563379
 31
0.0
210
0.0
220
0.0
230
1.0
  0
TEXT
  8
10
  6
CONTINUOUS
 62
   134
  5
9E
 10
910528.642
 20
7280600.322
 30
0.0
 40
13.999
  1
49
 50
358.2047
  7
ROMANS
 72
     4
 11
910539.937862
 21
7280606.971379
 31
0.0
210
0.0
220
0.0
230
1.0
  0
TEXT
  8
10
  6
CONTINUOUS
 62
   134
  5
9F
 10
910337.675
 20
7280606.308
 30
0.0
 40
13.999
  1
50
 50
358.2047
  7
ROMANS
 72
     4
 11
910349.527588
 21
7280612.939928
 31
0.0
210
0.0
220
0.0
230
1.0
  0
TEXT
  8
10
  6
CONTINUOUS
 62
   134
  5
A0
 10
910171.972
 20
7280611.501
 30
0.0
 40
13.999
  1
51
 50
358.2047
  7
ROMANS
 72
     4
 11
910181.518721
 21
7280618.205204
 31
0.0
210
0.0
220
0.0
230
1.0
  0
TEXT
  8
10
  6
CONTINUOUS
 62
   134
  5
A1
 10
909990.992
 20
7280617.174
 30
0.0
 40
13.999
  1
52
 50
358.2047
  7
ROMANS
 72
     4
 11
910002.287862
 21
7280623.823379
 31
0.0
210
0.0
220
0.0
230
1.0
  0
TEXT
  8
10
  6
CONTINUOUS
 62
   134
  5
A2
 10
909983.263
 20
7280370.579
 30
0.0
 40
13.999
  1
53
 50
358.2047
  7
ROMANS
 72
     4
 11
909994.558862
 21
7280377.228379
 31
0.0
210
0.0
220
0.0
230
1.0
  0
TEXT
  8
10
  6
CONTINUOUS
 62
   134
  5
A3
 10
910162.48
 20
7280364.962
 30
0.0
 40
13.999
  1
54
 50
358.2047
  7
ROMANS
 72
     4
 11
910173.775862
 21
7280371.611379
 31
0.0
210
0.0
220
0.0
230
1.0
  0
TEXT
  8
10
  6
CONTINUOUS
 62
   134
  5
A4
 10
910330.495
 20
7280359.696
 30
0.0
 40
13.999
  1
55
 50
358.2047
  7
ROMANS
 72
     4
 11
910341.808853
 21
7280366.344815
 31
0.0
210
0.0
220
0.0
230
1.0
  0
TEXT
  8
10
  6
CONTINUOUS
 62
   134
  5
A5
 10
910520.582
 20
7280353.737
 30
0.0
 40
13.999
  1
56
 50
358.2047
  7
ROMANS
 72
     4
 11
910532.205701
 21
7280360.376103
 31
0.0
210
0.0
220
0.0
230
1.0
  0
TEXT
  8
10
  6
CONTINUOUS
 62
   134
  5
A6
 10
910513.183
 20
7280107.133
 30
0.0
 40
13.999
  1
57
 50
358.2047
  7
ROMANS
 72
     4
 11
910524.478862
 21
7280113.782379
 31
0.0
210
0.0
220
0.0
230
1.0
  0
TEXT
  8
10
  6
CONTINUOUS
 62
   134
  5
A7
 10
910322.766
 20
7280113.102
 30
0.0
 40
13.999
  1
58
 50
358.2047
  7
ROMANS
 72
     4
 11
910334.061862
 21
7280119.751379
 31
0.0
210
0.0
220
0.0
230
1.0
  0
TEXT
  8
10
  6
CONTINUOUS
 62
   134
  5
A8
 10
910154.751
 20
7280118.368
 30
0.0
 40
13.999
  1
59
 50
358.2047
  7
ROMANS
 72
     4
 11
910166.046862
 21
7280125.017379
 31
0.0
210
0.0
220
0.0
230
1.0
  0
TEXT
  8
10
  6
CONTINUOUS
 62
   134
  5
A9
 10
909974.983
 20
7280124.002
 30
0.0
 40
13.999
  1
60
 50
358.2047
  7
ROMANS
 72
     4
 11
909986.835588
 21
7280130.633928
 31
0.0
210
0.0
220
0.0
230
1.0
  0
TEXT
  8
10
  6
CONTINUOUS
 62
   134
  5
AA
 10
909969.918
 20
7279888.545
 30
0.0
 40
13.999
  1
61
 50
358.2047
  7
ROMANS
 72
     4
 11
909979.464721
 21
7279895.249204
 31
0.0
210
0.0
220
0.0
230
1.0
  0
TEXT
  8
10
  6
CONTINUOUS
 62
   134
  5
AB
 10
910147.373
 20
7279882.984
 30
0.0
 40
13.999
  1
62
 50
358.2047
  7
ROMANS
 72
     4
 11
910158.668862
 21
7279889.633379
 31
0.0
210
0.0
220
0.0
230
1.0
  0
TEXT
  8
10
  6
CONTINUOUS
 62
   134
  5
AC
 10
910315.388
 20
7279877.718
 30
0.0
 40
13.999
  1
63
 50
358.2047
  7
ROMANS
 72
     4
 11
910326.683862
 21
7279884.367379
 31
0.0
210
0.0
220
0.0
230
1.0
  0
TEXT
  8
10
  6
CONTINUOUS
 62
   134
  5
AD
 10
910505.806
 20
7279871.75
 30
0.0
 40
13.999
  1
64
 50
358.2047
  7
ROMANS
 72
     4
 11
910517.101862
 21
7279878.399379
 31
0.0
210
0.0
220
0.0
230
1.0
  0
LINE
  8
6
  6
CONTINUOUS
 62
     7
  5
AE
 10
905605.129
 20
7285105.195
 30
0.0
 11
905598.33
 21
7284897.306
 31
0.0
  0
POLYLINE
  8
6
  6
CONTINUOUS
 62
     7
  5
AF
 66
     1
 10
0.0
 20
0.0
 30
0.0
  0
VERTEX
  8
6
  6
CONTINUOUS
 62
     7
  5
B0
 10
905511.498
 20
7282548.389
 30
0.0
  0
VERTEX
  8
6
  6
CONTINUOUS
 62
     7
  5
B1
 10
905575.838
 20
7284515.527
 30
0.0
  0
VERTEX
  8
6
  6
CONTINUOUS
 62
     7
  5
B2
 10
905581.794
 20
7284697.639
 30
0.0
  0
VERTEX
  8
6
  6
CONTINUOUS
 62
     7
  5
B3
 10
905598.33
 20
7284897.306
 30
0.0
  0
SEQEND
  8
6
  6
CONTINUOUS
 62
     7
  5
B4
  0
LINE
  8
7
  6
CONTINUOUS
 62
     7
  5
B5
 10
905565.704
 20
7284205.693
 30
0.0
 11
906161.285
 21
7284186.214
 31
0.0
  0
LINE
  8
7
  6
CONTINUOUS
 62
     7
  5
B6
 10
905575.838
 20
7284515.527
 30
0.0
 11
906171.779
 21
7284496.036
 31
0.0
  0
LINE
  8
7
  6
CONTINUOUS
 62
     7
  5
B7
 10
906181.913
 20
7284805.871
 30
0.0
 11
905591.998
 21
7284825.165
 31
0.0
  0
LINE
  8
6
  6
CONTINUOUS
 62
     7
  5
B8
 10
906161.285
 20
7284186.214
 30
0.0
 11
906181.913
 21
7284805.871
 31
0.0
  0
ARC
  8
6
  6
CONTINUOUS
 62
     7
  5
B9
 10
907576.820083
 20
7284759.436152
 30
0.0
 40
1395.68
 50
171.88905
 51
178.093431
210
0.0
220
0.0
230
1.0
  0
ARC
  8
6
  6
CONTINUOUS
 62
     7
  5
BA
 10
904872.782173
 20
7285144.805068
 30
0.0
 40
1335.68
 50
351.88905
 51
358.098539
210
0.0
220
0.0
230
1.0
  0
LINE
  8
6
  6
CONTINUOUS
 62
     7
  5
BB
 10
905636.094
 20
7285134.198
 30
0.0
 11
906193.225
 21
7285115.976
 31
0.0
  0
ARC
  8
6
  6
CONTINUOUS
 62
     7
  5
BC
 10
905635.113182
 20
7285104.214098
 30
0.0
 40
30.0
 50
88.1267
 51
178.1267
210
0.0
220
0.0
230
1.0
  0
ARC
  8
6
  6
CONTINUOUS
 62
     7
  5
BD
 10
906192.734968
 20
7285100.984035
 30
0.0
 40
15.0
 50
358.098539
 51
88.1267
210
0.0
220
0.0
230
1.0
  0
ARC
  8
6
  6
CONTINUOUS
 62
     7
  5
BE
 10
904872.782173
 20
7285144.805068
 30
0.0
 40
1395.68
 50
351.88905
 51
358.100336
210
0.0
220
0.0
230
1.0
  0
ARC
  8
6
  6
CONTINUOUS
 62
     7
  5
BF
 10
907576.820083
 20
7284759.436152
 30
0.0
 40
1335.68
 50
171.88905
 51
178.093431
210
0.0
220
0.0
230
1.0
  0
LINE
  8
7
  6
CONTINUOUS
 62
     7
  5
C0
 10
906241.646
 20
7284796.722
 30
0.0
 11
907480.983
 21
7284756.188
 31
0.0
  0
LINE
  8
7
  6
CONTINUOUS
 62
     7
  5
C1
 10
906231.283
 20
7284479.892
 30
0.0
 11
907470.621
 21
7284439.358
 31
0.0
  0
LINE
  8
7
  6
CONTINUOUS
 62
     7
  5
C2
 10
906220.92
 20
7284163.062
 30
0.0
 11
907460.258
 21
7284122.526
 31
0.0
  0
LINE
  8
7
  6
CONTINUOUS
 62
     7
  5
C3
 10
906210.558
 20
7283846.231
 30
0.0
 11
907449.895
 21
7283805.696
 31
0.0
  0
LINE
  8
6
  6
CONTINUOUS
 62
     7
  5
C4
 10
906210.558
 20
7283846.231
 30
0.0
 11
906241.879
 21
7284803.874
 31
0.0
  0
LINE
  8
6
  6
CONTINUOUS
 62
     7
  5
C5
 10
907449.895
 20
7283805.696
 30
0.0
 11
907490.871
 21
7285058.526
 31
0.0
  0
LINE
  8
6
  6
CONTINUOUS
 62
     7
  5
C6
 10
906283.177
 20
7285113.033
 30
0.0
 11
907476.37
 21
7285074.008
 31
0.0
  0
ARC
  8
6
  6
CONTINUOUS
 62
     7
  5
C7
 10
906282.686878
 20
7285098.041986
 30
0.0
 40
15.0
 50
88.1267
 51
178.100336
210
0.0
220
0.0
230
1.0
  0
ARC
  8
6
  6
CONTINUOUS
 62
     7
  5
C8
 10
907475.879476
 20
7285059.016345
 30
0.0
 40
15.0
 50
358.1267
 51
88.1267
210
0.0
220
0.0
230
1.0
  0
LINE
  8
7
  6
CONTINUOUS
 62
     7
  5
C9
 10
906830.226
 20
7283825.963
 30
0.0
 11
906871.693
 21
7285093.785
 31
0.0
  0
LINE
  8
6
  6
CONTINUOUS
 62
     7
  5
CA
 10
907492.548
 20
7283274.327
 30
0.0
 11
907550.839
 21
7285056.564
 31
0.0
  0
LINE
  8
6
  6
CONTINUOUS
 62
     7
  5
CB
 10
907566.321
 20
7285071.066
 30
0.0
 11
908196.025
 21
7285050.471
 31
0.0
  0
LINE
  8
7
  6
CONTINUOUS
 62
     7
  5
CC
 10
907541.196
 20
7284761.722
 30
0.0
 11
908183.667
 21
7284740.71
 31
0.0
  0
LINE
  8
7
  6
CONTINUOUS
 62
     7
  5
CD
 10
907531.062
 20
7284451.888
 30
0.0
 11
908171.308
 21
7284430.947
 31
0.0
  0
LINE
  8
7
  6
CONTINUOUS
 62
     7
  5
CE
 10
907520.928
 20
7284142.053
 30
0.0
 11
908158.949
 21
7284121.186
 31
0.0
  0
LINE
  8
7
  6
CONTINUOUS
 62
     7
  5
CF
 10
907510.795
 20
7283832.22
 30
0.0
 11
908146.591
 21
7283811.425
 31
0.0
  0
LINE
  8
7
  6
CONTINUOUS
 62
     7
  5
D0
 10
907500.661
 20
7283522.385
 30
0.0
 11
908134.233
 21
7283501.662
 31
0.0
  0
LINE
  8
7
  6
CONTINUOUS
 62
     7
  5
D1
 10
907492.548
 20
7283274.327
 30
0.0
 11
908119.881
 21
7283141.941
 31
0.0
  0
LINE
  8
7
  6
CONTINUOUS
 62
     7
  5
D2
 10
906830.226
 20
7283825.963
 30
0.0
 11
906809.959
 21
7283206.295
 31
0.0
  0
LINE
  8
7
  6
CONTINUOUS
 62
     7
  5
D3
 10
907140.061
 20
7283815.829
 30
0.0
 11
907119.794
 21
7283196.161
 31
0.0
  0
LINE
  8
6
  6
CONTINUOUS
 62
     7
  5
D4
 10
906280.242
 20
7283223.62
 30
0.0
 11
907339.676
 21
7283188.969
 31
0.0
  0
LINE
  8
6
  6
CONTINUOUS
 62
     7
  5
D5
 10
907449.895
 20
7283805.696
 30
0.0
 11
907432.57
 21
7283275.979
 31
0.0
  0
ARC
  8
6
  6
CONTINUOUS
 62
     7
  5
D6
 10
907342.617964
 20
7283278.92123
 30
0.0
 40
90.0
 50
268.1267
 51
358.1267
210
0.0
220
0.0
230
1.0
  0
ARC
  8
6
  6
CONTINUOUS
 62
     7
  5
D7
 10
907342.617964
 20
7283278.92123
 30
0.0
 40
150.0
 50
268.1267
 51
358.1267
210
0.0
220
0.0
230
1.0
  0
LINE
  8
7
  6
CONTINUOUS
 62
     7
  5
D8
 10
906674.799
 20
7283150.683
 30
0.0
 11
906653.878
 21
7282511.026
 31
0.0
  0
LINE
  8
7
  6
CONTINUOUS
 62
     7
  5
D9
 10
906964.644
 20
7283141.204
 30
0.0
 11
906943.723
 21
7282501.545
 31
0.0
  0
LINE
  8
7
  6
CONTINUOUS
 62
     7
  5
DA
 10
907254.49
 20
7283131.724
 30
0.0
 11
907233.567
 21
7282492.065
 31
0.0
  0
LINE
  8
6
  6
CONTINUOUS
 62
     7
  5
DB
 10
906278.281
 20
7283163.652
 30
0.0
 11
907337.714
 21
7283129.001
 31
0.0
  0
POLYLINE
  8
6
  6
CONTINUOUS
 62
     7
  5
DC
 66
     1
 10
0.0
 20
0.0
 30
0.0
  0
VERTEX
  8
6
  6
CONTINUOUS
 62
     7
  5
DD
 10
905456.528
 20
7282550.187
 30
0.0
  0
VERTEX
  8
6
  6
CONTINUOUS
 62
     7
  5
DE
 10
907233.567
 20
7282492.065
 30
0.0
  0
VERTEX
  8
6
  6
CONTINUOUS
 62
     7
  5
DF
 10
908092.832
 20
7282463.962
 30
0.0
  0
SEQEND
  8
6
  6
CONTINUOUS
 62
     7
  5
E0
  0
LINE
  8
7
  6
CONTINUOUS
 62
     7
  5
E1
 10
907653.344
 20
7282478.336
 30
0.0
 11
907377.514
 21
7283133.034
 31
0.0
  0
LINE
  8
7
  6
CONTINUOUS
 62
     7
  5
E2
 10
908099.596
 20
7282633.499
 30
0.0
 11
907468.927
 21
7283183.737
 31
0.0
  0
LINE
  8
6
  6
CONTINUOUS
 62
     7
  5
E3
 10
908196.025
 20
7285050.471
 30
0.0
 11
908092.832
 21
7282463.962
 31
0.0
  0
LINE
  8
7
  6
CONTINUOUS
 62
     7
  5
E4
 10
906520.393
 20
7283836.098
 30
0.0
 11
906500.124
 21
7283216.428
 31
0.0
  0
LINE
  8
6
  6
CONTINUOUS
 62
     7
  5
E5
 10
906210.558
 20
7283846.231
 30
0.0
 11
906193.233
 21
7283316.514
 31
0.0
  0
ARC
  8
6
  6
CONTINUOUS
 62
     7
  5
E6
 10
906283.184473
 20
7283313.572024
 30
0.0
 40
90.0
 50
178.1267
 51
268.1267
210
0.0
220
0.0
230
1.0
  0
LINE
  8
7
  6
CONTINUOUS
 62
     7
  5
E7
 10
905555.57
 20
7283895.859
 30
0.0
 11
906151.151
 21
7283876.379
 31
0.0
  0
LINE
  8
7
  6
CONTINUOUS
 62
     7
  5
E8
 10
905545.436
 20
7283586.024
 30
0.0
 11
906141.018
 21
7283566.544
 31
0.0
  0
LINE
  8
7
  6
CONTINUOUS
 62
     7
  5
E9
 10
905533.341
 20
7283216.222
 30
0.0
 11
906131.75
 21
7283318.525
 31
0.0
  0
LINE
  8
6
  6
CONTINUOUS
 62
     7
  5
EA
 10
906181.913
 20
7284805.871
 30
0.0
 11
906133.265
 21
7283318.476
 31
0.0
  0
ARC
  8
6
  6
CONTINUOUS
 62
     7
  5
EB
 10
906283.184473
 20
7283313.572024
 30
0.0
 40
150.0
 50
178.1267
 51
268.1267
210
0.0
220
0.0
230
1.0
  0
LINE
  8
7
  6
CONTINUOUS
 62
     7
  5
EC
 10
905516.082
 20
7282688.504
 30
0.0
 11
906160.372
 21
7283224.572
 31
0.0
  0
LINE
  8
7
  6
CONTINUOUS
 62
     7
  5
ED
 10
906374.959
 20
7283160.49
 30
0.0
 11
906354.038
 21
7282520.832
 31
0.0
  0
LINE
  8
7
  6
CONTINUOUS
 62
     7
  5
EE
 10
905964.246
 20
7282533.581
 30
0.0
 11
906243.676
 21
7283168.874
 31
0.0
  0
TEXT
  8
10
  6
CONTINUOUS
 62
   134
  5
EF
 10
905876.09
 20
7284970.627
 30
0.0
 40
13.999
  1
 1
 50
358.1267
  7
ROMANS
 72
     4
 11
905885.645839
 21
7284977.318201
 31
0.0
210
0.0
220
0.0
230
1.0
  0
TEXT
  8
10
  6
CONTINUOUS
 62
   134
  5
F0
 10
905863.816
 20
7284649.302
 30
0.0
 40
13.999
  1
 2
 50
358.1267
  7
ROMANS
 72
     4
 11
905875.120903
 21
7284655.935995
 31
0.0
210
0.0
220
0.0
230
1.0
  0
TEXT
  8
10
  6
CONTINUOUS
 62
   134
  5
F1
 10
905853.305
 20
7284327.918
 30
0.0
 40
13.999
  1
 3
 50
358.1267
  7
ROMANS
 72
     4
 11
905864.609903
 21
7284334.551995
 31
0.0
210
0.0
220
0.0
230
1.0
  0
TEXT
  8
10
  6
CONTINUOUS
 62
   134
  5
F2
 10
905843.929
 20
7284041.278
 30
0.0
 40
13.999
  1
 4
 50
358.1267
  7
ROMANS
 72
     4
 11
905855.233903
 21
7284047.911995
 31
0.0
210
0.0
220
0.0
230
1.0
  0
TEXT
  8
10
  6
CONTINUOUS
 62
   134
  5
F3
 10
905833.417
 20
7283719.894
 30
0.0
 40
13.999
  1
 5
 50
358.1267
  7
ROMANS
 72
     4
 11
905844.739894
 21
7283726.527406
 31
0.0
210
0.0
220
0.0
230
1.0
  0
TEXT
  8
10
  6
CONTINUOUS
 62
   134
  5
F4
 10
905823.996
 20
7283441.952
 30
0.0
 40
13.999
  1
 6
 50
358.1267
  7
ROMANS
 72
     4
 11
905835.628728
 21
7283448.575273
 31
0.0
210
0.0
220
0.0
230
1.0
  0
TEXT
  8
10
  6
CONTINUOUS
 62
   134
  5
F5
 10
905813.531
 20
7283111.87
 30
0.0
 40
13.999
  1
 7
 50
358.1267
  7
ROMANS
 72
     4
 11
905824.835903
 21
7283118.503995
 31
0.0
210
0.0
220
0.0
230
1.0
  0
TEXT
  8
10
  6
CONTINUOUS
 62
   134
  5
F6
 10
905985.709
 20
7282928.047
 30
0.0
 40
13.999
  1
 8
 50
358.1267
  7
ROMANS
 72
     4
 11
905997.013903
 21
7282934.680995
 31
0.0
210
0.0
220
0.0
230
1.0
  0
TEXT
  8
10
  6
CONTINUOUS
 62
   134
  5
F7
 10
906211.833
 20
7282803.202
 30
0.0
 40
13.999
  1
 9
 50
358.1267
  7
ROMANS
 72
     4
 11
906223.137903
 21
7282809.835995
 31
0.0
210
0.0
220
0.0
230
1.0
  0
TEXT
  8
10
  6
CONTINUOUS
 62
   134
  5
F8
 10
906489.043
 20
7282794.135
 30
0.0
 40
13.999
  1
10
 50
358.1267
  7
ROMANS
 72
     4
 11
906500.904606
 21
7282800.750787
 31
0.0
210
0.0
220
0.0
230
1.0
  0
TEXT
  8
10
  6
CONTINUOUS
 62
   134
  5
F9
 10
906795.158
 20
7282784.123
 30
0.0
 40
13.999
  1
11
 50
358.1267
  7
ROMANS
 72
     4
 11
906804.713839
 21
7282790.814201
 31
0.0
210
0.0
220
0.0
230
1.0
  0
TEXT
  8
10
  6
CONTINUOUS
 62
   134
  5
FA
 10
907079.835
 20
7282774.812
 30
0.0
 40
13.999
  1
12
 50
358.1267
  7
ROMANS
 72
     4
 11
907091.139903
 21
7282781.445995
 31
0.0
210
0.0
220
0.0
230
1.0
  0
TEXT
  8
10
  6
CONTINUOUS
 62
   134
  5
FB
 10
907340.235
 20
7282766.295
 30
0.0
 40
13.999
  1
13
 50
358.1267
  7
ROMANS
 72
     4
 11
907351.539903
 21
7282772.928995
 31
0.0
210
0.0
220
0.0
230
1.0
  0
TEXT
  8
10
  6
CONTINUOUS
 62
   134
  5
FC
 10
907621.69
 20
7282870.129
 30
0.0
 40
13.999
  1
14
 50
358.1267
  7
ROMANS
 72
     4
 11
907632.994903
 21
7282876.762995
 31
0.0
210
0.0
220
0.0
230
1.0
  0
TEXT
  8
10
  6
CONTINUOUS
 62
   134
  5
FD
 10
907775.216
 20
7283047.709
 30
0.0
 40
13.999
  1
15
 50
358.1267
  7
ROMANS
 72
     4
 11
907786.538894
 21
7283054.342406
 31
0.0
210
0.0
220
0.0
230
1.0
  0
TEXT
  8
10
  6
CONTINUOUS
 62
   134
  5
FE
 10
907785.68
 20
7283377.791
 30
0.0
 40
13.999
  1
16
 50
358.1267
  7
ROMANS
 72
     4
 11
907797.312728
 21
7283384.414273
 31
0.0
210
0.0
220
0.0
230
1.0
  0
TEXT
  8
10
  6
CONTINUOUS
 62
   134
  5
FF
 10
907795.103
 20
7283655.733
 30
0.0
 40
13.999
  1
17
 50
358.1267
  7
ROMANS
 72
     4
 11
907806.407903
 21
7283662.366995
 31
0.0
210
0.0
220
0.0
230
1.0
  0
TEXT
  8
10
  6
CONTINUOUS
 62
   134
  5
100
 10
907805.614
 20
7283977.118
 30
0.0
 40
13.999
  1
18
 50
358.1267
  7
ROMANS
 72
     4
 11
907816.918903
 21
7283983.751995
 31
0.0
210
0.0
220
0.0
230
1.0
  0
TEXT
  8
10
  6
CONTINUOUS
 62
   134
  5
101
 10
907814.989
 20
7284263.757
 30
0.0
 40
13.999
  1
19
 50
358.1267
  7
ROMANS
 72
     4
 11
907826.293903
 21
7284270.390995
 31
0.0
210
0.0
220
0.0
230
1.0
  0
TEXT
  8
10
  6
CONTINUOUS
 62
   134
  5
102
 10
907824.95
 20
7284585.159
 30
0.0
 40
13.999
  1
20
 50
358.1267
  7
ROMANS
 72
     4
 11
907836.811606
 21
7284591.774787
 31
0.0
210
0.0
220
0.0
230
1.0
  0
TEXT
  8
10
  6
CONTINUOUS
 62
   134
  5
103
 10
907837.776
 20
7284906.467
 30
0.0
 40
13.999
  1
21
 50
358.1267
  7
ROMANS
 72
     4
 11
907847.331839
 21
7284913.158201
 31
0.0
210
0.0
220
0.0
230
1.0
  0
TEXT
  8
10
  6
CONTINUOUS
 62
   134
  5
104
 10
907150.29
 20
7284928.952
 30
0.0
 40
13.999
  1
22
 50
358.1267
  7
ROMANS
 72
     4
 11
907161.594903
 21
7284935.585995
 31
0.0
210
0.0
220
0.0
230
1.0
  0
TEXT
  8
10
  6
CONTINUOUS
 62
   134
  5
105
 10
907139.496
 20
7284598.882
 30
0.0
 40
13.999
  1
23
 50
358.1267
  7
ROMANS
 72
     4
 11
907150.800903
 21
7284605.515995
 31
0.0
210
0.0
220
0.0
230
1.0
  0
TEXT
  8
10
  6
CONTINUOUS
 62
   134
  5
106
 10
907128.984
 20
7284277.498
 30
0.0
 40
13.999
  1
24
 50
358.1267
  7
ROMANS
 72
     4
 11
907140.288903
 21
7284284.131995
 31
0.0
210
0.0
220
0.0
230
1.0
  0
TEXT
  8
10
  6
CONTINUOUS
 62
   134
  5
107
 10
907118.756
 20
7283964.8
 30
0.0
 40
13.999
  1
25
 50
358.1267
  7
ROMANS
 72
     4
 11
907130.078894
 21
7283971.433406
 31
0.0
210
0.0
220
0.0
230
1.0
  0
TEXT
  8
10
  6
CONTINUOUS
 62
   134
  5
108
 10
907277.537
 20
7283516.145
 30
0.0
 40
13.999
  1
26
 50
358.1267
  7
ROMANS
 72
     4
 11
907289.169728
 21
7283522.768273
 31
0.0
210
0.0
220
0.0
230
1.0
  0
TEXT
  8
10
  6
CONTINUOUS
 62
   134
  5
109
 10
906965.387
 20
7283526.354
 30
0.0
 40
13.999
  1
27
 50
358.1267
  7
ROMANS
 72
     4
 11
906976.691903
 21
7283532.987995
 31
0.0
210
0.0
220
0.0
230
1.0
  0
TEXT
  8
10
  6
CONTINUOUS
 62
   134
  5
10A
 10
906626.865
 20
7283537.426
 30
0.0
 40
13.999
  1
28
 50
358.1267
  7
ROMANS
 72
     4
 11
906638.169903
 21
7283544.059995
 31
0.0
210
0.0
220
0.0
230
1.0
  0
TEXT
  8
10
  6
CONTINUOUS
 62
   134
  5
10B
 10
906323.065
 20
7283547.362
 30
0.0
 40
13.999
  1
29
 50
358.1267
  7
ROMANS
 72
     4
 11
906334.369903
 21
7283553.995995
 31
0.0
210
0.0
220
0.0
230
1.0
  0
TEXT
  8
10
  6
CONTINUOUS
 62
   134
  5
10C
 10
906501.925
 20
7283984.975
 30
0.0
 40
13.999
  1
30
 50
358.1267
  7
ROMANS
 72
     4
 11
906513.786606
 21
7283991.590787
 31
0.0
210
0.0
220
0.0
230
1.0
  0
TEXT
  8
10
  6
CONTINUOUS
 62
   134
  5
10D
 10
906514.465
 20
7284297.597
 30
0.0
 40
13.999
  1
31
 50
358.1267
  7
ROMANS
 72
     4
 11
906524.020839
 21
7284304.288201
 31
0.0
210
0.0
220
0.0
230
1.0
  0
TEXT
  8
10
  6
CONTINUOUS
 62
   134
  5
10E
 10
906523.214
 20
7284619.039
 30
0.0
 40
13.999
  1
32
 50
358.1267
  7
ROMANS
 72
     4
 11
906534.518903
 21
7284625.672995
 31
0.0
210
0.0
220
0.0
230
1.0
  0
TEXT
  8
10
  6
CONTINUOUS
 62
   134
  5
10F
 10
906534.009
 20
7284949.109
 30
0.0
 40
13.999
  1
33
 50
358.1267
  7
ROMANS
 72
     4
 11
906545.313903
 21
7284955.742995
 31
0.0
210
0.0
220
0.0
230
1.0
  0
LINE
  8
6
  6
CONTINUOUS
 62
     7
  5
110
 10
908196.025
 20
7285050.471
 30
0.0
 11
910793.337
 21
7284965.541
 31
0.0
  0
LINE
  8
6
  6
CONTINUOUS
 62
     7
  5
111
 10
910712.401
 20
7282379.128
 30
0.0
 11
910793.337
 21
7284965.541
 31
0.0
  0
ARC
  8
6
  6
CONTINUOUS
 62
     7
  5
112
 10
907565.831376
 20
7285056.074297
 30
0.0
 40
15.0
 50
88.1267
 51
178.1267
210
0.0
220
0.0
230
1.0
  0
POLYLINE
  8
6
  6
CONTINUOUS
 62
     7
  5
113
 66
     1
 10
0.0
 20
0.0
 30
0.0
  0
VERTEX
  8
6
  6
CONTINUOUS
 62
     7
  5
114
 10
909417.83
 20
7281969.655
 30
0.0
  0
VERTEX
  8
6
  6
CONTINUOUS
 62
     7
  5
115
 10
909424.096
 20
7282169.556
 30
0.0
  0
VERTEX
  8
6
  6
CONTINUOUS
 62
     7
  5
116
 10
909874.954
 20
7282155.425
 30
0.0
  0
SEQEND
  8
6
  6
CONTINUOUS
 62
     7
  5
117
  0
LINE
  8
6
  6
CONTINUOUS
 62
     7
  5
118
 10
909889.476
 20
7282139.962
 30
0.0
 11
909883.68
 21
7281955.054
 31
0.0
  0
ARC
  8
6
  6
CONTINUOUS
 62
     7
  5
119
 10
909874.484057
 20
7282140.431895
 30
0.0
 40
15.0
 50
358.2047
 51
88.2047
210
0.0
220
0.0
230
1.0
  0
POLYLINE
  8
6
  6
CONTINUOUS
 62
     7
  5
11A
 66
     1
 10
0.0
 20
0.0
 30
0.0
  0
VERTEX
  8
6
  6
CONTINUOUS
 62
     7
  5
11B
 10
910683.288
 20
7281929.99
 30
0.0
  0
VERTEX
  8
6
  6
CONTINUOUS
 62
     7
  5
11C
 10
909943.651
 20
7281953.173
 30
0.0
  0
VERTEX
  8
6
  6
CONTINUOUS
 62
     7
  5
11D
 10
909949.447
 20
7282138.082
 30
0.0
  0
SEQEND
  8
6
  6
CONTINUOUS
 62
     7
  5
11E
  0
LINE
  8
6
  6
CONTINUOUS
 62
     7
  5
11F
 10
909964.909
 20
7282152.606
 30
0.0
 11
910439.677
 21
7282137.724
 31
0.0
  0
ARC
  8
6
  6
CONTINUOUS
 62
     7
  5
120
 10
909964.439879
 20
7282137.612306
 30
0.0
 40
15.0
 50
88.2047
 51
178.2047
210
0.0
220
0.0
230
1.0
  0
POLYLINE
  8
6
  6
CONTINUOUS
 62
     7
  5
121
 66
     1
 10
0.0
 20
0.0
 30
0.0
  0
VERTEX
  8
6
  6
CONTINUOUS
 62
     7
  5
122
 10
909937.229
 20
7281748.273
 30
0.0
  0
VERTEX
  8
6
  6
CONTINUOUS
 62
     7
  5
123
 10
909943.025
 20
7281933.184
 30
0.0
  0
VERTEX
  8
6
  6
CONTINUOUS
 62
     7
  5
124
 10
910682.661
 20
7281910.0
 30
0.0
  0
VERTEX
  8
6
  6
CONTINUOUS
 62
     7
  5
125
 10
910676.865
 20
7281725.091
 30
0.0
  0
SEQEND
  8
6
  6
CONTINUOUS
 62
     7
  5
126
  0
LINE
  8
6
  6
CONTINUOUS
 62
     7
  5
127
 10
910661.404
 20
7281710.568
 30
0.0
 11
909951.752
 21
7281732.811
 31
0.0
  0
ARC
  8
6
  6
CONTINUOUS
 62
     7
  5
128
 10
909952.221659
 20
7281747.803744
 30
0.0
 40
15.0
 50
178.2047
 51
268.2047
210
0.0
220
0.0
230
1.0
  0
ARC
  8
6
  6
CONTINUOUS
 62
     7
  5
129
 10
910661.873144
 20
7281725.560318
 30
0.0
 40
15.0
 50
268.2047
 51
358.2047
210
0.0
220
0.0
230
1.0
  0
LINE
  8
6
  6
CONTINUOUS
 62
     7
  5
12A
 10
910674.046
 20
7281635.134
 30
0.0
 11
910668.25
 21
7281450.225
 31
0.0
  0
ARC
  8
6
  6
CONTINUOUS
 62
     7
  5
12B
 10
910659.053555
 20
7281635.604496
 30
0.0
 40
15.0
 50
358.2047
 51
88.2047
210
0.0
220
0.0
230
1.0
  0
LINE
  8
6
  6
CONTINUOUS
 62
     7
  5
12C
 10
909949.871
 20
7281672.842
 30
0.0
 11
910659.523
 21
7281650.597
 31
0.0
  0
POLYLINE
  8
6
  6
CONTINUOUS
 62
     7
  5
12D
 66
     1
 10
0.0
 20
0.0
 30
0.0
  0
VERTEX
  8
6
  6
CONTINUOUS
 62
     7
  5
12E
 10
910668.25
 20
7281450.225
 30
0.0
  0
VERTEX
  8
6
  6
CONTINUOUS
 62
     7
  5
12F
 10
909928.613
 20
7281473.409
 30
0.0
  0
VERTEX
  8
6
  6
CONTINUOUS
 62
     7
  5
130
 10
909934.409
 20
7281658.319
 30
0.0
  0
SEQEND
  8
6
  6
CONTINUOUS
 62
     7
  5
131
  0
ARC
  8
6
  6
CONTINUOUS
 62
     7
  5
132
 10
909949.40207
 20
7281657.847922
 30
0.0
 40
15.0
 50
88.2047
 51
178.2047
210
0.0
220
0.0
230
1.0
  0
POLYLINE
  8
6
  6
CONTINUOUS
 62
     7
  5
133
 66
     1
 10
0.0
 20
0.0
 30
0.0
  0
VERTEX
  8
6
  6
CONTINUOUS
 62
     7
  5
134
 10
909922.192
 20
7281268.51
 30
0.0
  0
VERTEX
  8
6
  6
CONTINUOUS
 62
     7
  5
135
 10
909927.987
 20
7281453.419
 30
0.0
  0
VERTEX
  8
6
  6
CONTINUOUS
 62
     7
  5
136
 10
910667.623
 20
7281430.235
 30
0.0
  0
VERTEX
  8
6
  6
CONTINUOUS
 62
     7
  5
137
 10
910661.828
 20
7281245.325
 30
0.0
  0
SEQEND
  8
6
  6
CONTINUOUS
 62
     7
  5
138
  0
LINE
  8
6
  6
CONTINUOUS
 62
     7
  5
139
 10
910646.366
 20
7281230.803
 30
0.0
 11
909936.714
 21
7281253.046
 31
0.0
  0
ARC
  8
6
  6
CONTINUOUS
 62
     7
  5
13A
 10
909937.18385
 20
7281268.03936
 30
0.0
 40
15.0
 50
178.2047
 51
268.2047
210
0.0
220
0.0
230
1.0
  0
ARC
  8
6
  6
CONTINUOUS
 62
     7
  5
13B
 10
910646.835335
 20
7281245.795934
 30
0.0
 40
15.0
 50
268.2047
 51
358.2047
210
0.0
220
0.0
230
1.0
  0
LINE
  8
6
  6
CONTINUOUS
 62
     7
  5
13C
 10
910659.007
 20
7281155.37
 30
0.0
 11
910653.212
 21
7280970.461
 31
0.0
  0
ARC
  8
6
  6
CONTINUOUS
 62
     7
  5
13D
 10
910644.015746
 20
7281155.840112
 30
0.0
 40
15.0
 50
358.2047
 51
88.2047
210
0.0
220
0.0
230
1.0
  0
LINE
  8
6
  6
CONTINUOUS
 62
     7
  5
13E
 10
909934.833
 20
7281193.076
 30
0.0
 11
910644.485
 21
7281170.833
 31
0.0
  0
POLYLINE
  8
6
  6
CONTINUOUS
 62
     7
  5
13F
 66
     1
 10
0.0
 20
0.0
 30
0.0
  0
VERTEX
  8
6
  6
CONTINUOUS
 62
     7
  5
140
 10
910653.212
 20
7280970.461
 30
0.0
  0
VERTEX
  8
6
  6
CONTINUOUS
 62
     7
  5
141
 10
909913.576
 20
7280993.645
 30
0.0
  0
VERTEX
  8
6
  6
CONTINUOUS
 62
     7
  5
142
 10
909919.371
 20
7281178.554
 30
0.0
  0
SEQEND
  8
6
  6
CONTINUOUS
 62
     7
  5
143
  0
ARC
  8
6
  6
CONTINUOUS
 62
     7
  5
144
 10
909934.364261
 20
7281178.083538
 30
0.0
 40
15.0
 50
88.2047
 51
178.2047
210
0.0
220
0.0
230
1.0
  0
POLYLINE
  8
6
  6
CONTINUOUS
 62
     7
  5
145
 66
     1
 10
0.0
 20
0.0
 30
0.0
  0
VERTEX
  8
6
  6
CONTINUOUS
 62
     7
  5
146
 10
909907.154
 20
7280788.745
 30
0.0
  0
VERTEX
  8
6
  6
CONTINUOUS
 62
     7
  5
147
 10
909912.949
 20
7280973.654
 30
0.0
  0
VERTEX
  8
6
  6
CONTINUOUS
 62
     7
  5
148
 10
910652.586
 20
7280950.472
 30
0.0
  0
VERTEX
  8
6
  6
CONTINUOUS
 62
     7
  5
149
 10
910646.79
 20
7280765.562
 30
0.0
  0
SEQEND
  8
6
  6
CONTINUOUS
 62
     7
  5
14A
  0
LINE
  8
6
  6
CONTINUOUS
 62
     7
  5
14B
 10
910631.328
 20
7280751.039
 30
0.0
 11
909921.676
 21
7280773.282
 31
0.0
  0
ARC
  8
6
  6
CONTINUOUS
 62
     7
  5
14C
 10
909922.146041
 20
7280788.274975
 30
0.0
 40
15.0
 50
178.2047
 51
268.2047
210
0.0
220
0.0
230
1.0
  0
ARC
  8
6
  6
CONTINUOUS
 62
     7
  5
14D
 10
910631.797526
 20
7280766.031549
 30
0.0
 40
15.0
 50
268.2047
 51
358.2047
210
0.0
220
0.0
230
1.0
  0
POLYLINE
  8
6
  6
CONTINUOUS
 62
     7
  5
14E
 66
     1
 10
0.0
 20
0.0
 30
0.0
  0
VERTEX
  8
6
  6
CONTINUOUS
 62
     7
  5
14F
 10
910638.175
 20
7280490.698
 30
0.0
  0
VERTEX
  8
6
  6
CONTINUOUS
 62
     7
  5
150
 10
909898.538
 20
7280513.88
 30
0.0
  0
VERTEX
  8
6
  6
CONTINUOUS
 62
     7
  5
151
 10
909904.334
 20
7280698.79
 30
0.0
  0
SEQEND
  8
6
  6
CONTINUOUS
 62
     7
  5
152
  0
ARC
  8
6
  6
CONTINUOUS
 62
     7
  5
153
 10
909919.326452
 20
7280698.319153
 30
0.0
 40
15.0
 50
88.2047
 51
178.2047
210
0.0
220
0.0
230
1.0
  0
POLYLINE
  8
6
  6
CONTINUOUS
 62
     7
  5
154
 66
     1
 10
0.0
 20
0.0
 30
0.0
  0
VERTEX
  8
6
  6
CONTINUOUS
 62
     7
  5
155
 10
909892.116
 20
7280308.981
 30
0.0
  0
VERTEX
  8
6
  6
CONTINUOUS
 62
     7
  5
156
 10
909897.911
 20
7280493.89
 30
0.0
  0
VERTEX
  8
6
  6
CONTINUOUS
 62
     7
  5
157
 10
910637.548
 20
7280470.707
 30
0.0
  0
VERTEX
  8
6
  6
CONTINUOUS
 62
     7
  5
158
 10
910631.752
 20
7280285.798
 30
0.0
  0
SEQEND
  8
6
  6
CONTINUOUS
 62
     7
  5
159
  0
LINE
  8
6
  6
CONTINUOUS
 62
     7
  5
15A
 10
910616.29
 20
7280271.276
 30
0.0
 11
909906.638
 21
7280293.518
 31
0.0
  0
ARC
  8
6
  6
CONTINUOUS
 62
     7
  5
15B
 10
909907.108232
 20
7280308.510591
 30
0.0
 40
15.0
 50
178.2047
 51
268.2047
210
0.0
220
0.0
230
1.0
  0
ARC
  8
6
  6
CONTINUOUS
 62
     7
  5
15C
 10
910616.759717
 20
7280286.267165
 30
0.0
 40
15.0
 50
268.2047
 51
358.2047
210
0.0
220
0.0
230
1.0
  0
LINE
  8
6
  6
CONTINUOUS
 62
     7
  5
15D
 10
909919.796
 20
7280713.312
 30
0.0
 11
910629.447
 21
7280691.069
 31
0.0
  0
LINE
  8
6
  6
CONTINUOUS
 62
     7
  5
15E
 10
910643.971
 20
7280675.606
 30
0.0
 11
910638.175
 21
7280490.698
 31
0.0
  0
ARC
  8
6
  6
CONTINUOUS
 62
     7
  5
15F
 10
910628.977937
 20
7280676.075727
 30
0.0
 40
15.0
 50
358.2047
 51
88.2047
210
0.0
220
0.0
230
1.0
  0
ARC
  8
6
  6
CONTINUOUS
 62
     7
  5
160
 10
910613.171546
 20
7280196.335434
 30
0.0
 40
15.0
 50
355.341492
 51
88.2047
210
0.0
220
0.0
230
1.0
  0
POLYLINE
  8
6
  6
CONTINUOUS
 62
     7
  5
161
 66
     1
 10
0.0
 20
0.0
 30
0.0
  0
VERTEX
  8
6
  6
CONTINUOUS
 62
     7
  5
162
 10
909877.078
 20
7279829.217
 30
0.0
  0
VERTEX
  8
6
  6
CONTINUOUS
 62
     7
  5
163
 10
909882.873
 20
7280014.126
 30
0.0
  0
VERTEX
  8
6
  6
CONTINUOUS
 62
     7
  5
164
 10
910612.515
 20
7279991.256
 30
0.0
  0
VERTEX
  8
6
  6
CONTINUOUS
 62
     7
  5
165
 10
910607.189
 20
7279821.339
 30
0.0
  0
SEQEND
  8
6
  6
CONTINUOUS
 62
     7
  5
166
  0
LINE
  8
6
  6
CONTINUOUS
 62
     7
  5
167
 10
910576.264
 20
7279792.294
 30
0.0
 11
909891.6
 21
7279813.754
 31
0.0
  0
ARC
  8
6
  6
CONTINUOUS
 62
     7
  5
168
 10
909892.070423
 20
7279828.746207
 30
0.0
 40
15.0
 50
178.2047
 51
268.2047
210
0.0
220
0.0
230
1.0
  0
LINE
  8
6
  6
CONTINUOUS
 62
     7
  5
169
 10
909883.053
 20
7281935.063
 30
0.0
 11
909817.107
 21
7279831.096
 31
0.0
  0
ARC
  8
6
  6
CONTINUOUS
 62
     7
  5
16A
 10
909802.114601
 20
7279831.565796
 30
0.0
 40
15.0
 50
268.2047
 51
358.2047
210
0.0
220
0.0
230
1.0
  0
POLYLINE
  8
6
  6
CONTINUOUS
 62
     7
  5
16B
 66
     1
 10
0.0
 20
0.0
 30
0.0
  0
VERTEX
  8
6
  6
CONTINUOUS
 62
     7
  5
16C
 10
910613.142
 20
7280011.246
 30
0.0
  0
VERTEX
  8
6
  6
CONTINUOUS
 62
     7
  5
16D
 10
909883.5
 20
7280034.116
 30
0.0
  0
VERTEX
  8
6
  6
CONTINUOUS
 62
     7
  5
16E
 10
909889.296
 20
7280219.026
 30
0.0
  0
SEQEND
  8
6
  6
CONTINUOUS
 62
     7
  5
16F
  0
LINE
  8
6
  6
CONTINUOUS
 62
     7
  5
170
 10
909904.759
 20
7280233.548
 30
0.0
 11
910613.641
 21
7280211.329
 31
0.0
  0
ARC
  8
6
  6
CONTINUOUS
 62
     7
  5
171
 10
909904.288643
 20
7280218.554769
 30
0.0
 40
15.0
 50
88.2047
 51
178.2047
210
0.0
220
0.0
230
1.0
  0
ARC
  8
6
  6
CONTINUOUS
 62
     7
  5
172
 10
910577.204111
 20
7279822.278637
 30
0.0
 40
30.0
 50
268.2047
 51
358.2047
210
0.0
220
0.0
230
1.0
  0
POLYLINE
  8
6
  6
CONTINUOUS
 62
     7
  5
173
 66
     1
 10
0.0
 20
0.0
 30
0.0
  0
VERTEX
  8
6
  6
CONTINUOUS
 62
     7
  5
174
 10
905394.162
 20
7279956.24
 30
0.0
  0
VERTEX
  8
6
  6
CONTINUOUS
 62
     7
  5
175
 10
909347.855
 20
7279820.775
 30
0.0
  0
VERTEX
  8
6
  6
CONTINUOUS
 62
     7
  5
176
 10
909348.234
 20
7279832.51
 30
0.0
  0
SEQEND
  8
6
  6
CONTINUOUS
 62
     7
  5
177
  0
TEXT
  8
11
  6
CONTINUOUS
 62
     7
  5
179
 10
910724.884
 20
7282402.453
 30
0.0
 40
8.0
  1
40'
 50
358.2047
  7
ROMANS
210
0.0
220
0.0
230
1.0
  0
TEXT
  8
11
  6
CONTINUOUS
 62
     7
  5
17A
 10
910723.588
 20
7282332.531
 30
0.0
 40
8.0
  1
55'
 50
358.2047
  7
ROMANS
210
0.0
220
0.0
230
1.0
  0
TEXT
  8
11
  6
CONTINUOUS
 62
     7
  5
17B
 10
910747.313
 20
7283657.145
 30
0.0
 40
8.0
  1
40'
 50
358.1267
  7
ROMANS
210
0.0
220
0.0
230
1.0
  0
TEXT
  8
11
  6
CONTINUOUS
 62
     7
  5
17C
 10
910786.804
 20
7284864.564
 30
0.0
 40
8.0
  1
40'
 50
358.1267
  7
ROMANS
210
0.0
220
0.0
230
1.0
  0
TEXT
  8
11
  6
CONTINUOUS
 62
     7
  5
17D
 10
910706.63
 20
7281791.521
 30
0.0
 40
8.0
  1
55'
 50
358.2047
  7
ROMANS
210
0.0
220
0.0
230
1.0
  0
TEXT
  8
11
  6
CONTINUOUS
 62
     7
  5
17E
 10
910700.241
 20
7281587.662
 30
0.0
 40
8.0
  1
55'
 50
358.2047
  7
ROMANS
210
0.0
220
0.0
230
1.0
  0
TEXT
  8
11
  6
CONTINUOUS
 62
     7
  5
17F
 10
910691.393
 20
7281305.396
 30
0.0
 40
8.0
  1
55'
 50
358.2047
  7
ROMANS
210
0.0
220
0.0
230
1.0
  0
TEXT
  8
11
  6
CONTINUOUS
 62
     7
  5
180
 10
910685.249
 20
7281109.377
 30
0.0
 40
8.0
  1
55'
 50
358.2047
  7
ROMANS
210
0.0
220
0.0
230
1.0
  0
TEXT
  8
11
  6
CONTINUOUS
 62
     7
  5
181
 10
910675.911
 20
7280811.43
 30
0.0
 40
8.0
  1
55'
 50
358.2047
  7
ROMANS
210
0.0
220
0.0
230
1.0
  0
TEXT
  8
11
  6
CONTINUOUS
 62
     7
  5
182
 10
910670.258
 20
7280631.093
 30
0.0
 40
8.0
  1
55'
 50
358.2047
  7
ROMANS
210
0.0
220
0.0
230
1.0
  0
TEXT
  8
11
  6
CONTINUOUS
 62
     7
  5
183
 10
910660.427
 20
7280317.465
 30
0.0
 40
8.0
  1
55'
 50
358.2047
  7
ROMANS
210
0.0
220
0.0
230
1.0
  0
TEXT
  8
11
  6
CONTINUOUS
 62
     7
  5
184
 10
910635.473
 20
7280017.393
 30
0.0
 40
8.0
  1
65'
 50
358.2047
  7
ROMANS
210
0.0
220
0.0
230
1.0
  0
TEXT
  8
11
  6
CONTINUOUS
 62
     7
  5
185
 10
910629.473
 20
7279826.015
 30
0.0
 40
8.0
  1
65'
 50
358.2047
  7
ROMANS
210
0.0
220
0.0
230
1.0
  0
TEXT
  8
11
  6
CONTINUOUS
 62
     7
  5
186
 10
909954.321
 20
7279814.79
 30
0.0
 40
8.0
  1
170'
 50
358.2047
  7
ROMANS
210
0.0
220
0.0
230
1.0
  0
TEXT
  8
11
  6
CONTINUOUS
 62
     7
  5
187
 10
909976.531
 20
7280294.331
 30
0.0
 40
8.0
  1
170'
 50
358.2047
  7
ROMANS
210
0.0
220
0.0
230
1.0
  0
TEXT
  8
11
  6
CONTINUOUS
 62
     7
  5
188
 10
909989.179
 20
7280774.169
 30
0.0
 40
8.0
  1
170'
 50
358.2047
  7
ROMANS
210
0.0
220
0.0
230
1.0
  0
TEXT
  8
11
  6
CONTINUOUS
 62
     7
  5
189
 10
909997.044
 20
7281254.158
 30
0.0
 40
8.0
  1
170'
 50
358.2047
  7
ROMANS
210
0.0
220
0.0
230
1.0
  0
TEXT
  8
11
  6
CONTINUOUS
 62
     7
  5
18A
 10
910019.254
 20
7281733.697
 30
0.0
 40
8.0
  1
170'
 50
358.2047
  7
ROMANS
210
0.0
220
0.0
230
1.0
  0
TEXT
  8
11
  6
CONTINUOUS
 62
     7
  5
18B
 10
910036.799
 20
7282139.347
 30
0.0
 40
8.0
  1
170'
 50
358.2047
  7
ROMANS
210
0.0
220
0.0
230
1.0
  0
TEXT
  8
11
  6
CONTINUOUS
 62
     7
  5
18C
 10
910021.761
 20
7281659.583
 30
0.0
 40
8.0
  1
170'
 50
358.2047
  7
ROMANS
210
0.0
220
0.0
230
1.0
  0
TEXT
  8
11
  6
CONTINUOUS
 62
     7
  5
18D
 10
910006.725
 20
7281179.819
 30
0.0
 40
8.0
  1
170'
 50
358.2047
  7
ROMANS
210
0.0
220
0.0
230
1.0
  0
TEXT
  8
11
  6
CONTINUOUS
 62
     7
  5
18E
 10
909986.904
 20
7280700.204
 30
0.0
 40
8.0
  1
170'
 50
358.2047
  7
ROMANS
210
0.0
220
0.0
230
1.0
  0
TEXT
  8
11
  6
CONTINUOUS
 62
     7
  5
18F
 10
909976.648
 20
7280220.291
 30
0.0
 40
8.0
  1
170'
 50
358.2047
  7
ROMANS
210
0.0
220
0.0
230
1.0
  0
TEXT
  8
11
  6
CONTINUOUS
 62
     7
  5
190
 10
910141.93
 20
7279808.91
 30
0.0
 40
8.0
  1
185'
 50
358.2047
  7
ROMANS
 72
     1
 11
910155.256455
 21
7279808.492294
 31
0.0
210
0.0
220
0.0
230
1.0
  0
TEXT
  8
11
  6
CONTINUOUS
 62
     7
  5
191
 10
910323.612
 20
7279803.216
 30
0.0
 40
8.0
  1
185'
 50
358.2047
  7
ROMANS
 72
     1
 11
910336.938455
 21
7279802.798294
 31
0.0
210
0.0
220
0.0
230
1.0
  0
TEXT
  8
11
  6
CONTINUOUS
 62
     7
  5
192
 10
910338.65
 20
7280282.98
 30
0.0
 40
8.0
  1
185'
 50
358.2047
  7
ROMANS
 72
     1
 11
910351.976455
 21
7280282.562294
 31
0.0
210
0.0
220
0.0
230
1.0
  0
TEXT
  8
11
  6
CONTINUOUS
 62
     7
  5
193
 10
910156.968
 20
7280288.674
 30
0.0
 40
8.0
  1
185'
 50
358.2047
  7
ROMANS
 72
     1
 11
910170.294455
 21
7280288.256294
 31
0.0
210
0.0
220
0.0
230
1.0
  0
TEXT
  8
11
  6
CONTINUOUS
 62
     7
  5
194
 10
910172.006
 20
7280768.438
 30
0.0
 40
8.0
  1
185'
 50
358.2047
  7
ROMANS
 72
     1
 11
910185.332455
 21
7280768.020294
 31
0.0
210
0.0
220
0.0
230
1.0
  0
TEXT
  8
11
  6
CONTINUOUS
 62
     7
  5
195
 10
910358.47
 20
7280762.594
 30
0.0
 40
8.0
  1
185'
 50
358.2047
  7
ROMANS
 72
     1
 11
910371.796455
 21
7280762.176294
 31
0.0
210
0.0
220
0.0
230
1.0
  0
TEXT
  8
11
  6
CONTINUOUS
 62
     7
  5
196
 10
910536.787
 20
7280496.878
 30
0.0
 40
8.0
  1
185'
 50
358.2047
  7
ROMANS
 72
     1
 11
910550.113455
 21
7280496.460294
 31
0.0
210
0.0
220
0.0
230
1.0
  0
TEXT
  8
11
  6
CONTINUOUS
 62
     7
  5
197
 10
909975.006
 20
7280514.486
 30
0.0
 40
8.0
  1
185'
 50
358.2047
  7
ROMANS
 72
     1
 11
909988.332455
 21
7280514.068294
 31
0.0
210
0.0
220
0.0
230
1.0
  0
TEXT
  8
11
  6
CONTINUOUS
 62
     7
  5
198
 10
909962.358
 20
7280034.647
 30
0.0
 40
8.0
  1
185'
 50
358.2047
  7
ROMANS
 72
     1
 11
909975.684455
 21
7280034.229294
 31
0.0
210
0.0
220
0.0
230
1.0
  0
TEXT
  8
11
  6
CONTINUOUS
 62
     7
  5
199
 10
909958.904
 20
7280000.738
 30
0.0
 40
8.0
  1
185'
 50
358.2047
  7
ROMANS
 72
     1
 11
909972.481085
 21
7280008.316367
 31
0.0
210
0.0
220
0.0
230
1.0
 73
     3
  0
TEXT
  8
11
  6
CONTINUOUS
 62
     7
  5
19A
 10
910149.868
 20
7280214.861
 30
0.0
 40
8.0
  1
185'
 50
358.2047
  7
ROMANS
 72
     1
 11
910163.445085
 21
7280222.439367
 31
0.0
210
0.0
220
0.0
230
1.0
 73
     3
  0
TEXT
  8
11
  6
CONTINUOUS
 62
     7
  5
19B
 10
910329.16
 20
7280209.241
 30
0.0
 40
8.0
  1
185'
 50
358.2047
  7
ROMANS
 72
     1
 11
910342.737085
 21
7280216.819367
 31
0.0
210
0.0
220
0.0
230
1.0
 73
     3
  0
TEXT
  8
11
  6
CONTINUOUS
 62
     7
  5
19C
 10
909978.722
 20
7280480.353
 30
0.0
 40
8.0
  1
185'
 50
358.2047
  7
ROMANS
 72
     1
 11
909992.299085
 21
7280487.931367
 31
0.0
210
0.0
220
0.0
230
1.0
 73
     3
  0
TEXT
  8
11
  6
CONTINUOUS
 62
     7
  5
19D
 10
910164.906
 20
7280694.624
 30
0.0
 40
8.0
  1
185'
 50
358.2047
  7
ROMANS
 72
     1
 11
910178.483085
 21
7280702.202367
 31
0.0
210
0.0
220
0.0
230
1.0
 73
     3
  0
TEXT
  8
11
  6
CONTINUOUS
 62
     7
  5
19E
 10
910339.418
 20
7280689.155
 30
0.0
 40
8.0
  1
185'
 50
358.2047
  7
ROMANS
 72
     1
 11
910352.995085
 21
7280696.733367
 31
0.0
210
0.0
220
0.0
230
1.0
 73
     3
  0
TEXT
  8
11
  6
CONTINUOUS
 62
     7
  5
19F
 10
910502.904
 20
7279797.596
 30
0.0
 40
8.0
  1
145'
 50
358.2047
  7
ROMANS
 72
     1
 11
910516.230455
 21
7279797.178294
 31
0.0
210
0.0
220
0.0
230
1.0
  0
TEXT
  8
11
  6
CONTINUOUS
 62
     7
  5
1A0
 10
910511.122
 20
7279983.429
 30
0.0
 40
8.0
  1
175'
 50
358.2047
  7
ROMANS
 72
     1
 11
910524.699085
 21
7279991.007367
 31
0.0
210
0.0
220
0.0
230
1.0
 73
     3
  0
TEXT
  8
11
  6
CONTINUOUS
 62
     7
  5
1A1
 10
910512.187
 20
7280017.413
 30
0.0
 40
8.0
  1
175'
 50
358.2047
  7
ROMANS
 72
     1
 11
910525.513455
 21
7280016.995294
 31
0.0
210
0.0
220
0.0
230
1.0
  0
TEXT
  8
11
  6
CONTINUOUS
 62
     7
  5
1A2
 10
910515.676
 20
7280203.394
 30
0.0
 40
8.0
  1
168.33'
 50
358.2047
  7
ROMANS
 72
     1
 11
910541.247195
 21
7280210.596421
 31
0.0
210
0.0
220
0.0
230
1.0
 73
     3
  0
TEXT
  8
11
  6
CONTINUOUS
 62
     7
  5
1A3
 10
909893.998
 20
7279899.423
 30
0.0
 40
8.0
  1
185.03'
 50
88.2047
  7
ROMANS
 72
     4
 11
909890.793646
 21
7279924.869879
 31
0.0
210
0.0
220
0.0
230
1.0
  0
TEXT
  8
11
  6
CONTINUOUS
 62
     7
  5
1A4
 10
909900.895
 20
7280119.445
 30
0.0
 40
8.0
  1
185'
 50
88.2047
  7
ROMANS
 72
     4
 11
909897.314701
 21
7280132.89777
 31
0.0
210
0.0
220
0.0
230
1.0
  0
TEXT
  8
11
  6
CONTINUOUS
 62
     7
  5
1A5
 10
909908.619
 20
7280365.845
 30
0.0
 40
8.0
  1
185'
 50
88.2047
  7
ROMANS
 72
     4
 11
909905.038701
 21
7280379.29777
 31
0.0
210
0.0
220
0.0
230
1.0
  0
TEXT
  8
11
  6
CONTINUOUS
 62
     7
  5
1A6
 10
909916.416
 20
7280614.635
 30
0.0
 40
8.0
  1
185'
 50
88.2047
  7
ROMANS
 72
     4
 11
909912.835701
 21
7280628.08777
 31
0.0
210
0.0
220
0.0
230
1.0
  0
TEXT
  8
11
  6
CONTINUOUS
 62
     7
  5
1A7
 10
909924.065
 20
7280858.642
 30
0.0
 40
8.0
  1
185'
 50
88.2047
  7
ROMANS
 72
     4
 11
909920.484701
 21
7280872.09477
 31
0.0
210
0.0
220
0.0
230
1.0
  0
TEXT
  8
11
  6
CONTINUOUS
 62
     7
  5
1A8
 10
909931.338
 20
7281090.687
 30
0.0
 40
8.0
  1
185'
 50
88.2047
  7
ROMANS
 72
     4
 11
909927.757701
 21
7281104.13977
 31
0.0
210
0.0
220
0.0
230
1.0
  0
TEXT
  8
11
  6
CONTINUOUS
 62
     7
  5
1A9
 10
909938.836
 20
7281329.909
 30
0.0
 40
8.0
  1
185'
 50
88.2047
  7
ROMANS
 72
     4
 11
909935.255701
 21
7281343.36177
 31
0.0
210
0.0
220
0.0
230
1.0
  0
TEXT
  8
11
  6
CONTINUOUS
 62
     7
  5
1AA
 10
909945.809
 20
7281552.385
 30
0.0
 40
8.0
  1
185'
 50
88.2047
  7
ROMANS
 72
     4
 11
909942.228701
 21
7281565.83777
 31
0.0
210
0.0
220
0.0
230
1.0
  0
TEXT
  8
11
  6
CONTINUOUS
 62
     7
  5
1AB
 10
909954.239
 20
7281821.314
 30
0.0
 40
8.0
  1
185'
 50
88.2047
  7
ROMANS
 72
     4
 11
909950.658701
 21
7281834.76677
 31
0.0
210
0.0
220
0.0
230
1.0
  0
TEXT
  8
11
  6
CONTINUOUS
 62
     7
  5
1AC
 10
909960.762
 20
7282029.436
 30
0.0
 40
8.0
  1
185'
 50
88.2047
  7
ROMANS
 72
     4
 11
909957.181701
 21
7282042.88877
 31
0.0
210
0.0
220
0.0
230
1.0
  0
TEXT
  8
11
  6
CONTINUOUS
 62
     7
  5
1AD
 10
909872.312
 20
7282032.209
 30
0.0
 40
8.0
  1
185'
 50
88.2047
  7
ROMANS
 72
     4
 11
909868.731701
 21
7282045.66177
 31
0.0
210
0.0
220
0.0
230
1.0
  0
TEXT
  8
11
  6
CONTINUOUS
 62
     7
  5
1AE
 10
910673.872
 20
7281801.151
 30
0.0
 40
8.0
  1
185'
 50
88.2047
  7
ROMANS
 72
     4
 11
910670.291701
 21
7281814.60377
 31
0.0
210
0.0
220
0.0
230
1.0
  0
TEXT
  8
11
  6
CONTINUOUS
 62
     7
  5
1AF
 10
910665.325
 20
7281528.44
 30
0.0
 40
8.0
  1
185'
 50
88.2047
  7
ROMANS
 72
     4
 11
910661.744701
 21
7281541.89277
 31
0.0
210
0.0
220
0.0
230
1.0
  0
TEXT
  8
11
  6
CONTINUOUS
 62
     7
  5
1B0
 10
910658.35
 20
7281305.964
 30
0.0
 40
8.0
  1
185'
 50
88.2047
  7
ROMANS
 72
     4
 11
910654.769701
 21
7281319.41677
 31
0.0
210
0.0
220
0.0
230
1.0
  0
TEXT
  8
11
  6
CONTINUOUS
 62
     7
  5
1B1
 10
910650.907
 20
7281068.467
 30
0.0
 40
8.0
  1
185'
 50
88.2047
  7
ROMANS
 72
     4
 11
910647.326701
 21
7281081.91977
 31
0.0
210
0.0
220
0.0
230
1.0
  0
TEXT
  8
11
  6
CONTINUOUS
 62
     7
  5
1B2
 10
910643.634
 20
7280836.422
 30
0.0
 40
8.0
  1
185'
 50
88.2047
  7
ROMANS
 72
     4
 11
910640.053701
 21
7280849.87477
 31
0.0
210
0.0
220
0.0
230
1.0
  0
TEXT
  8
11
  6
CONTINUOUS
 62
     7
  5
1B3
 10
910635.91
 20
7280590.024
 30
0.0
 40
8.0
  1
185'
 50
88.2047
  7
ROMANS
 72
     4
 11
910632.329701
 21
7280603.47677
 31
0.0
210
0.0
220
0.0
230
1.0
  0
TEXT
  8
11
  6
CONTINUOUS
 62
     7
  5
1B4
 10
910628.113
 20
7280341.233
 30
0.0
 40
8.0
  1
185'
 50
88.2047
  7
ROMANS
 72
     4
 11
910624.532701
 21
7280354.68577
 31
0.0
210
0.0
220
0.0
230
1.0
  0
TEXT
  8
11
  6
CONTINUOUS
 62
     7
  5
1B5
 10
910601.989
 20
7279886.387
 30
0.0
 40
8.0
  1
170'
 50
88.2047
  7
ROMANS
 72
     4
 11
910598.408701
 21
7279899.83977
 31
0.0
210
0.0
220
0.0
230
1.0
  0
TEXT
  8
11
  6
CONTINUOUS
 62
     7
  5
1B6
 10
910427.106
 20
7279879.957
 30
0.0
 40
8.0
  1
200.01'
 50
88.2047
  7
ROMANS
 72
     4
 11
910423.901646
 21
7279905.403879
 31
0.0
210
0.0
220
0.0
230
1.0
  0
TEXT
  8
11
  6
CONTINUOUS
 62
     7
  5
1B7
 10
910058.96
 20
7279891.496
 30
0.0
 40
8.0
  1
200.02'
 50
88.2047
  7
ROMANS
 72
     4
 11
910055.755646
 21
7279916.942879
 31
0.0
210
0.0
220
0.0
230
1.0
  0
TEXT
  8
11
  6
CONTINUOUS
 62
     7
  5
1B8
 10
910065.857
 20
7280111.519
 30
0.0
 40
8.0
  1
200'
 50
88.2047
  7
ROMANS
 72
     4
 11
910062.276701
 21
7280124.97177
 31
0.0
210
0.0
220
0.0
230
1.0
  0
TEXT
  8
11
  6
CONTINUOUS
 62
     7
  5
1B9
 10
910457.908
 20
7280099.23
 30
0.0
 40
8.0
  1
200'
 50
88.2047
  7
ROMANS
 72
     4
 11
910454.327701
 21
7280112.68277
 31
0.0
210
0.0
220
0.0
230
1.0
  0
TEXT
  8
11
  6
CONTINUOUS
 62
     7
  5
1BA
 10
910465.706
 20
7280348.021
 30
0.0
 40
8.0
  1
200'
 50
88.2047
  7
ROMANS
 72
     4
 11
910462.125701
 21
7280361.47377
 31
0.0
210
0.0
220
0.0
230
1.0
  0
TEXT
  8
11
  6
CONTINUOUS
 62
     7
  5
1BB
 10
910073.655
 20
7280360.31
 30
0.0
 40
8.0
  1
200'
 50
88.2047
  7
ROMANS
 72
     4
 11
910070.074701
 21
7280373.76277
 31
0.0
210
0.0
220
0.0
230
1.0
  0
TEXT
  8
11
  6
CONTINUOUS
 62
     7
  5
1BC
 10
910081.453
 20
7280609.1
 30
0.0
 40
8.0
  1
200'
 50
88.2047
  7
ROMANS
 72
     4
 11
910077.872701
 21
7280622.55277
 31
0.0
210
0.0
220
0.0
230
1.0
  0
TEXT
  8
11
  6
CONTINUOUS
 62
     7
  5
1BD
 10
910475.896
 20
7280596.737
 30
0.0
 40
8.0
  1
200'
 50
88.2047
  7
ROMANS
 72
     4
 11
910472.315701
 21
7280610.18977
 31
0.0
210
0.0
220
0.0
230
1.0
  0
TEXT
  8
11
  6
CONTINUOUS
 62
     7
  5
1BE
 10
910483.618
 20
7280843.134
 30
0.0
 40
8.0
  1
200'
 50
88.2047
  7
ROMANS
 72
     4
 11
910480.037701
 21
7280856.58677
 31
0.0
210
0.0
220
0.0
230
1.0
  0
TEXT
  8
11
  6
CONTINUOUS
 62
     7
  5
1BF
 10
910086.785
 20
7280855.573
 30
0.0
 40
8.0
  1
200'
 50
88.2047
  7
ROMANS
 72
     4
 11
910083.204701
 21
7280869.02577
 31
0.0
210
0.0
220
0.0
230
1.0
  0
TEXT
  8
11
  6
CONTINUOUS
 62
     7
  5
1C0
 10
910094.094
 20
7281088.738
 30
0.0
 40
8.0
  1
200'
 50
88.2047
  7
ROMANS
 72
     4
 11
910090.513701
 21
7281102.19077
 31
0.0
210
0.0
220
0.0
230
1.0
  0
TEXT
  8
11
  6
CONTINUOUS
 62
     7
  5
1C1
 10
910486.184
 20
7281076.449
 30
0.0
 40
8.0
  1
200'
 50
88.2047
  7
ROMANS
 72
     4
 11
910482.603701
 21
7281089.90177
 31
0.0
210
0.0
220
0.0
230
1.0
  0
TEXT
  8
11
  6
CONTINUOUS
 62
     7
  5
1C2
 10
910493.606
 20
7281313.278
 30
0.0
 40
8.0
  1
200'
 50
88.2047
  7
ROMANS
 72
     4
 11
910490.025701
 21
7281326.73077
 31
0.0
210
0.0
220
0.0
230
1.0
  0
TEXT
  8
11
  6
CONTINUOUS
 62
     7
  5
1C3
 10
910106.335
 20
7281325.417
 30
0.0
 40
8.0
  1
200'
 50
88.2047
  7
ROMANS
 72
     4
 11
910102.754701
 21
7281338.86977
 31
0.0
210
0.0
220
0.0
230
1.0
  0
TEXT
  8
11
  6
CONTINUOUS
 62
     7
  5
1C4
 10
910113.383
 20
7281550.286
 30
0.0
 40
8.0
  1
200'
 50
88.2047
  7
ROMANS
 72
     4
 11
910109.802701
 21
7281563.73877
 31
0.0
210
0.0
220
0.0
230
1.0
  0
TEXT
  8
11
  6
CONTINUOUS
 62
     7
  5
1C5
 10
910503.044
 20
7281538.073
 30
0.0
 40
8.0
  1
200'
 50
88.2047
  7
ROMANS
 72
     4
 11
910499.463701
 21
7281551.52577
 31
0.0
210
0.0
220
0.0
230
1.0
  0
TEXT
  8
11
  6
CONTINUOUS
 62
     7
  5
1C6
 10
910511.443
 20
7281806.001
 30
0.0
 40
8.0
  1
200'
 50
88.2047
  7
ROMANS
 72
     4
 11
910507.862701
 21
7281819.45377
 31
0.0
210
0.0
220
0.0
230
1.0
  0
TEXT
  8
11
  6
CONTINUOUS
 62
     7
  5
1C7
 10
910121.782
 20
7281818.215
 30
0.0
 40
8.0
  1
200'
 50
88.2047
  7
ROMANS
 72
     4
 11
910118.201701
 21
7281831.66777
 31
0.0
210
0.0
220
0.0
230
1.0
  0
TEXT
  8
11
  6
CONTINUOUS
 62
     7
  5
1C8
 10
910128.418
 20
7282029.956
 30
0.0
 40
8.0
  1
200'
 50
88.2047
  7
ROMANS
 72
     4
 11
910124.837701
 21
7282043.40877
 31
0.0
210
0.0
220
0.0
230
1.0
  0
TEXT
  8
11
  6
CONTINUOUS
 62
     7
  5
1C9
 10
910313.14
 20
7282024.165
 30
0.0
 40
8.0
  1
200'
 50
88.2047
  7
ROMANS
 72
     4
 11
910309.559701
 21
7282037.61777
 31
0.0
210
0.0
220
0.0
230
1.0
  0
TEXT
  8
11
  6
CONTINUOUS
 62
     7
  5
1CA
 10
909745.888
 20
7282041.945
 30
0.0
 40
8.0
  1
200'
 50
88.2047
  7
ROMANS
 72
     4
 11
909742.307701
 21
7282055.39777
 31
0.0
210
0.0
220
0.0
230
1.0
  0
TEXT
  8
11
  6
CONTINUOUS
 62
     7
  5
1CB
 10
909432.724
 20
7282051.761
 30
0.0
 40
8.0
  1
200'
 50
88.2047
  7
ROMANS
 72
     4
 11
909429.143701
 21
7282065.21377
 31
0.0
210
0.0
220
0.0
230
1.0
  0
TEXT
  8
11
  6
CONTINUOUS
 62
     7
  5
1CC
 10
910559.421
 20
7279750.658
 30
0.0
 40
8.0
  1
55'
 50
88.2047
  7
ROMANS
 72
     4
 11
910555.715386
 21
7279760.112733
 31
0.0
210
0.0
220
0.0
230
1.0
  0
TEXT
  8
11
  6
CONTINUOUS
 62
     7
  5
1CD
 10
909923.532
 20
7279770.589
 30
0.0
 40
8.0
  1
55'
 50
88.2047
  7
ROMANS
 72
     4
 11
909919.826386
 21
7279780.043733
 31
0.0
210
0.0
220
0.0
230
1.0
  0
TEXT
  8
11
  6
CONTINUOUS
 62
     7
  5
1CE
 10
909383.265
 20
7279787.523
 30
0.0
 40
8.0
  1
55'
 50
88.2047
  7
ROMANS
 72
     4
 11
909379.559386
 21
7279796.977733
 31
0.0
210
0.0
220
0.0
230
1.0
  0
TEXT
  8
11
  6
CONTINUOUS
 62
     7
  5
1CF
 10
909328.284
 20
7279789.247
 30
0.0
 40
8.0
  1
50'
 50
88.2047
  7
ROMANS
 72
     4
 11
909324.578386
 21
7279798.701733
 31
0.0
210
0.0
220
0.0
230
1.0
  0
TEXT
  8
11
  6
CONTINUOUS
 62
     7
  5
1D0
 10
910581.494
 20
7279996.86
 30
0.0
 40
8.0
  1
20
 50
88.2047
  7
ROMANS
 72
     4
 11
910577.704331
 21
7280003.63305
 31
0.0
210
0.0
220
0.0
230
1.0
  0
TEXT
  8
11
  6
CONTINUOUS
 62
     7
  5
1D1
 10
909933.653
 20
7280017.165
 30
0.0
 40
8.0
  1
20
 50
88.2047
  7
ROMANS
 72
     4
 11
909929.863331
 21
7280023.93805
 31
0.0
210
0.0
220
0.0
230
1.0
  0
TEXT
  8
11
  6
CONTINUOUS
 62
     7
  5
1D2
 10
909836.345
 20
7279855.21
 30
0.0
 40
8.0
  1
60'
 50
358.2047
  7
ROMANS
 72
     4
 11
909845.798734
 21
7279858.915645
 31
0.0
210
0.0
220
0.0
230
1.0
  0
TEXT
  8
11
  6
CONTINUOUS
 62
     7
  5
1D3
 10
909941.068
 20
7280253.742
 30
0.0
 40
8.0
  1
60'
 50
88.2047
  7
ROMANS
 72
     4
 11
909937.362386
 21
7280263.196733
 31
0.0
210
0.0
220
0.0
230
1.0
  0
TEXT
  8
11
  6
CONTINUOUS
 62
     7
  5
1D4
 10
910588.909
 20
7280233.436
 30
0.0
 40
8.0
  1
60'
 50
88.2047
  7
ROMANS
 72
     4
 11
910585.203386
 21
7280242.890733
 31
0.0
210
0.0
220
0.0
230
1.0
  0
TEXT
  8
11
  6
CONTINUOUS
 62
     7
  5
1D5
 10
910603.981
 20
7280714.271
 30
0.0
 40
8.0
  1
60'
 50
88.2047
  7
ROMANS
 72
     4
 11
910600.275386
 21
7280723.725733
 31
0.0
210
0.0
220
0.0
230
1.0
  0
TEXT
  8
11
  6
CONTINUOUS
 62
     7
  5
1D6
 10
909953.748
 20
7280734.652
 30
0.0
 40
8.0
  1
60'
 50
88.2047
  7
ROMANS
 72
     4
 11
909950.042386
 21
7280744.106733
 31
0.0
210
0.0
220
0.0
230
1.0
  0
TEXT
  8
11
  6
CONTINUOUS
 62
     7
  5
1D7
 10
909968.82
 20
7281215.49
 30
0.0
 40
8.0
  1
60'
 50
88.2047
  7
ROMANS
 72
     4
 11
909965.114386
 21
7281224.944733
 31
0.0
210
0.0
220
0.0
230
1.0
  0
TEXT
  8
11
  6
CONTINUOUS
 62
     7
  5
1D8
 10
910616.662
 20
7281195.184
 30
0.0
 40
8.0
  1
60'
 50
88.2047
  7
ROMANS
 72
     4
 11
910612.956386
 21
7281204.638733
 31
0.0
210
0.0
220
0.0
230
1.0
  0
TEXT
  8
11
  6
CONTINUOUS
 62
     7
  5
1D9
 10
910631.538
 20
7281669.806
 30
0.0
 40
8.0
  1
60'
 50
88.2047
  7
ROMANS
 72
     4
 11
910627.832386
 21
7281679.260733
 31
0.0
210
0.0
220
0.0
230
1.0
  0
TEXT
  8
11
  6
CONTINUOUS
 62
     7
  5
1DA
 10
909978.999
 20
7281690.259
 30
0.0
 40
8.0
  1
60'
 50
88.2047
  7
ROMANS
 72
     4
 11
909975.293386
 21
7281699.713733
 31
0.0
210
0.0
220
0.0
230
1.0
  0
TEXT
  8
11
  6
CONTINUOUS
 62
     7
  5
1DB
 10
909458.553
 20
7282189.331
 30
0.0
 40
8.0
  1
64'
 50
88.2047
  7
ROMANS
 72
     4
 11
909454.847386
 21
7282198.785733
 31
0.0
210
0.0
220
0.0
230
1.0
  0
TEXT
  8
11
  6
CONTINUOUS
 62
     7
  5
1DC
 10
909852.995
 20
7282176.968
 30
0.0
 40
8.0
  1
64'
 50
88.2047
  7
ROMANS
 72
     4
 11
909849.289386
 21
7282186.422733
 31
0.0
210
0.0
220
0.0
230
1.0
  0
TEXT
  8
11
  6
CONTINUOUS
 62
     7
  5
1DD
 10
909996.428
 20
7282172.472
 30
0.0
 40
8.0
  1
64'
 50
88.2047
  7
ROMANS
 72
     4
 11
909992.722386
 21
7282181.926733
 31
0.0
210
0.0
220
0.0
230
1.0
  0
TEXT
  8
11
  6
CONTINUOUS
 62
     7
  5
1DE
 10
910417.166
 20
7282159.284
 30
0.0
 40
8.0
  1
64'
 50
88.2047
  7
ROMANS
 72
     4
 11
910413.460386
 21
7282168.738733
 31
0.0
210
0.0
220
0.0
230
1.0
  0
TEXT
  8
11
  6
CONTINUOUS
 62
     7
  5
1DF
 10
910582.115
 20
7282154.115
 30
0.0
 40
8.0
  1
75'
 50
88.2047
  7
ROMANS
 72
     4
 11
910578.409386
 21
7282163.569733
 31
0.0
210
0.0
220
0.0
230
1.0
  0
TEXT
  8
11
  6
CONTINUOUS
 62
     7
  5
1E0
 10
910656.223
 20
7282151.792
 30
0.0
 40
8.0
  1
75'
 50
88.2047
  7
ROMANS
 72
     4
 11
910652.517386
 21
7282161.246733
 31
0.0
210
0.0
220
0.0
230
1.0
  0
TEXT
  8
11
  6
CONTINUOUS
 62
     7
  5
1E1
 10
910540.503
 20
7280462.744
 30
0.0
 40
8.0
  1
185'
 50
358.2047
  7
ROMANS
 72
     1
 11
910554.080085
 21
7280470.322367
 31
0.0
210
0.0
220
0.0
230
1.0
 73
     3
  0
TEXT
  8
11
  6
CONTINUOUS
 62
     7
  5
1E2
 10
910535.921
 20
7280276.796
 30
0.0
 40
8.0
  1
170'
 50
358.2047
  7
ROMANS
210
0.0
220
0.0
230
1.0
  0
TEXT
  8
11
  6
CONTINUOUS
 62
     7
  5
1E3
 10
909948.65
 20
7280495.61
 30
0.0
 40
8.0
  1
20
 50
88.2047
  7
ROMANS
 72
     4
 11
909944.860331
 21
7280502.38305
 31
0.0
210
0.0
220
0.0
230
1.0
  0
TEXT
  8
11
  6
CONTINUOUS
 62
     7
  5
1E4
 10
910598.882
 20
7280475.228
 30
0.0
 40
8.0
  1
20
 50
88.2047
  7
ROMANS
 72
     4
 11
910595.092331
 21
7280482.00105
 31
0.0
210
0.0
220
0.0
230
1.0
  0
TEXT
  8
11
  6
CONTINUOUS
 62
     7
  5
1E5
 10
910613.878
 20
7280953.673
 30
0.0
 40
8.0
  1
20
 50
88.2047
  7
ROMANS
 72
     4
 11
910610.088331
 21
7280960.44605
 31
0.0
210
0.0
220
0.0
230
1.0
  0
TEXT
  8
11
  6
CONTINUOUS
 62
     7
  5
1E6
 10
909961.255
 20
7280974.128
 30
0.0
 40
8.0
  1
20
 50
88.2047
  7
ROMANS
 72
     4
 11
909957.465331
 21
7280980.90105
 31
0.0
210
0.0
220
0.0
230
1.0
  0
TEXT
  8
11
  6
CONTINUOUS
 62
     7
  5
1E7
 10
909846.692
 20
7280185.336
 30
0.0
 40
8.0
  1
60'
 50
358.2047
  7
ROMANS
 72
     4
 11
909856.145734
 21
7280189.041645
 31
0.0
210
0.0
220
0.0
230
1.0
  0
TEXT
  8
11
  6
CONTINUOUS
 62
     7
  5
1E8
 10
909851.641
 20
7280343.223
 30
0.0
 40
8.0
  1
60'
 50
358.2047
  7
ROMANS
 72
     4
 11
909861.094734
 21
7280346.928645
 31
0.0
210
0.0
220
0.0
230
1.0
  0
TEXT
  8
11
  6
CONTINUOUS
 62
     7
  5
1E9
 10
909861.313
 20
7280651.819
 30
0.0
 40
8.0
  1
60'
 50
358.2047
  7
ROMANS
 72
     4
 11
909870.766734
 21
7280655.524645
 31
0.0
210
0.0
220
0.0
230
1.0
  0
TEXT
  8
11
  6
CONTINUOUS
 62
     7
  5
1EA
 10
909866.413
 20
7280814.49
 30
0.0
 40
8.0
  1
60'
 50
358.2047
  7
ROMANS
 72
     4
 11
909875.866734
 21
7280818.195645
 31
0.0
210
0.0
220
0.0
230
1.0
  0
TEXT
  8
11
  6
CONTINUOUS
 62
     7
  5
1EB
 10
910548.685
 20
7280682.596
 30
0.0
 40
8.0
  1
170'
 50
358.2047
  7
ROMANS
210
0.0
220
0.0
230
1.0
  0
TEXT
  8
11
  6
CONTINUOUS
 62
     7
  5
1EC
 10
910551.086
 20
7280759.146
 30
0.0
 40
8.0
  1
170'
 50
358.2047
  7
ROMANS
210
0.0
220
0.0
230
1.0
  0
TEXT
  8
11
  6
CONTINUOUS
 62
     7
  5
1ED
 10
910184.604
 20
7281170.333
 30
0.0
 40
8.0
  1
185'
 50
358.2047
  7
ROMANS
 72
     1
 11
910197.930455
 21
7281169.915294
 31
0.0
210
0.0
220
0.0
230
1.0
  0
TEXT
  8
11
  6
CONTINUOUS
 62
     7
  5
1EE
 10
910366.286
 20
7281164.638
 30
0.0
 40
8.0
  1
185'
 50
358.2047
  7
ROMANS
 72
     1
 11
910379.612455
 21
7281164.220294
 31
0.0
210
0.0
220
0.0
230
1.0
  0
TEXT
  8
11
  6
CONTINUOUS
 62
     7
  5
1EF
 10
910368.76
 20
7281243.58
 30
0.0
 40
8.0
  1
185'
 50
358.2047
  7
ROMANS
 72
     1
 11
910382.086455
 21
7281243.162294
 31
0.0
210
0.0
220
0.0
230
1.0
  0
TEXT
  8
11
  6
CONTINUOUS
 62
     7
  5
1F0
 10
910182.297
 20
7281249.426
 30
0.0
 40
8.0
  1
185'
 50
358.2047
  7
ROMANS
 72
     1
 11
910195.623455
 21
7281249.008294
 31
0.0
210
0.0
220
0.0
230
1.0
  0
TEXT
  8
11
  6
CONTINUOUS
 62
     7
  5
1F1
 10
910563.532
 20
7281156.255
 30
0.0
 40
8.0
  1
170'
 50
358.2047
  7
ROMANS
210
0.0
220
0.0
230
1.0
  0
TEXT
  8
11
  6
CONTINUOUS
 62
     7
  5
1F2
 10
910551.859
 20
7280977.712
 30
0.0
 40
8.0
  1
185'
 50
358.2047
  7
ROMANS
 72
     1
 11
910565.185455
 21
7280977.294294
 31
0.0
210
0.0
220
0.0
230
1.0
  0
TEXT
  8
11
  6
CONTINUOUS
 62
     7
  5
1F3
 10
910550.51
 20
7280934.654
 30
0.0
 40
8.0
  1
185'
 50
358.2047
  7
ROMANS
 72
     1
 11
910563.836455
 21
7280934.236294
 31
0.0
210
0.0
220
0.0
230
1.0
  0
TEXT
  8
11
  6
CONTINUOUS
 62
     7
  5
1F4
 10
909991.117
 20
7280952.187
 30
0.0
 40
8.0
  1
185'
 50
358.2047
  7
ROMANS
 72
     1
 11
910004.443455
 21
7280951.769294
 31
0.0
210
0.0
220
0.0
230
1.0
  0
TEXT
  8
11
  6
CONTINUOUS
 62
     7
  5
1F5
 10
909992.468
 20
7280995.246
 30
0.0
 40
8.0
  1
185'
 50
358.2047
  7
ROMANS
 72
     1
 11
910005.794455
 21
7280994.828294
 31
0.0
210
0.0
220
0.0
230
1.0
  0
TEXT
  8
11
  6
CONTINUOUS
 62
     7
  5
1F6
 10
909976.252
 20
7281452.572
 30
0.0
 40
8.0
  1
20
 50
88.2047
  7
ROMANS
 72
     4
 11
909972.462331
 21
7281459.34505
 31
0.0
210
0.0
220
0.0
230
1.0
  0
TEXT
  8
11
  6
CONTINUOUS
 62
     7
  5
1F7
 10
910631.266
 20
7281432.041
 30
0.0
 40
8.0
  1
20
 50
88.2047
  7
ROMANS
 72
     4
 11
910627.476331
 21
7281438.81405
 31
0.0
210
0.0
220
0.0
230
1.0
  0
TEXT
  8
11
  6
CONTINUOUS
 62
     7
  5
1F8
 10
910646.262
 20
7281910.486
 30
0.0
 40
8.0
  1
20
 50
88.2047
  7
ROMANS
 72
     4
 11
910642.472331
 21
7281917.25905
 31
0.0
210
0.0
220
0.0
230
1.0
  0
TEXT
  8
11
  6
CONTINUOUS
 62
     7
  5
1F9
 10
909991.249
 20
7281931.016
 30
0.0
 40
8.0
  1
20
 50
88.2047
  7
ROMANS
 72
     4
 11
909987.459331
 21
7281937.78905
 31
0.0
210
0.0
220
0.0
230
1.0
  0
TEXT
  8
11
  6
CONTINUOUS
 62
     7
  5
1FA
 10
909838.253
 20
7281935.812
 30
0.0
 40
8.0
  1
20
 50
88.2047
  7
ROMANS
 72
     4
 11
909834.463331
 21
7281942.58505
 31
0.0
210
0.0
220
0.0
230
1.0
  0
TEXT
  8
11
  6
CONTINUOUS
 62
     7
  5
1FB
 10
909472.497
 20
7281947.276
 30
0.0
 40
8.0
  1
20
 50
88.2047
  7
ROMANS
 72
     4
 11
909468.707331
 21
7281954.04905
 31
0.0
210
0.0
220
0.0
230
1.0
  0
TEXT
  8
11
  6
CONTINUOUS
 62
     7
  5
1FC
 10
909486.723
 20
7282401.122
 30
0.0
 40
8.0
  1
20
 50
88.2047
  7
ROMANS
 72
     4
 11
909482.933331
 21
7282407.89505
 31
0.0
210
0.0
220
0.0
230
1.0
  0
TEXT
  8
11
  6
CONTINUOUS
 62
     7
  5
1FD
 10
910662.878
 20
7282364.257
 30
0.0
 40
8.0
  1
20
 50
88.2047
  7
ROMANS
 72
     4
 11
910659.088331
 21
7282371.03005
 31
0.0
210
0.0
220
0.0
230
1.0
  0
TEXT
  8
11
  6
CONTINUOUS
 62
     7
  5
1FE
 10
910006.339
 20
7281437.807
 30
0.0
 40
8.0
  1
185'
 50
358.2047
  7
ROMANS
 72
     1
 11
910019.665455
 21
7281437.389294
 31
0.0
210
0.0
220
0.0
230
1.0
  0
TEXT
  8
11
  6
CONTINUOUS
 62
     7
  5
1FF
 10
910007.538
 20
7281476.083
 30
0.0
 40
8.0
  1
185'
 50
358.2047
  7
ROMANS
 72
     1
 11
910020.864455
 21
7281475.665294
 31
0.0
210
0.0
220
0.0
230
1.0
  0
TEXT
  8
11
  6
CONTINUOUS
 62
     7
  5
200
 10
910557.366
 20
7281458.848
 30
0.0
 40
8.0
  1
185'
 50
358.2047
  7
ROMANS
 72
     1
 11
910570.692455
 21
7281458.430294
 31
0.0
210
0.0
220
0.0
230
1.0
  0
TEXT
  8
11
  6
CONTINUOUS
 62
     7
  5
201
 10
910556.018
 20
7281415.79
 30
0.0
 40
8.0
  1
185'
 50
358.2047
  7
ROMANS
 72
     1
 11
910569.344455
 21
7281415.372294
 31
0.0
210
0.0
220
0.0
230
1.0
  0
TEXT
  8
11
  6
CONTINUOUS
 62
     7
  5
202
 10
910571.239
 20
7281901.41
 30
0.0
 40
8.0
  1
185'
 50
358.2047
  7
ROMANS
 72
     1
 11
910584.565455
 21
7281900.992294
 31
0.0
210
0.0
220
0.0
230
1.0
  0
TEXT
  8
11
  6
CONTINUOUS
 62
     7
  5
203
 10
910572.363
 20
7281937.293
 30
0.0
 40
8.0
  1
185'
 50
358.2047
  7
ROMANS
 72
     1
 11
910585.689455
 21
7281936.875294
 31
0.0
210
0.0
220
0.0
230
1.0
  0
TEXT
  8
11
  6
CONTINUOUS
 62
     7
  5
204
 10
910020.145
 20
7281954.602
 30
0.0
 40
8.0
  1
185'
 50
358.2047
  7
ROMANS
 72
     1
 11
910033.471455
 21
7281954.184294
 31
0.0
210
0.0
220
0.0
230
1.0
  0
TEXT
  8
11
  6
CONTINUOUS
 62
     7
  5
205
 10
910018.945
 20
7281916.327
 30
0.0
 40
8.0
  1
185'
 50
358.2047
  7
ROMANS
 72
     1
 11
910032.271455
 21
7281915.909294
 31
0.0
210
0.0
220
0.0
230
1.0
  0
TEXT
  8
11
  6
CONTINUOUS
 62
     7
  5
206
 10
910194.97
 20
7281653.709
 30
0.0
 40
8.0
  1
185'
 50
358.2047
  7
ROMANS
 72
     1
 11
910208.296455
 21
7281653.291294
 31
0.0
210
0.0
220
0.0
230
1.0
  0
TEXT
  8
11
  6
CONTINUOUS
 62
     7
  5
207
 10
910381.432
 20
7281647.865
 30
0.0
 40
8.0
  1
185'
 50
358.2047
  7
ROMANS
 72
     1
 11
910394.758455
 21
7281647.447294
 31
0.0
210
0.0
220
0.0
230
1.0
  0
TEXT
  8
11
  6
CONTINUOUS
 62
     7
  5
208
 10
910383.832
 20
7281724.416
 30
0.0
 40
8.0
  1
185'
 50
358.2047
  7
ROMANS
 72
     1
 11
910397.158455
 21
7281723.998294
 31
0.0
210
0.0
220
0.0
230
1.0
  0
TEXT
  8
11
  6
CONTINUOUS
 62
     7
  5
209
 10
910197.368
 20
7281730.261
 30
0.0
 40
8.0
  1
185'
 50
358.2047
  7
ROMANS
 72
     1
 11
910210.694455
 21
7281729.843294
 31
0.0
210
0.0
220
0.0
230
1.0
  0
TEXT
  8
11
  6
CONTINUOUS
 62
     7
  5
20A
 10
910210.04
 20
7282134.546
 30
0.0
 40
8.0
  1
185'
 50
358.2047
  7
ROMANS
 72
     1
 11
910223.366455
 21
7282134.128294
 31
0.0
210
0.0
220
0.0
230
1.0
  0
TEXT
  8
11
  6
CONTINUOUS
 62
     7
  5
20B
 10
910559.636
 20
7281642.724
 30
0.0
 40
8.0
  1
170'
 50
358.2047
  7
ROMANS
210
0.0
220
0.0
230
1.0
  0
TEXT
  8
11
  6
CONTINUOUS
 62
     7
  5
20C
 10
909876.46
 20
7281135.048
 30
0.0
 40
8.0
  1
60'
 50
358.2047
  7
ROMANS
 72
     4
 11
909885.913734
 21
7281138.753645
 31
0.0
210
0.0
220
0.0
230
1.0
  0
TEXT
  8
11
  6
CONTINUOUS
 62
     7
  5
20D
 10
909881.259
 20
7281288.15
 30
0.0
 40
8.0
  1
60'
 50
358.2047
  7
ROMANS
 72
     4
 11
909890.712734
 21
7281291.855645
 31
0.0
210
0.0
220
0.0
230
1.0
  0
TEXT
  8
11
  6
CONTINUOUS
 62
     7
  5
20E
 10
909891.008
 20
7281599.138
 30
0.0
 40
8.0
  1
60'
 50
358.2047
  7
ROMANS
 72
     4
 11
909900.461734
 21
7281602.843645
 31
0.0
210
0.0
220
0.0
230
1.0
  0
TEXT
  8
11
  6
CONTINUOUS
 62
     7
  5
20F
 10
909896.406
 20
7281771.377
 30
0.0
 40
8.0
  1
60'
 50
358.2047
  7
ROMANS
 72
     4
 11
909905.859734
 21
7281775.082645
 31
0.0
210
0.0
220
0.0
230
1.0
  0
TEXT
  8
11
  6
CONTINUOUS
 62
     7
  5
210
 10
909907.128
 20
7282113.465
 30
0.0
 40
8.0
  1
60'
 50
358.2047
  7
ROMANS
 72
     4
 11
909916.581734
 21
7282117.170645
 31
0.0
210
0.0
220
0.0
230
1.0
  0
TEXT
  8
11
  6
CONTINUOUS
 62
     7
  5
211
 10
910561.955
 20
7281716.672
 30
0.0
 40
8.0
  1
170'
 50
358.2047
  7
ROMANS
210
0.0
220
0.0
230
1.0
  0
TEXT
  8
11
  6
CONTINUOUS
 62
     7
  5
212
 10
910347.62
 20
7282129.605
 30
0.0
 40
8.0
  1
120'
 50
358.2047
  7
ROMANS
 72
     1
 11
910361.197085
 21
7282137.183367
 31
0.0
210
0.0
220
0.0
230
1.0
 73
     3
  0
TEXT
  8
11
  6
CONTINUOUS
 62
     7
  5
213
 10
910446.856
 20
7282126.211
 30
0.0
 40
8.0
  1
65.04'
 50
356.104794
  7
ROMANS
 72
     1
 11
910468.684172
 21
7282132.743263
 31
0.0
210
0.0
220
0.0
230
1.0
 73
     3
  0
TEXT
  8
11
  6
CONTINUOUS
 62
     7
  5
214
 10
910510.516
 20
7282121.875
 30
0.0
 40
8.0
  1
85.06'
 50
356.104794
  7
ROMANS
 72
     1
 11
910532.344172
 21
7282128.407263
 31
0.0
210
0.0
220
0.0
230
1.0
 73
     3
  0
TEXT
  8
11
  6
CONTINUOUS
 62
     7
  5
215
 10
910613.413
 20
7282115.771
 30
0.0
 40
8.0
  1
70'
 50
358.2047
  7
ROMANS
 72
     1
 11
910622.992049
 21
7282123.474682
 31
0.0
210
0.0
220
0.0
230
1.0
 73
     3
  0
TEXT
  8
11
  6
CONTINUOUS
 62
     7
  5
216
 10
910497.732
 20
7282006.583
 30
0.0
 40
8.0
  1
197.62'
 50
88.2047
  7
ROMANS
 72
     4
 11
910494.527646
 21
7282032.029879
 31
0.0
210
0.0
220
0.0
230
1.0
  0
TEXT
  8
11
  6
CONTINUOUS
 62
     7
  5
217
 10
910681.356
 20
7282000.827
 30
0.0
 40
8.0
  1
164.51'
 50
88.2047
  7
ROMANS
 72
     4
 11
910678.151646
 21
7282026.273879
 31
0.0
210
0.0
220
0.0
230
1.0
  0
TEXT
  8
11
  6
CONTINUOUS
 62
     7
  5
218
 10
910454.053
 20
7282204.758
 30
0.0
 40
8.0
  1
65.04'
 50
0.304606
  7
ROMANS
 72
     1
 11
910475.386699
 21
7282204.871419
 31
0.0
210
0.0
220
0.0
230
1.0
  0
TEXT
  8
11
  6
CONTINUOUS
 62
     7
  5
219
 10
910516.823
 20
7282205.092
 30
0.0
 40
8.0
  1
85.06'
 50
0.304606
  7
ROMANS
 72
     1
 11
910538.156699
 21
7282205.205419
 31
0.0
210
0.0
220
0.0
230
1.0
  0
TEXT
  8
11
  6
CONTINUOUS
 62
     7
  5
21A
 10
910613.962
 20
7282204.797
 30
0.0
 40
8.0
  1
70'
 50
358.2047
  7
ROMANS
 72
     1
 11
910623.290419
 21
7282204.504609
 31
0.0
210
0.0
220
0.0
230
1.0
  0
TEXT
  8
11
  6
CONTINUOUS
 62
     7
  5
21B
 10
910347.824
 20
7282207.637
 30
0.0
 40
8.0
  1
120'
 50
358.2047
  7
ROMANS
 72
     1
 11
910361.150455
 21
7282207.219294
 31
0.0
210
0.0
220
0.0
230
1.0
  0
TEXT
  8
11
  6
CONTINUOUS
 62
     7
  5
21C
 10
910212.428
 20
7282210.738
 30
0.0
 40
8.0
  1
185'
 50
358.2047
  7
ROMANS
 72
     1
 11
910225.754455
 21
7282210.320294
 31
0.0
210
0.0
220
0.0
230
1.0
  0
TEXT
  8
11
  6
CONTINUOUS
 62
     7
  5
21D
 10
910038.882
 20
7282216.177
 30
0.0
 40
8.0
  1
185'
 50
358.2047
  7
ROMANS
 72
     1
 11
910052.208455
 21
7282215.759294
 31
0.0
210
0.0
220
0.0
230
1.0
  0
TEXT
  8
11
  6
CONTINUOUS
 62
     7
  5
21E
 10
909840.614
 20
7282223.535
 30
0.0
 40
8.0
  1
175.4'
 50
358.2047
  7
ROMANS
 72
     1
 11
909861.936528
 21
7282222.866663
 31
0.0
210
0.0
220
0.0
230
1.0
  0
TEXT
  8
11
  6
CONTINUOUS
 62
     7
  5
21F
 10
909673.785
 20
7282228.764
 30
0.0
 40
8.0
  1
175.4'
 50
358.2047
  7
ROMANS
 72
     1
 11
909695.107528
 21
7282228.095663
 31
0.0
210
0.0
220
0.0
230
1.0
  0
TEXT
  8
11
  6
CONTINUOUS
 62
     7
  5
220
 10
909482.688
 20
7282234.754
 30
0.0
 40
8.0
  1
175.4'
 50
358.2047
  7
ROMANS
 72
     1
 11
909504.010528
 21
7282234.085663
 31
0.0
210
0.0
220
0.0
230
1.0
  0
TEXT
  8
11
  6
CONTINUOUS
 62
     7
  5
221
 10
909470.449
 20
7281971.008
 30
0.0
 40
8.0
  1
155.36'
 50
358.2047
  7
ROMANS
 72
     1
 11
909495.769565
 21
7281970.214348
 31
0.0
210
0.0
220
0.0
230
1.0
  0
TEXT
  8
11
  6
CONTINUOUS
 62
     7
  5
222
 10
909626.083
 20
7281966.129
 30
0.0
 40
8.0
  1
155.36'
 50
358.2047
  7
ROMANS
 72
     1
 11
909651.403565
 21
7281965.335348
 31
0.0
210
0.0
220
0.0
230
1.0
  0
TEXT
  8
11
  6
CONTINUOUS
 62
     7
  5
223
 10
909783.955
 20
7281961.182
 30
0.0
 40
8.0
  1
155.36'
 50
358.2047
  7
ROMANS
 72
     1
 11
909809.275565
 21
7281960.388348
 31
0.0
210
0.0
220
0.0
230
1.0
  0
TEXT
  8
11
  6
CONTINUOUS
 62
     7
  5
224
 10
909468.439
 20
7282157.163
 30
0.0
 40
8.0
  1
155.39'
 50
358.2047
  7
ROMANS
 72
     1
 11
909494.010195
 21
7282164.365421
 31
0.0
210
0.0
220
0.0
230
1.0
 73
     3
  0
TEXT
  8
11
  6
CONTINUOUS
 62
     7
  5
225
 10
909783.063
 20
7282147.301
 30
0.0
 40
8.0
  1
140.39'
 50
358.2047
  7
ROMANS
 72
     1
 11
909808.634195
 21
7282154.503421
 31
0.0
210
0.0
220
0.0
230
1.0
 73
     3
  0
TEXT
  8
11
  6
CONTINUOUS
 62
     7
  5
226
 10
909485.716
 20
7282386.583
 30
0.0
 40
8.0
  1
175.42'
 50
358.2047
  7
ROMANS
 72
     1
 11
909511.287195
 21
7282393.785421
 31
0.0
210
0.0
220
0.0
230
1.0
 73
     3
  0
TEXT
  8
11
  6
CONTINUOUS
 62
     7
  5
227
 10
909676.059
 20
7282380.617
 30
0.0
 40
8.0
  1
175.42'
 50
358.2047
  7
ROMANS
 72
     1
 11
909701.630195
 21
7282387.819421
 31
0.0
210
0.0
220
0.0
230
1.0
 73
     3
  0
TEXT
  8
11
  6
CONTINUOUS
 62
     7
  5
228
 10
909835.051
 20
7282375.634
 30
0.0
 40
8.0
  1
175.42'
 50
358.2047
  7
ROMANS
 72
     1
 11
909860.622195
 21
7282382.836421
 31
0.0
210
0.0
220
0.0
230
1.0
 73
     3
  0
TEXT
  8
11
  6
CONTINUOUS
 62
     7
  5
229
 10
909441.457
 20
7282297.24
 30
0.0
 40
8.0
  1
165.71'
 50
88.2047
  7
ROMANS
 72
     4
 11
909438.252646
 21
7282322.686879
 31
0.0
210
0.0
220
0.0
230
1.0
  0
TEXT
  8
11
  6
CONTINUOUS
 62
     7
  5
22A
 10
909616.124
 20
7282291.766
 30
0.0
 40
8.0
  1
165.67'
 50
88.2047
  7
ROMANS
 72
     4
 11
909612.919646
 21
7282317.212879
 31
0.0
210
0.0
220
0.0
230
1.0
  0
TEXT
  8
11
  6
CONTINUOUS
 62
     7
  5
22B
 10
909790.791
 20
7282286.291
 30
0.0
 40
8.0
  1
165.72'
 50
88.2047
  7
ROMANS
 72
     4
 11
909787.586646
 21
7282311.737879
 31
0.0
210
0.0
220
0.0
230
1.0
  0
TEXT
  8
11
  6
CONTINUOUS
 62
     7
  5
22C
 10
909967.697
 20
7282280.746
 30
0.0
 40
8.0
  1
165.79'
 50
88.2047
  7
ROMANS
 72
     4
 11
909964.492646
 21
7282306.192879
 31
0.0
210
0.0
220
0.0
230
1.0
  0
TEXT
  8
11
  6
CONTINUOUS
 62
     7
  5
22D
 10
910151.321
 20
7282274.99
 30
0.0
 40
8.0
  1
165.85'
 50
88.2047
  7
ROMANS
 72
     4
 11
910148.116646
 21
7282300.436879
 31
0.0
210
0.0
220
0.0
230
1.0
  0
TEXT
  8
11
  6
CONTINUOUS
 62
     7
  5
22E
 10
910337.185
 20
7282269.164
 30
0.0
 40
8.0
  1
165.91'
 50
88.2047
  7
ROMANS
 72
     4
 11
910333.980646
 21
7282294.610879
 31
0.0
210
0.0
220
0.0
230
1.0
  0
TEXT
  8
11
  6
CONTINUOUS
 62
     7
  5
22F
 10
910520.809
 20
7282263.408
 30
0.0
 40
8.0
  1
163.59'
 50
88.2047
  7
ROMANS
 72
     4
 11
910517.604646
 21
7282288.854879
 31
0.0
210
0.0
220
0.0
230
1.0
  0
TEXT
  8
11
  6
CONTINUOUS
 62
     7
  5
230
 10
910690.997
 20
7282258.074
 30
0.0
 40
8.0
  1
130.53'
 50
88.2047
  7
ROMANS
 72
     4
 11
910687.792646
 21
7282283.520879
 31
0.0
210
0.0
220
0.0
230
1.0
  0
TEXT
  8
11
  6
CONTINUOUS
 62
     7
  5
231
 10
910396.704
 20
7282358.03
 30
0.0
 40
8.0
  1
185'
 50
358.2047
  7
ROMANS
 72
     1
 11
910410.281085
 21
7282365.608367
 31
0.0
210
0.0
220
0.0
230
1.0
 73
     3
  0
TEXT
  8
11
  6
CONTINUOUS
 62
     7
  5
232
 10
910596.004
 20
7282351.783
 30
0.0
 40
8.0
  1
185'
 50
358.2047
  7
ROMANS
 72
     1
 11
910609.581085
 21
7282359.361367
 31
0.0
210
0.0
220
0.0
230
1.0
 73
     3
  0
TEXT
  8
11
  6
CONTINUOUS
 62
     7
  5
233
 10
909638.628
 20
7282151.828
 30
0.0
 40
8.0
  1
155.39'
 50
358.2047
  7
ROMANS
 72
     1
 11
909664.199195
 21
7282159.030421
 31
0.0
210
0.0
220
0.0
230
1.0
 73
     3
  0
TEXT
  8
11
  6
CONTINUOUS
 62
     7
  5
234
 10
909554.465
 20
7279827.324
 30
0.0
 40
8.0
  1
450.19'
 50
358.2047
  7
ROMANS
 72
     1
 11
909579.785565
 21
7279826.530348
 31
0.0
210
0.0
220
0.0
230
1.0
  0
TEXT
  8
11
  6
CONTINUOUS
 62
     7
  5
235
 10
909613.808
 20
7281932.577
 30
0.0
 40
8.0
  1
466.08'
 50
358.2047
  7
ROMANS
 72
     1
 11
909639.379195
 21
7281939.779421
 31
0.0
210
0.0
220
0.0
230
1.0
 73
     3
  0
TEXT
  8
11
  6
CONTINUOUS
 62
     7
  5
236
 10
909613.543
 20
7281781.082
 30
0.0
 40
8.0
  1
466.01'
 50
358.2047
  7
ROMANS
 72
     1
 11
909639.114195
 21
7281788.284421
 31
0.0
210
0.0
220
0.0
230
1.0
 73
     3
  0
TEXT
  8
11
  6
CONTINUOUS
 62
     7
  5
237
 10
909599.576
 20
7281478.511
 30
0.0
 40
8.0
  1
465.89'
 50
358.2047
  7
ROMANS
 72
     1
 11
909625.147195
 21
7281485.713421
 31
0.0
210
0.0
220
0.0
230
1.0
 73
     3
  0
TEXT
  8
11
  6
CONTINUOUS
 62
     7
  5
238
 10
909611.038
 20
7281629.656
 30
0.0
 40
8.0
  1
465.95'
 50
358.2047
  7
ROMANS
 72
     1
 11
909636.609195
 21
7281636.858421
 31
0.0
210
0.0
220
0.0
230
1.0
 73
     3
  0
TEXT
  8
11
  6
CONTINUOUS
 62
     7
  5
239
 10
909594.832
 20
7281327.155
 30
0.0
 40
8.0
  1
465.82'
 50
358.2047
  7
ROMANS
 72
     1
 11
909620.403195
 21
7281334.357421
 31
0.0
210
0.0
220
0.0
230
1.0
 73
     3
  0
TEXT
  8
11
  6
CONTINUOUS
 62
     7
  5
23A
 10
909592.554
 20
7281175.722
 30
0.0
 40
8.0
  1
465.76'
 50
358.2047
  7
ROMANS
 72
     1
 11
909618.125195
 21
7281182.924421
 31
0.0
210
0.0
220
0.0
230
1.0
 73
     3
  0
TEXT
  8
11
  6
CONTINUOUS
 62
     7
  5
23B
 10
909594.015
 20
7281024.172
 30
0.0
 40
8.0
  1
465.7'
 50
358.2047
  7
ROMANS
 72
     1
 11
909615.588158
 21
7281031.499736
 31
0.0
210
0.0
220
0.0
230
1.0
 73
     3
  0
TEXT
  8
11
  6
CONTINUOUS
 62
     7
  5
23C
 10
909589.783
 20
7280872.801
 30
0.0
 40
8.0
  1
465.63'
 50
358.2047
  7
ROMANS
 72
     1
 11
909615.354195
 21
7280880.003421
 31
0.0
210
0.0
220
0.0
230
1.0
 73
     3
  0
TEXT
  8
11
  6
CONTINUOUS
 62
     7
  5
23D
 10
909585.038
 20
7280721.444
 30
0.0
 40
8.0
  1
465.57'
 50
358.2047
  7
ROMANS
 72
     1
 11
909610.609195
 21
7280728.646421
 31
0.0
210
0.0
220
0.0
230
1.0
 73
     3
  0
TEXT
  8
11
  6
CONTINUOUS
 62
     7
  5
23E
 10
909573.577
 20
7280570.299
 30
0.0
 40
8.0
  1
465.51'
 50
358.2047
  7
ROMANS
 72
     1
 11
909599.148195
 21
7280577.501421
 31
0.0
210
0.0
220
0.0
230
1.0
 73
     3
  0
TEXT
  8
11
  6
CONTINUOUS
 62
     7
  5
23F
 10
909573.312
 20
7280418.803
 30
0.0
 40
8.0
  1
465.45'
 50
358.2047
  7
ROMANS
 72
     1
 11
909598.883195
 21
7280426.005421
 31
0.0
210
0.0
220
0.0
230
1.0
 73
     3
  0
TEXT
  8
11
  6
CONTINUOUS
 62
     7
  5
240
 10
909559.079
 20
7279964.737
 30
0.0
 40
8.0
  1
465.26'
 50
358.2047
  7
ROMANS
 72
     1
 11
909584.650195
 21
7279971.939421
 31
0.0
210
0.0
220
0.0
230
1.0
 73
     3
  0
TEXT
  8
11
  6
CONTINUOUS
 62
     7
  5
241
 10
909566.062
 20
7280116.022
 30
0.0
 40
8.0
  1
465.32'
 50
358.2047
  7
ROMANS
 72
     1
 11
909591.633195
 21
7280123.224421
 31
0.0
210
0.0
220
0.0
230
1.0
 73
     3
  0
TEXT
  8
11
  6
CONTINUOUS
 62
     7
  5
242
 10
909566.327
 20
7280267.517
 30
0.0
 40
8.0
  1
465.38'
 50
358.2047
  7
ROMANS
 72
     1
 11
909591.898195
 21
7280274.719421
 31
0.0
210
0.0
220
0.0
230
1.0
 73
     3
  0
TEXT
  8
11
  6
CONTINUOUS
 62
     7
  5
243
 10
909363.59
 20
7279877.778
 30
0.0
 40
8.0
  1
151.49'
 50
88.2047
  7
ROMANS
 72
     4
 11
909360.385646
 21
7279903.224879
 31
0.0
210
0.0
220
0.0
230
1.0
  0
TEXT
  8
11
  6
CONTINUOUS
 62
     7
  5
244
 10
909813.766
 20
7279865.911
 30
0.0
 40
8.0
  1
136.47'
 50
88.2047
  7
ROMANS
 72
     4
 11
909810.561646
 21
7279891.357879
 31
0.0
210
0.0
220
0.0
230
1.0
  0
TEXT
  8
11
  6
CONTINUOUS
 62
     7
  5
245
 10
909816.371
 20
7280020.6
 30
0.0
 40
8.0
  1
151.43'
 50
88.2047
  7
ROMANS
 72
     4
 11
909813.166646
 21
7280046.046879
 31
0.0
210
0.0
220
0.0
230
1.0
  0
TEXT
  8
11
  6
CONTINUOUS
 62
     7
  5
246
 10
909821.115
 20
7280171.957
 30
0.0
 40
8.0
  1
151.43'
 50
88.2047
  7
ROMANS
 72
     4
 11
909817.910646
 21
7280197.403879
 31
0.0
210
0.0
220
0.0
230
1.0
  0
TEXT
  8
11
  6
CONTINUOUS
 62
     7
  5
247
 10
909825.86
 20
7280323.313
 30
0.0
 40
8.0
  1
151.43'
 50
88.2047
  7
ROMANS
 72
     4
 11
909822.655646
 21
7280348.759879
 31
0.0
210
0.0
220
0.0
230
1.0
  0
TEXT
  8
11
  6
CONTINUOUS
 62
     7
  5
248
 10
909830.604
 20
7280474.668
 30
0.0
 40
8.0
  1
151.43'
 50
88.2047
  7
ROMANS
 72
     4
 11
909827.399646
 21
7280500.114879
 31
0.0
210
0.0
220
0.0
230
1.0
  0
TEXT
  8
11
  6
CONTINUOUS
 62
     7
  5
249
 10
909835.348
 20
7280626.024
 30
0.0
 40
8.0
  1
151.43'
 50
88.2047
  7
ROMANS
 72
     4
 11
909832.143646
 21
7280651.470879
 31
0.0
210
0.0
220
0.0
230
1.0
  0
TEXT
  8
11
  6
CONTINUOUS
 62
     7
  5
24A
 10
909840.092
 20
7280777.379
 30
0.0
 40
8.0
  1
151.43'
 50
88.2047
  7
ROMANS
 72
     4
 11
909836.887646
 21
7280802.825879
 31
0.0
210
0.0
220
0.0
230
1.0
  0
TEXT
  8
11
  6
CONTINUOUS
 62
     7
  5
24B
 10
909844.836
 20
7280928.736
 30
0.0
 40
8.0
  1
151.43'
 50
88.2047
  7
ROMANS
 72
     4
 11
909841.631646
 21
7280954.182879
 31
0.0
210
0.0
220
0.0
230
1.0
  0
TEXT
  8
11
  6
CONTINUOUS
 62
     7
  5
24C
 10
909849.58
 20
7281080.091
 30
0.0
 40
8.0
  1
151.43'
 50
88.2047
  7
ROMANS
 72
     4
 11
909846.375646
 21
7281105.537879
 31
0.0
210
0.0
220
0.0
230
1.0
  0
TEXT
  8
11
  6
CONTINUOUS
 62
     7
  5
24D
 10
909854.325
 20
7281231.447
 30
0.0
 40
8.0
  1
151.43'
 50
88.2047
  7
ROMANS
 72
     4
 11
909851.120646
 21
7281256.893879
 31
0.0
210
0.0
220
0.0
230
1.0
  0
TEXT
  8
11
  6
CONTINUOUS
 62
     7
  5
24E
 10
909859.068
 20
7281382.802
 30
0.0
 40
8.0
  1
151.43'
 50
88.2047
  7
ROMANS
 72
     4
 11
909855.863646
 21
7281408.248879
 31
0.0
210
0.0
220
0.0
230
1.0
  0
TEXT
  8
11
  6
CONTINUOUS
 62
     7
  5
24F
 10
909863.813
 20
7281534.158
 30
0.0
 40
8.0
  1
151.43'
 50
88.2047
  7
ROMANS
 72
     4
 11
909860.608646
 21
7281559.604879
 31
0.0
210
0.0
220
0.0
230
1.0
  0
TEXT
  8
11
  6
CONTINUOUS
 62
     7
  5
250
 10
909868.557
 20
7281685.513
 30
0.0
 40
8.0
  1
151.43'
 50
88.2047
  7
ROMANS
 72
     4
 11
909865.352646
 21
7281710.959879
 31
0.0
210
0.0
220
0.0
230
1.0
  0
TEXT
  8
11
  6
CONTINUOUS
 62
     7
  5
251
 10
909873.263
 20
7281835.651
 30
0.0
 40
8.0
  1
151.43'
 50
88.2047
  7
ROMANS
 72
     4
 11
909870.058646
 21
7281861.097879
 31
0.0
210
0.0
220
0.0
230
1.0
  0
INSERT
  8
11
  6
CONTINUOUS
 62
     7
  5
25F
  2
*D0
 10
910595.184
 20
7279799.605
 30
0.0
 70
     0
 71
     0
  0
TEXT
  8
11
  6
CONTINUOUS
 62
     7
  5
260
 10
910704.179
 20
7284988.824
 30
0.0
 40
8.0
  1
55'
 50
88.1267
  7
ROMANS
 72
     4
 11
910700.486228
 21
7284998.28277
 31
0.0
210
0.0
220
0.0
230
1.0
  0
TEXT
  8
11
  6
CONTINUOUS
 62
     7
  5
261
 10
907618.563
 20
7285089.745
 30
0.0
 40
8.0
  1
55'
 50
88.1267
  7
ROMANS
 72
     4
 11
907614.870228
 21
7285099.20377
 31
0.0
210
0.0
220
0.0
230
1.0
  0
TEXT
  8
11
  6
CONTINUOUS
 62
     7
  5
262
 10
907392.596
 20
7285097.135
 30
0.0
 40
8.0
  1
55'
 50
88.1267
  7
ROMANS
 72
     4
 11
907388.903228
 21
7285106.59377
 31
0.0
210
0.0
220
0.0
230
1.0
  0
TEXT
  8
11
  6
CONTINUOUS
 62
     7
  5
263
 10
906356.266
 20
7285131.031
 30
0.0
 40
8.0
  1
55'
 50
88.1267
  7
ROMANS
 72
     4
 11
906352.573228
 21
7285140.48977
 31
0.0
210
0.0
220
0.0
230
1.0
  0
TEXT
  8
11
  6
CONTINUOUS
 62
     7
  5
264
 10
906130.299
 20
7285138.421
 30
0.0
 40
8.0
  1
55'
 50
88.1267
  7
ROMANS
 72
     4
 11
906126.606228
 21
7285147.87977
 31
0.0
210
0.0
220
0.0
230
1.0
  0
TEXT
  8
11
  6
CONTINUOUS
 62
     7
  5
265
 10
905693.949
 20
7285152.693
 30
0.0
 40
8.0
  1
55'
 50
88.1267
  7
ROMANS
 72
     4
 11
905690.256228
 21
7285162.15177
 31
0.0
210
0.0
220
0.0
230
1.0
  0
TEXT
  8
11
  6
CONTINUOUS
 62
     7
  5
266
 10
905562.694
 20
7285063.162
 30
0.0
 40
8.0
  1
65'
 50
358.1267
  7
ROMANS
 72
     4
 11
905572.15277
 21
7285066.854772
 31
0.0
210
0.0
220
0.0
230
1.0
  0
TEXT
  8
11
  6
CONTINUOUS
 62
     7
  5
267
 10
905557.001
 20
7284889.126
 30
0.0
 40
8.0
  1
65'
 50
358.1267
  7
ROMANS
 72
     4
 11
905566.45977
 21
7284892.818772
 31
0.0
210
0.0
220
0.0
230
1.0
  0
TEXT
  8
11
  6
CONTINUOUS
 62
     7
  5
268
 10
905544.432
 20
7284673.83
 30
0.0
 40
8.0
  1
55'
 50
358.1267
  7
ROMANS
 72
     4
 11
905553.89077
 21
7284677.522772
 31
0.0
210
0.0
220
0.0
230
1.0
  0
TEXT
  8
11
  6
CONTINUOUS
 62
     7
  5
269
 10
905476.086
 20
7282584.134
 30
0.0
 40
8.0
  1
55'
 50
358.1267
  7
ROMANS
 72
     4
 11
905485.54477
 21
7282587.826772
 31
0.0
210
0.0
220
0.0
230
1.0
  0
TEXT
  8
11
  6
CONTINUOUS
 62
     7
  5
26A
 10
905498.001
 20
7279923.783
 30
0.0
 40
8.0
  1
50'
 50
88.1267
  7
ROMANS
 72
     4
 11
905494.308228
 21
7279933.24177
 31
0.0
210
0.0
220
0.0
230
1.0
  0
TEXT
  8
11
  6
CONTINUOUS
 62
     7
  5
26B
 10
907591.688
 20
7279855.305
 30
0.0
 40
8.0
  1
50'
 50
88.1267
  7
ROMANS
 72
     4
 11
907587.995228
 21
7279864.76377
 31
0.0
210
0.0
220
0.0
230
1.0
  0
TEXT
  8
11
  6
CONTINUOUS
 62
     7
  5
26C
 10
908638.224
 20
7285056.395
 30
0.0
 40
8.0
  1
55'
 50
88.1267
  7
ROMANS
 72
     4
 11
908634.531228
 21
7285065.85377
 31
0.0
210
0.0
220
0.0
230
1.0
  0
TEXT
  8
11
  6
CONTINUOUS
 62
     7
  5
26D
 10
906348.609
 20
7283830.71
 30
0.0
 40
8.0
  1
310'
 50
358.1267
  7
ROMANS
 72
     1
 11
906362.19639
 21
7283838.269876
 31
0.0
210
0.0
220
0.0
230
1.0
 73
     3
  0
TEXT
  8
11
  6
CONTINUOUS
 62
     7
  5
26E
 10
906629.665
 20
7283228.879
 30
0.0
 40
8.0
  1
310'
 50
358.1267
  7
ROMANS
 72
     1
 11
906643.25239
 21
7283236.438876
 31
0.0
210
0.0
220
0.0
230
1.0
 73
     3
  0
TEXT
  8
11
  6
CONTINUOUS
 62
     7
  5
26F
 10
906953.192
 20
7283218.298
 30
0.0
 40
8.0
  1
310'
 50
358.1267
  7
ROMANS
 72
     1
 11
906966.77939
 21
7283225.857876
 31
0.0
210
0.0
220
0.0
230
1.0
 73
     3
  0
TEXT
  8
11
  6
CONTINUOUS
 62
     7
  5
270
 10
907282.217
 20
7283800.174
 30
0.0
 40
8.0
  1
310'
 50
358.1267
  7
ROMANS
 72
     1
 11
907295.80439
 21
7283807.733876
 31
0.0
210
0.0
220
0.0
230
1.0
 73
     3
  0
TEXT
  8
11
  6
CONTINUOUS
 62
     7
  5
271
 10
906516.114
 20
7284142.401
 30
0.0
 40
8.0
  1
620'
 50
358.1267
  7
ROMANS
 72
     1
 11
906529.70139
 21
7284149.960876
 31
0.0
210
0.0
220
0.0
230
1.0
 73
     3
  0
TEXT
  8
11
  6
CONTINUOUS
 62
     7
  5
272
 10
906526.476
 20
7284459.231
 30
0.0
 40
8.0
  1
620'
 50
358.1267
  7
ROMANS
 72
     1
 11
906540.06339
 21
7284466.790876
 31
0.0
210
0.0
220
0.0
230
1.0
 73
     3
  0
TEXT
  8
11
  6
CONTINUOUS
 62
     7
  5
273
 10
906523.02
 20
7284776.514
 30
0.0
 40
8.0
  1
620'
 50
358.1267
  7
ROMANS
 72
     1
 11
906536.60739
 21
7284784.073876
 31
0.0
210
0.0
220
0.0
230
1.0
 73
     3
  0
TEXT
  8
11
  6
CONTINUOUS
 62
     7
  5
274
 10
907146.966
 20
7284756.107
 30
0.0
 40
8.0
  1
620'
 50
358.1267
  7
ROMANS
 72
     1
 11
907160.55339
 21
7284763.666876
 31
0.0
210
0.0
220
0.0
230
1.0
 73
     3
  0
TEXT
  8
11
  6
CONTINUOUS
 62
     7
  5
275
 10
907131.981
 20
7284439.427
 30
0.0
 40
8.0
  1
620'
 50
358.1267
  7
ROMANS
 72
     1
 11
907145.56839
 21
7284446.986876
 31
0.0
210
0.0
220
0.0
230
1.0
 73
     3
  0
TEXT
  8
11
  6
CONTINUOUS
 62
     7
  5
276
 10
907126.242
 20
7284122.445
 30
0.0
 40
8.0
  1
620'
 50
358.1267
  7
ROMANS
 72
     1
 11
907139.82939
 21
7284130.004876
 31
0.0
210
0.0
220
0.0
230
1.0
 73
     3
  0
TEXT
  8
11
  6
CONTINUOUS
 62
     7
  5
277
 10
905864.3
 20
7284805.252
 30
0.0
 40
8.0
  1
590.23'
 50
358.1267
  7
ROMANS
 72
     1
 11
905889.880976
 21
7284812.419603
 31
0.0
210
0.0
220
0.0
230
1.0
 73
     3
  0
TEXT
  8
11
  6
CONTINUOUS
 62
     7
  5
278
 10
905854.166
 20
7284495.418
 30
0.0
 40
8.0
  1
596.26'
 50
358.1267
  7
ROMANS
 72
     1
 11
905879.746976
 21
7284502.585603
 31
0.0
210
0.0
220
0.0
230
1.0
 73
     3
  0
TEXT
  8
11
  6
CONTINUOUS
 62
     7
  5
279
 10
905852.622
 20
7284185.302
 30
0.0
 40
8.0
  1
595.9'
 50
358.1267
  7
ROMANS
 72
     1
 11
905874.205114
 21
7284192.600361
 31
0.0
210
0.0
220
0.0
230
1.0
 73
     3
  0
TEXT
  8
11
  6
CONTINUOUS
 62
     7
  5
27A
 10
906253.072
 20
7284625.078
 30
0.0
 40
8.0
  1
317'
 50
88.1267
  7
ROMANS
 72
     4
 11
906249.509986
 21
7284638.534632
 31
0.0
210
0.0
220
0.0
230
1.0
  0
TEXT
  8
11
  6
CONTINUOUS
 62
     7
  5
27B
 10
906242.332
 20
7284296.701
 30
0.0
 40
8.0
  1
317'
 50
88.1267
  7
ROMANS
 72
     4
 11
906238.769986
 21
7284310.157632
 31
0.0
210
0.0
220
0.0
230
1.0
  0
TEXT
  8
11
  6
CONTINUOUS
 62
     7
  5
27C
 10
906232.347
 20
7283991.448
 30
0.0
 40
8.0
  1
317'
 50
88.1267
  7
ROMANS
 72
     4
 11
906228.784986
 21
7284004.904632
 31
0.0
210
0.0
220
0.0
230
1.0
  0
TEXT
  8
11
  6
CONTINUOUS
 62
     7
  5
27D
 10
907443.266
 20
7283951.843
 30
0.0
 40
8.0
  1
317'
 50
88.1267
  7
ROMANS
 72
     4
 11
907439.703986
 21
7283965.299632
 31
0.0
210
0.0
220
0.0
230
1.0
  0
TEXT
  8
11
  6
CONTINUOUS
 62
     7
  5
27E
 10
907453.249
 20
7284257.095
 30
0.0
 40
8.0
  1
317'
 50
88.1267
  7
ROMANS
 72
     4
 11
907449.686986
 21
7284270.551632
 31
0.0
210
0.0
220
0.0
230
1.0
  0
TEXT
  8
11
  6
CONTINUOUS
 62
     7
  5
27F
 10
907463.687
 20
7284576.222
 30
0.0
 40
8.0
  1
317'
 50
88.1267
  7
ROMANS
 72
     4
 11
907460.124986
 21
7284589.678632
 31
0.0
210
0.0
220
0.0
230
1.0
  0
TEXT
  8
11
  6
CONTINUOUS
 62
     7
  5
280
 10
905591.562
 20
7284345.766
 30
0.0
 40
8.0
  1
310'
 50
88.1267
  7
ROMANS
 72
     4
 11
905587.999986
 21
7284359.222632
 31
0.0
210
0.0
220
0.0
230
1.0
  0
TEXT
  8
11
  6
CONTINUOUS
 62
     7
  5
281
 10
905581.578
 20
7284040.513
 30
0.0
 40
8.0
  1
310'
 50
88.1267
  7
ROMANS
 72
     4
 11
905578.015986
 21
7284053.969632
 31
0.0
210
0.0
220
0.0
230
1.0
  0
TEXT
  8
11
  6
CONTINUOUS
 62
     7
  5
282
 10
905571.291
 20
7283726.01
 30
0.0
 40
8.0
  1
310'
 50
88.1267
  7
ROMANS
 72
     4
 11
905567.728986
 21
7283739.466632
 31
0.0
210
0.0
220
0.0
230
1.0
  0
TEXT
  8
11
  6
CONTINUOUS
 62
     7
  5
283
 10
906130.532
 20
7283707.72
 30
0.0
 40
8.0
  1
310'
 50
88.1267
  7
ROMANS
 72
     4
 11
906126.969986
 21
7283721.176632
 31
0.0
210
0.0
220
0.0
230
1.0
  0
TEXT
  8
11
  6
CONTINUOUS
 62
     7
  5
284
 10
906140.819
 20
7284022.222
 30
0.0
 40
8.0
  1
310'
 50
88.1267
  7
ROMANS
 72
     4
 11
906137.256986
 21
7284035.678632
 31
0.0
210
0.0
220
0.0
230
1.0
  0
TEXT
  8
11
  6
CONTINUOUS
 62
     7
  5
285
 10
906150.349
 20
7284313.599
 30
0.0
 40
8.0
  1
310'
 50
88.1267
  7
ROMANS
 72
     4
 11
906146.786986
 21
7284327.055632
 31
0.0
210
0.0
220
0.0
230
1.0
  0
TEXT
  8
11
  6
CONTINUOUS
 62
     7
  5
286
 10
906160.787
 20
7284632.727
 30
0.0
 40
8.0
  1
310'
 50
88.1267
  7
ROMANS
 72
     4
 11
906157.224986
 21
7284646.183632
 31
0.0
210
0.0
220
0.0
230
1.0
  0
TEXT
  8
11
  6
CONTINUOUS
 62
     7
  5
287
 10
907556.577
 20
7284587.075
 30
0.0
 40
8.0
  1
310'
 50
88.1267
  7
ROMANS
 72
     4
 11
907553.014986
 21
7284600.531632
 31
0.0
210
0.0
220
0.0
230
1.0
  0
TEXT
  8
11
  6
CONTINUOUS
 62
     7
  5
288
 10
907545.837
 20
7284258.697
 30
0.0
 40
8.0
  1
310'
 50
88.1267
  7
ROMANS
 72
     4
 11
907542.274986
 21
7284272.153632
 31
0.0
210
0.0
220
0.0
230
1.0
  0
TEXT
  8
11
  6
CONTINUOUS
 62
     7
  5
289
 10
907536.458
 20
7283971.945
 30
0.0
 40
8.0
  1
310'
 50
88.1267
  7
ROMANS
 72
     4
 11
907532.895986
 21
7283985.401632
 31
0.0
210
0.0
220
0.0
230
1.0
  0
TEXT
  8
11
  6
CONTINUOUS
 62
     7
  5
28A
 10
907526.172
 20
7283657.442
 30
0.0
 40
8.0
  1
310'
 50
88.1267
  7
ROMANS
 72
     4
 11
907522.609986
 21
7283670.898632
 31
0.0
210
0.0
220
0.0
230
1.0
  0
TEXT
  8
11
  6
CONTINUOUS
 62
     7
  5
28B
 10
908131.631
 20
7283637.64
 30
0.0
 40
8.0
  1
310'
 50
88.1267
  7
ROMANS
 72
     4
 11
908128.068986
 21
7283651.096632
 31
0.0
210
0.0
220
0.0
230
1.0
  0
TEXT
  8
11
  6
CONTINUOUS
 62
     7
  5
28C
 10
908141.766
 20
7283947.517
 30
0.0
 40
8.0
  1
310'
 50
88.1267
  7
ROMANS
 72
     4
 11
908138.203986
 21
7283960.973632
 31
0.0
210
0.0
220
0.0
230
1.0
  0
TEXT
  8
11
  6
CONTINUOUS
 62
     7
  5
28D
 10
908151.448
 20
7284243.52
 30
0.0
 40
8.0
  1
310'
 50
88.1267
  7
ROMANS
 72
     4
 11
908147.885986
 21
7284256.976632
 31
0.0
210
0.0
220
0.0
230
1.0
  0
TEXT
  8
11
  6
CONTINUOUS
 62
     7
  5
28E
 10
908162.036
 20
7284567.273
 30
0.0
 40
8.0
  1
310'
 50
88.1267
  7
ROMANS
 72
     4
 11
908158.473986
 21
7284580.729632
 31
0.0
210
0.0
220
0.0
230
1.0
  0
TEXT
  8
11
  6
CONTINUOUS
 62
     7
  5
28F
 10
905879.066
 20
7285115.246
 30
0.0
 40
8.0
  1
557.95'
 50
358.1267
  7
ROMANS
 72
     1
 11
905904.646976
 21
7285122.413603
 31
0.0
210
0.0
220
0.0
230
1.0
 73
     3
  0
TEXT
  8
11
  6
CONTINUOUS
 62
     7
  5
290
 10
905616.756
 20
7284974.619
 30
0.0
 40
8.0
  1
208'
 50
88.1267
  7
ROMANS
 72
     4
 11
905613.193986
 21
7284988.075632
 31
0.0
210
0.0
220
0.0
230
1.0
  0
TEXT
  8
11
  6
CONTINUOUS
 62
     7
  5
291
 10
905593.509
 20
7284546.768
 30
0.0
 40
8.0
  1
182.21'
 50
88.1267
  7
ROMANS
 72
     4
 11
905590.339259
 21
7284572.218219
 31
0.0
210
0.0
220
0.0
230
1.0
  0
TEXT
  8
11
  6
CONTINUOUS
 62
     7
  5
292
 10
905612.24
 20
7284836.525
 30
0.0
 40
8.0
  1
72.3'
 50
88.1267
  7
ROMANS
 72
     4
 11
905608.808744
 21
7284853.979494
 31
0.0
210
0.0
220
0.0
230
1.0
  0
TEXT
  8
11
  6
CONTINUOUS
 62
     7
  5
293
 10
905604.484
 20
7284740.869
 30
0.0
 40
8.0
  1
127.95'
 50
88.1267
  7
ROMANS
 72
     4
 11
905601.314259
 21
7284766.319219
 31
0.0
210
0.0
220
0.0
230
1.0
  0
TEXT
  8
11
  6
CONTINUOUS
 62
     7
  5
294
 10
905577.675
 20
7284769.959
 30
0.0
 40
8.0
  1
S2%%d47'45"W
 50
88.1267
  7
ROMANS
 72
     4
 11
905574.94758
 21
7284808.932987
 31
0.0
210
0.0
220
0.0
230
1.0
  0
TEXT
  8
11
  6
CONTINUOUS
 62
     7
  5
295
 10
906180.098
 20
7284832.848
 30
0.0
 40
8.0
  1
C
 50
87.479964
  7
ROMANS
 72
     1
 11
906180.208801
 21
7284835.365563
 31
0.0
210
0.0
220
0.0
230
1.0
  0
TEXT
  8
11
  6
CONTINUOUS
 62
     7
  5
296
 10
906180.572
 20
7284841.088
 30
0.0
 40
8.0
  1
H
 50
86.253028
  7
ROMANS
 72
     1
 11
906180.724462
 21
7284843.416013
 31
0.0
210
0.0
220
0.0
230
1.0
  0
TEXT
  8
11
  6
CONTINUOUS
 62
     7
  5
297
 10
906181.028
 20
7284848.066
 30
0.0
 40
8.0
  1
=
 50
86.253028
  7
ROMANS
 72
     1
 11
906181.245813
 21
7284851.391875
 31
0.0
210
0.0
220
0.0
230
1.0
  0
TEXT
  8
11
  6
CONTINUOUS
 62
     7
  5
298
 10
906181.684
 20
7284858.061
 30
0.0
 40
8.0
  1
1
 50
86.253028
  7
ROMANS
 72
     1
 11
906181.771112
 21
7284859.391151
 31
0.0
210
0.0
220
0.0
230
1.0
  0
TEXT
  8
11
  6
CONTINUOUS
 62
     7
  5
299
 10
906182.13
 20
7284865.101
 30
0.0
 40
8.0
  1
5
 50
85.026092
  7
ROMANS
 72
     1
 11
906182.33323
 21
7284867.436173
 31
0.0
210
0.0
220
0.0
230
1.0
  0
TEXT
  8
11
  6
CONTINUOUS
 62
     7
  5
29A
 10
906182.91
 20
7284874.076
 30
0.0
 40
8.0
  1
1
 50
85.026092
  7
ROMANS
 72
     1
 11
906183.025661
 21
7284875.404977
 31
0.0
210
0.0
220
0.0
230
1.0
  0
TEXT
  8
11
  6
CONTINUOUS
 62
     7
  5
29B
 10
906183.604
 20
7284882.047
 30
0.0
 40
8.0
  1
.
 50
85.026092
  7
ROMANS
 72
     1
 11
906183.71862
 21
7284883.364022
 31
0.0
210
0.0
220
0.0
230
1.0
  0
TEXT
  8
11
  6
CONTINUOUS
 62
     7
  5
29C
 10
906184.183
 20
7284888.698
 30
0.0
 40
8.0
  1
0
 50
85.026092
  7
ROMANS
 72
     1
 11
906184.412847
 21
7284891.339017
 31
0.0
210
0.0
220
0.0
230
1.0
  0
TEXT
  8
11
  6
CONTINUOUS
 62
     7
  5
29D
 10
906184.92
 20
7284896.854
 30
0.0
 40
8.0
  1
6
 50
83.799156
  7
ROMANS
 72
     1
 11
906185.192195
 21
7284899.359256
 31
0.0
210
0.0
220
0.0
230
1.0
  0
TEXT
  8
11
  6
CONTINUOUS
 62
     7
  5
29E
 10
906185.913
 20
7284905.997
 30
0.0
 40
8.0
  1
'
 50
83.799156
  7
ROMANS
 72
     1
 11
906186.057091
 21
7284907.323195
 31
0.0
210
0.0
220
0.0
230
1.0
  0
TEXT
  8
11
  6
CONTINUOUS
 62
     7
  5
29F
 10
906196.446
 20
7284990.423
 30
0.0
 40
8.0
  1
C
 50
83.770336
  7
ROMANS
 72
     1
 11
906196.719455
 21
7284992.928119
 31
0.0
210
0.0
220
0.0
230
1.0
  0
TEXT
  8
11
  6
CONTINUOUS
 62
     7
  5
2A0
 10
906197.335
 20
7284998.565
 30
0.0
 40
8.0
  1
H
 50
83.770336
  7
ROMANS
 72
     1
 11
906197.588163
 21
7285000.884223
 31
0.0
210
0.0
220
0.0
230
1.0
  0
TEXT
  8
11
  6
CONTINUOUS
 62
     7
  5
2A1
 10
906198.093
 20
7285005.516
 30
0.0
 40
8.0
  1
=
 50
83.770336
  7
ROMANS
 72
     1
 11
906198.454677
 21
7285008.829318
 31
0.0
210
0.0
220
0.0
230
1.0
  0
TEXT
  8
11
  6
CONTINUOUS
 62
     7
  5
2A2
 10
906199.158
 20
7285015.408
 30
0.0
 40
8.0
  1
1
 50
85.024528
  7
ROMANS
 72
     1
 11
906199.27361
 21
7285016.735977
 31
0.0
210
0.0
220
0.0
230
1.0
  0
TEXT
  8
11
  6
CONTINUOUS
 62
     7
  5
2A3
 10
906199.764
 20
7285022.373
 30
0.0
 40
8.0
  1
4
 50
85.024528
  7
ROMANS
 72
     1
 11
906199.966339
 21
7285024.697209
 31
0.0
210
0.0
220
0.0
230
1.0
  0
TEXT
  8
11
  6
CONTINUOUS
 62
     7
  5
2A4
 10
906200.458
 20
7285030.343
 30
0.0
 40
8.0
  1
4
 50
85.024528
  7
ROMANS
 72
     1
 11
906200.660339
 21
7285032.667209
 31
0.0
210
0.0
220
0.0
230
1.0
  0
TEXT
  8
11
  6
CONTINUOUS
 62
     7
  5
2A5
 10
906201.239
 20
7285039.318
 30
0.0
 40
8.0
  1
.
 50
85.024528
  7
ROMANS
 72
     1
 11
906201.353656
 21
7285040.635019
 31
0.0
210
0.0
220
0.0
230
1.0
  0
TEXT
  8
11
  6
CONTINUOUS
 62
     7
  5
2A6
 10
906201.786
 20
7285046.222
 30
0.0
 40
8.0
  1
5
 50
86.278717
  7
ROMANS
 72
     1
 11
906201.938133
 21
7285048.561058
 31
0.0
210
0.0
220
0.0
230
1.0
  0
TEXT
  8
11
  6
CONTINUOUS
 62
     7
  5
2A7
 10
906202.306
 20
7285054.205
 30
0.0
 40
8.0
  1
7
 50
86.278717
  7
ROMANS
 72
     1
 11
906202.457419
 21
7285056.533081
 31
0.0
210
0.0
220
0.0
230
1.0
  0
TEXT
  8
11
  6
CONTINUOUS
 62
     7
  5
2A8
 10
906202.89
 20
7285063.194
 30
0.0
 40
8.0
  1
'
 50
86.278717
  7
ROMANS
 72
     1
 11
906202.976516
 21
7285064.524189
 31
0.0
210
0.0
220
0.0
230
1.0
  0
TEXT
  8
11
  6
CONTINUOUS
 62
     7
  5
2A9
 10
906269.944
 20
7284981.869
 30
0.0
 40
8.0
  1
C
 50
83.729453
  7
ROMANS
 72
     1
 11
906262.267105
 21
7284985.24771
 31
0.0
210
0.0
220
0.0
230
1.0
 73
     3
  0
TEXT
  8
11
  6
CONTINUOUS
 62
     7
  5
2AA
 10
906270.84
 20
7284990.007
 30
0.0
 40
8.0
  1
H
 50
83.729453
  7
ROMANS
 72
     1
 11
906263.14268
 21
7284993.199829
 31
0.0
210
0.0
220
0.0
230
1.0
 73
     3
  0
TEXT
  8
11
  6
CONTINUOUS
 62
     7
  5
2AB
 10
906271.602
 20
7284996.958
 30
0.0
 40
8.0
  1
=
 50
83.729453
  7
ROMANS
 72
     1
 11
906264.013904
 21
7285001.144846
 31
0.0
210
0.0
220
0.0
230
1.0
 73
     3
  0
TEXT
  8
11
  6
CONTINUOUS
 62
     7
  5
2AC
 10
906272.701
 20
7285007.151
 30
0.0
 40
8.0
  1
1
 50
84.956389
  7
ROMANS
 72
     1
 11
906264.849165
 21
7285009.182151
 31
0.0
210
0.0
220
0.0
230
1.0
 73
     3
  0
TEXT
  8
11
  6
CONTINUOUS
 62
     7
  5
2AD
 10
906273.316
 20
7285014.116
 30
0.0
 40
8.0
  1
5
 50
84.956389
  7
ROMANS
 72
     1
 11
906265.553046
 21
7285017.154236
 31
0.0
210
0.0
220
0.0
230
1.0
 73
     3
  0
TEXT
  8
11
  6
CONTINUOUS
 62
     7
  5
2AE
 10
906274.108
 20
7285023.089
 30
0.0
 40
8.0
  1
1
 50
84.956389
  7
ROMANS
 72
     1
 11
906266.256165
 21
7285025.120151
 31
0.0
210
0.0
220
0.0
230
1.0
 73
     3
  0
TEXT
  8
11
  6
CONTINUOUS
 62
     7
  5
2AF
 10
906274.812
 20
7285031.058
 30
0.0
 40
8.0
  1
.
 50
84.956389
  7
ROMANS
 72
     1
 11
906266.959198
 21
7285033.078193
 31
0.0
210
0.0
220
0.0
230
1.0
 73
     3
  0
TEXT
  8
11
  6
CONTINUOUS
 62
     7
  5
2B0
 10
906275.38
 20
7285037.946
 30
0.0
 40
8.0
  1
0
 50
86.183325
  7
ROMANS
 72
     1
 11
906267.574205
 21
7285041.123635
 31
0.0
210
0.0
220
0.0
230
1.0
 73
     3
  0
TEXT
  8
11
  6
CONTINUOUS
 62
     7
  5
2B1
 10
906275.92
 20
7285046.055
 30
0.0
 40
8.0
  1
6
 50
86.183325
  7
ROMANS
 72
     1
 11
906268.105485
 21
7285049.101925
 31
0.0
210
0.0
220
0.0
230
1.0
 73
     3
  0
TEXT
  8
11
  6
CONTINUOUS
 62
     7
  5
2B2
 10
906276.533
 20
7285055.231
 30
0.0
 40
8.0
  1
'
 50
86.183325
  7
ROMANS
 72
     1
 11
906268.639473
 21
7285057.093558
 31
0.0
210
0.0
220
0.0
230
1.0
 73
     3
  0
TEXT
  8
11
  6
CONTINUOUS
 62
     7
  5
2B3
 10
906253.669
 20
7284821.491
 30
0.0
 40
8.0
  1
C
 50
87.466336
  7
ROMANS
 72
     1
 11
906245.788221
 21
7284824.362187
 31
0.0
210
0.0
220
0.0
230
1.0
 73
     3
  0
TEXT
  8
11
  6
CONTINUOUS
 62
     7
  5
2B4
 10
906254.032
 20
7284829.671
 30
0.0
 40
8.0
  1
H
 50
87.466336
  7
ROMANS
 72
     1
 11
906246.142954
 21
7284832.35537
 31
0.0
210
0.0
220
0.0
230
1.0
 73
     3
  0
TEXT
  8
11
  6
CONTINUOUS
 62
     7
  5
2B5
 10
906254.416
 20
7284836.412
 30
0.0
 40
8.0
  1
=
 50
86.212144
  7
ROMANS
 72
     1
 11
906246.653662
 21
7284840.266218
 31
0.0
210
0.0
220
0.0
230
1.0
 73
     3
  0
TEXT
  8
11
  6
CONTINUOUS
 62
     7
  5
2B6
 10
906255.078
 20
7284846.405
 30
0.0
 40
8.0
  1
1
 50
86.212144
  7
ROMANS
 72
     1
 11
906247.183537
 21
7284848.263587
 31
0.0
210
0.0
220
0.0
230
1.0
 73
     3
  0
TEXT
  8
11
  6
CONTINUOUS
 62
     7
  5
2B7
 10
906255.541
 20
7284853.382
 30
0.0
 40
8.0
  1
4
 50
86.212144
  7
ROMANS
 72
     1
 11
906247.7126
 21
7284856.238403
 31
0.0
210
0.0
220
0.0
230
1.0
 73
     3
  0
TEXT
  8
11
  6
CONTINUOUS
 62
     7
  5
2B8
 10
906256.047
 20
7284861.124
 30
0.0
 40
8.0
  1
4
 50
84.957953
  7
ROMANS
 72
     1
 11
906248.282996
 21
7284864.151067
 31
0.0
210
0.0
220
0.0
230
1.0
 73
     3
  0
TEXT
  8
11
  6
CONTINUOUS
 62
     7
  5
2B9
 10
906256.838
 20
7284870.098
 30
0.0
 40
8.0
  1
.
 50
84.957953
  7
ROMANS
 72
     1
 11
906248.985143
 21
7284872.117979
 31
0.0
210
0.0
220
0.0
230
1.0
 73
     3
  0
TEXT
  8
11
  6
CONTINUOUS
 62
     7
  5
2BA
 10
906257.452
 20
7284877.063
 30
0.0
 40
8.0
  1
5
 50
84.957953
  7
ROMANS
 72
     1
 11
906249.688963
 21
7284880.101024
 31
0.0
210
0.0
220
0.0
230
1.0
 73
     3
  0
TEXT
  8
11
  6
CONTINUOUS
 62
     7
  5
2BB
 10
906258.157
 20
7284885.032
 30
0.0
 40
8.0
  1
7
 50
84.957953
  7
ROMANS
 72
     1
 11
906250.392996
 21
7284888.059067
 31
0.0
210
0.0
220
0.0
230
1.0
 73
     3
  0
TEXT
  8
11
  6
CONTINUOUS
 62
     7
  5
2BC
 10
906259.002
 20
7284893.758
 30
0.0
 40
8.0
  1
'
 50
83.703764
  7
ROMANS
 72
     1
 11
906251.196444
 21
7284895.960312
 31
0.0
210
0.0
220
0.0
230
1.0
 73
     3
  0
TEXT
  8
11
  6
CONTINUOUS
 62
     7
  5
2BD
 10
906194.1
 20
7284832.609
 30
0.0
 40
8.0
  1
R
 50
87.479964
  7
ROMANS
 72
     1
 11
906186.218538
 21
7284835.478313
 31
0.0
210
0.0
220
0.0
230
1.0
 73
     3
  0
TEXT
  8
11
  6
CONTINUOUS
 62
     7
  5
2BE
 10
906194.5
 20
7284839.542
 30
0.0
 40
8.0
  1
=
 50
86.253028
  7
ROMANS
 72
     1
 11
906186.734914
 21
7284843.390678
 31
0.0
210
0.0
220
0.0
230
1.0
 73
     3
  0
TEXT
  8
11
  6
CONTINUOUS
 62
     7
  5
2BF
 10
906195.155
 20
7284849.537
 30
0.0
 40
8.0
  1
1
 50
86.253028
  7
ROMANS
 72
     1
 11
906187.259213
 21
7284851.389954
 31
0.0
210
0.0
220
0.0
230
1.0
 73
     3
  0
TEXT
  8
11
  6
CONTINUOUS
 62
     7
  5
2C0
 10
906195.612
 20
7284856.514
 30
0.0
 40
8.0
  1
3
 50
86.253028
  7
ROMANS
 72
     1
 11
906187.781563
 21
7284859.364816
 31
0.0
210
0.0
220
0.0
230
1.0
 73
     3
  0
TEXT
  8
11
  6
CONTINUOUS
 62
     7
  5
2C1
 10
906196.109
 20
7284864.264
 30
0.0
 40
8.0
  1
9
 50
85.026092
  7
ROMANS
 72
     1
 11
906188.341402
 21
7284867.281831
 31
0.0
210
0.0
220
0.0
230
1.0
 73
     3
  0
TEXT
  8
11
  6
CONTINUOUS
 62
     7
  5
2C2
 10
906196.803
 20
7284872.233
 30
0.0
 40
8.0
  1
5
 50
85.026092
  7
ROMANS
 72
     1
 11
906189.036355
 21
7284875.26179
 31
0.0
210
0.0
220
0.0
230
1.0
 73
     3
  0
TEXT
  8
11
  6
CONTINUOUS
 62
     7
  5
2C3
 10
906197.585
 20
7284881.207
 30
0.0
 40
8.0
  1
.
 50
85.026092
  7
ROMANS
 72
     1
 11
906189.729746
 21
7284883.217638
 31
0.0
210
0.0
220
0.0
230
1.0
 73
     3
  0
TEXT
  8
11
  6
CONTINUOUS
 62
     7
  5
2C4
 10
906198.174
 20
7284887.985
 30
0.0
 40
8.0
  1
6
 50
85.026092
  7
ROMANS
 72
     1
 11
906190.422615
 21
7284891.189127
 31
0.0
210
0.0
220
0.0
230
1.0
 73
     3
  0
TEXT
  8
11
  6
CONTINUOUS
 62
     7
  5
2C5
 10
906198.899
 20
7284895.904
 30
0.0
 40
8.0
  1
8
 50
83.799156
  7
ROMANS
 72
     1
 11
906191.197802
 21
7284899.087463
 31
0.0
210
0.0
220
0.0
230
1.0
 73
     3
  0
TEXT
  8
11
  6
CONTINUOUS
 62
     7
  5
2C6
 10
906256.137
 20
7284984.379
 30
0.0
 40
8.0
  1
R
 50
83.729453
  7
ROMANS
 72
     1
 11
906256.412243
 21
7284986.883923
 31
0.0
210
0.0
220
0.0
230
1.0
  0
TEXT
  8
11
  6
CONTINUOUS
 62
     7
  5
2C7
 10
906256.921
 20
7284991.518
 30
0.0
 40
8.0
  1
=
 50
83.729453
  7
ROMANS
 72
     1
 11
906257.285041
 21
7284994.831059
 31
0.0
210
0.0
220
0.0
230
1.0
  0
TEXT
  8
11
  6
CONTINUOUS
 62
     7
  5
2C8
 10
906258.014
 20
7285001.474
 30
0.0
 40
8.0
  1
1
 50
83.729453
  7
ROMANS
 72
     1
 11
906258.159595
 21
7285002.799025
 31
0.0
210
0.0
220
0.0
230
1.0
  0
TEXT
  8
11
  6
CONTINUOUS
 62
     7
  5
2C9
 10
906258.753
 20
7285008.362
 30
0.0
 40
8.0
  1
3
 50
84.956389
  7
ROMANS
 72
     1
 11
906258.958103
 21
7285010.685967
 31
0.0
210
0.0
220
0.0
230
1.0
  0
TEXT
  8
11
  6
CONTINUOUS
 62
     7
  5
2CA
 10
906259.457
 20
7285016.332
 30
0.0
 40
8.0
  1
9
 50
84.956389
  7
ROMANS
 72
     1
 11
906259.662103
 21
7285018.655967
 31
0.0
210
0.0
220
0.0
230
1.0
  0
TEXT
  8
11
  6
CONTINUOUS
 62
     7
  5
2CB
 10
906260.16
 20
7285024.301
 30
0.0
 40
8.0
  1
5
 50
84.956389
  7
ROMANS
 72
     1
 11
906260.36607
 21
7285026.635924
 31
0.0
210
0.0
220
0.0
230
1.0
  0
TEXT
  8
11
  6
CONTINUOUS
 62
     7
  5
2CC
 10
906260.952
 20
7285033.273
 30
0.0
 40
8.0
  1
.
 50
84.956389
  7
ROMANS
 72
     1
 11
906261.068222
 21
7285034.589881
 31
0.0
210
0.0
220
0.0
230
1.0
  0
TEXT
  8
11
  6
CONTINUOUS
 62
     7
  5
2CD
 10
906261.486
 20
7285039.99
 30
0.0
 40
8.0
  1
6
 50
86.183325
  7
ROMANS
 72
     1
 11
906261.653742
 21
7285042.504411
 31
0.0
210
0.0
220
0.0
230
1.0
  0
TEXT
  8
11
  6
CONTINUOUS
 62
     7
  5
2CE
 10
906262.03
 20
7285048.161
 30
0.0
 40
8.0
  1
8
 50
86.183325
  7
ROMANS
 72
     1
 11
906262.185294
 21
7285050.488826
 31
0.0
210
0.0
220
0.0
230
1.0
  0
TEXT
  8
11
  6
CONTINUOUS
 62
     7
  5
2CF
 10
906239.534
 20
7284818.748
 30
0.0
 40
8.0
  1
R
 50
87.466336
  7
ROMANS
 72
     1
 11
906239.6454
 21
7284821.265537
 31
0.0
210
0.0
220
0.0
230
1.0
  0
TEXT
  8
11
  6
CONTINUOUS
 62
     7
  5
2D0
 10
906239.852
 20
7284825.922
 30
0.0
 40
8.0
  1
=
 50
87.466336
  7
ROMANS
 72
     1
 11
906239.99934
 21
7284829.251742
 31
0.0
210
0.0
220
0.0
230
1.0
  0
TEXT
  8
11
  6
CONTINUOUS
 62
     7
  5
2D1
 10
906240.359
 20
7284835.99
 30
0.0
 40
8.0
  1
1
 50
86.212144
  7
ROMANS
 72
     1
 11
906240.447061
 21
7284837.320088
 31
0.0
210
0.0
220
0.0
230
1.0
  0
TEXT
  8
11
  6
CONTINUOUS
 62
     7
  5
2D2
 10
906240.82
 20
7284842.967
 30
0.0
 40
8.0
  1
3
 50
86.212144
  7
ROMANS
 72
     1
 11
906240.974124
 21
7284845.294904
 31
0.0
210
0.0
220
0.0
230
1.0
  0
TEXT
  8
11
  6
CONTINUOUS
 62
     7
  5
2D3
 10
906241.348
 20
7284850.949
 30
0.0
 40
8.0
  1
3
 50
86.212144
  7
ROMANS
 72
     1
 11
906241.502124
 21
7284853.276904
 31
0.0
210
0.0
220
0.0
230
1.0
  0
TEXT
  8
11
  6
CONTINUOUS
 62
     7
  5
2D4
 10
906241.876
 20
7284858.931
 30
0.0
 40
8.0
  1
5
 50
86.212144
  7
ROMANS
 72
     1
 11
906242.03085
 21
7284861.26988
 31
0.0
210
0.0
220
0.0
230
1.0
  0
TEXT
  8
11
  6
CONTINUOUS
 62
     7
  5
2D5
 10
906242.596
 20
7284867.977
 30
0.0
 40
8.0
  1
.
 50
84.957953
  7
ROMANS
 72
     1
 11
906242.712186
 21
7284869.293884
 31
0.0
210
0.0
220
0.0
230
1.0
  0
TEXT
  8
11
  6
CONTINUOUS
 62
     7
  5
2D6
 10
906243.196
 20
7284874.754
 30
0.0
 40
8.0
  1
6
 50
84.957953
  7
ROMANS
 72
     1
 11
906243.417475
 21
7284877.264249
 31
0.0
210
0.0
220
0.0
230
1.0
  0
TEXT
  8
11
  6
CONTINUOUS
 62
     7
  5
2D7
 10
906243.914
 20
7284882.912
 30
0.0
 40
8.0
  1
8
 50
84.957953
  7
ROMANS
 72
     1
 11
906244.11904
 21
7284885.235972
 31
0.0
210
0.0
220
0.0
230
1.0
  0
TEXT
  8
11
  6
CONTINUOUS
 62
     7
  5
2D8
 10
906209.914
 20
7284984.789
 30
0.0
 40
8.0
  1
R
 50
83.770336
  7
ROMANS
 72
     1
 11
906202.234696
 21
7284988.162232
 31
0.0
210
0.0
220
0.0
230
1.0
 73
     3
  0
TEXT
  8
11
  6
CONTINUOUS
 62
     7
  5
2D9
 10
906210.694
 20
7284991.927
 30
0.0
 40
8.0
  1
=
 50
83.770336
  7
ROMANS
 72
     1
 11
906203.102918
 21
7284996.108431
 31
0.0
210
0.0
220
0.0
230
1.0
 73
     3
  0
TEXT
  8
11
  6
CONTINUOUS
 62
     7
  5
2DA
 10
906211.78
 20
7285001.885
 30
0.0
 40
8.0
  1
1
 50
83.770336
  7
ROMANS
 72
     1
 11
906203.971998
 21
7285004.079235
 31
0.0
210
0.0
220
0.0
230
1.0
 73
     3
  0
TEXT
  8
11
  6
CONTINUOUS
 62
     7
  5
2DB
 10
906212.539
 20
7285008.835
 30
0.0
 40
8.0
  1
3
 50
83.770336
  7
ROMANS
 72
     1
 11
906204.839404
 21
7285012.022336
 31
0.0
210
0.0
220
0.0
230
1.0
 73
     3
  0
TEXT
  8
11
  6
CONTINUOUS
 62
     7
  5
2DC
 10
906213.352
 20
7285017.035
 30
0.0
 40
8.0
  1
3
 50
85.024528
  7
ROMANS
 72
     1
 11
906205.584484
 21
7285020.053043
 31
0.0
210
0.0
220
0.0
230
1.0
 73
     3
  0
TEXT
  8
11
  6
CONTINUOUS
 62
     7
  5
2DD
 10
906214.047
 20
7285025.005
 30
0.0
 40
8.0
  1
5
 50
85.024528
  7
ROMANS
 72
     1
 11
906206.280438
 21
7285028.034002
 31
0.0
210
0.0
220
0.0
230
1.0
 73
     3
  0
TEXT
  8
11
  6
CONTINUOUS
 62
     7
  5
2DE
 10
906214.829
 20
7285033.98
 30
0.0
 40
8.0
  1
.
 50
85.024528
  7
ROMANS
 72
     1
 11
906206.973801
 21
7285035.990853
 31
0.0
210
0.0
220
0.0
230
1.0
 73
     3
  0
TEXT
  8
11
  6
CONTINUOUS
 62
     7
  5
2DF
 10
906215.475
 20
7285040.994
 30
0.0
 40
8.0
  1
6
 50
86.278717
  7
ROMANS
 72
     1
 11
906207.655423
 21
7285044.027911
 31
0.0
210
0.0
220
0.0
230
1.0
 73
     3
  0
TEXT
  8
11
  6
CONTINUOUS
 62
     7
  5
2E0
 10
906216.007
 20
7285049.165
 30
0.0
 40
8.0
  1
8
 50
86.278717
  7
ROMANS
 72
     1
 11
906208.175286
 21
7285052.012305
 31
0.0
210
0.0
220
0.0
230
1.0
 73
     3
  0
TEXT
  8
11
  6
CONTINUOUS
 62
     7
  5
2E1
 10
906534.039
 20
7285093.823
 30
0.0
 40
8.0
  1
589'
 50
358.1267
  7
ROMANS
 72
     1
 11
906547.62639
 21
7285101.382876
 31
0.0
210
0.0
220
0.0
230
1.0
 73
     3
  0
TEXT
  8
11
  6
CONTINUOUS
 62
     7
  5
2E2
 10
906228.059
 20
7285083.417
 30
0.0
 40
8.0
  1
60'
 50
358.1267
  7
ROMANS
 72
     4
 11
906237.51777
 21
7285087.109772
 31
0.0
210
0.0
220
0.0
230
1.0
  0
TEXT
  8
11
  6
CONTINUOUS
 62
     7
  5
2E3
 10
906152.464
 20
7283397.873
 30
0.0
 40
8.0
  1
60'
 50
358.1267
  7
ROMANS
 72
     4
 11
906161.92277
 21
7283401.565772
 31
0.0
210
0.0
220
0.0
230
1.0
  0
TEXT
  8
11
  6
CONTINUOUS
 62
     7
  5
2E4
 10
906378.839
 20
7283184.04
 30
0.0
 40
8.0
  1
60'
 50
88.1267
  7
ROMANS
 72
     4
 11
906375.146228
 21
7283193.49877
 31
0.0
210
0.0
220
0.0
230
1.0
  0
TEXT
  8
11
  6
CONTINUOUS
 62
     7
  5
2E5
 10
907258.775
 20
7283150.872
 30
0.0
 40
8.0
  1
60'
 50
88.1267
  7
ROMANS
 72
     4
 11
907255.082228
 21
7283160.33077
 31
0.0
210
0.0
220
0.0
230
1.0
  0
TEXT
  8
11
  6
CONTINUOUS
 62
     7
  5
2E6
 10
907454.724
 20
7283353.829
 30
0.0
 40
8.0
  1
60'
 50
358.1267
  7
ROMANS
 72
     4
 11
907464.18277
 21
7283357.521772
 31
0.0
210
0.0
220
0.0
230
1.0
  0
TEXT
  8
11
  6
CONTINUOUS
 62
     7
  5
2E7
 10
907510.461
 20
7285016.721
 30
0.0
 40
8.0
  1
60'
 50
358.1267
  7
ROMANS
 72
     4
 11
907519.91977
 21
7285020.413772
 31
0.0
210
0.0
220
0.0
230
1.0
  0
TEXT
  8
11
  6
CONTINUOUS
 62
     7
  5
2E8
 10
905835.071
 20
7283875.711
 30
0.0
 40
8.0
  1
595.54'
 50
358.1267
  7
ROMANS
 72
     1
 11
905860.651976
 21
7283882.878603
 31
0.0
210
0.0
220
0.0
230
1.0
 73
     3
  0
TEXT
  8
11
  6
CONTINUOUS
 62
     7
  5
2E9
 10
905822.006
 20
7283565.973
 30
0.0
 40
8.0
  1
595.18'
 50
358.1267
  7
ROMANS
 72
     1
 11
905847.586976
 21
7283573.140603
 31
0.0
210
0.0
220
0.0
230
1.0
 73
     3
  0
TEXT
  8
11
  6
CONTINUOUS
 62
     7
  5
2EA
 10
906193.65
 20
7283267.004
 30
0.0
 40
8.0
  1
R
 50
297.727172
  7
ROMANS
 72
     1
 11
906201.903845
 21
7283268.495459
 31
0.0
210
0.0
220
0.0
230
1.0
 73
     3
  0
TEXT
  8
11
  6
CONTINUOUS
 62
     7
  5
2EB
 10
906197.672
 20
7283259.97
 30
0.0
 40
8.0
  1
=
 50
302.559133
  7
ROMANS
 72
     1
 11
906206.208412
 21
7283261.466184
 31
0.0
210
0.0
220
0.0
230
1.0
 73
     3
  0
TEXT
  8
11
  6
CONTINUOUS
 62
     7
  5
2EC
 10
906203.354
 20
7283251.83
 30
0.0
 40
8.0
  1
9
 50
307.391094
  7
ROMANS
 72
     1
 11
906211.126792
 21
7283254.834429
 31
0.0
210
0.0
220
0.0
230
1.0
 73
     3
  0
TEXT
  8
11
  6
CONTINUOUS
 62
     7
  5
2ED
 10
906208.904
 20
7283245.252
 30
0.0
 40
8.0
  1
0
 50
312.223058
  7
ROMANS
 72
     1
 11
906216.609795
 21
7283248.664993
 31
0.0
210
0.0
220
0.0
230
1.0
 73
     3
  0
TEXT
  8
11
  6
CONTINUOUS
 62
     7
  5
2EE
 10
907396.553
 20
7283193.622
 30
0.0
 40
8.0
  1
R
 50
32.559133
  7
ROMANS
 72
     1
 11
907394.37159
 21
7283201.72088
 31
0.0
210
0.0
220
0.0
230
1.0
 73
     3
  0
TEXT
  8
11
  6
CONTINUOUS
 62
     7
  5
2EF
 10
907403.224
 20
7283198.221
 30
0.0
 40
8.0
  1
=
 50
37.391094
  7
ROMANS
 72
     1
 11
907401.01408
 21
7283206.601044
 31
0.0
210
0.0
220
0.0
230
1.0
 73
     3
  0
TEXT
  8
11
  6
CONTINUOUS
 62
     7
  5
2F0
 10
907410.858
 20
7283204.567
 30
0.0
 40
8.0
  1
9
 50
42.223058
  7
ROMANS
 72
     1
 11
907407.209517
 21
7283212.059093
 31
0.0
210
0.0
220
0.0
230
1.0
 73
     3
  0
TEXT
  8
11
  6
CONTINUOUS
 62
     7
  5
2F1
 10
907416.945
 20
7283210.651
 30
0.0
 40
8.0
  1
0
 50
47.055019
  7
ROMANS
 72
     1
 11
907412.895049
 21
7283218.04192
 31
0.0
210
0.0
220
0.0
230
1.0
 73
     3
  0
TEXT
  8
11
  6
CONTINUOUS
 62
     7
  5
2F2
 10
906158.45
 20
7283235.785
 30
0.0
 40
8.0
  1
R
 50
303.857392
  7
ROMANS
 72
     1
 11
906159.853962
 21
7283233.692324
 31
0.0
210
0.0
220
0.0
230
1.0
  0
TEXT
  8
11
  6
CONTINUOUS
 62
     7
  5
2F3
 10
906162.198
 20
7283229.88
 30
0.0
 40
8.0
  1
=
 50
307.600103
  7
ROMANS
 72
     1
 11
906164.231619
 21
7283227.239302
 31
0.0
210
0.0
220
0.0
230
1.0
  0
TEXT
  8
11
  6
CONTINUOUS
 62
     7
  5
2F4
 10
906168.31
 20
7283221.945
 30
0.0
 40
8.0
  1
1
 50
307.600103
  7
ROMANS
 72
     1
 11
906169.123325
 21
7283220.888879
 31
0.0
210
0.0
220
0.0
230
1.0
  0
TEXT
  8
11
  6
CONTINUOUS
 62
     7
  5
2F5
 10
906172.684
 20
7283216.748
 30
0.0
 40
8.0
  1
5
 50
311.342811
  7
ROMANS
 72
     1
 11
906174.232359
 21
7283214.988193
 31
0.0
210
0.0
220
0.0
230
1.0
  0
TEXT
  8
11
  6
CONTINUOUS
 62
     7
  5
2F6
 10
906177.744
 20
7283211.232
 30
0.0
 40
8.0
  1
0
 50
315.085522
  7
ROMANS
 72
     1
 11
906179.621336
 21
7283209.36026
 31
0.0
210
0.0
220
0.0
230
1.0
  0
TEXT
  8
11
  6
CONTINUOUS
 62
     7
  5
2F7
 10
907428.948
 20
7283159.967
 30
0.0
 40
8.0
  1
R
 50
37.600103
  7
ROMANS
 72
     1
 11
907430.944567
 21
7283161.504569
 31
0.0
210
0.0
220
0.0
230
1.0
  0
TEXT
  8
11
  6
CONTINUOUS
 62
     7
  5
2F8
 10
907434.566
 20
7283164.129
 30
0.0
 40
8.0
  1
=
 50
41.342811
  7
ROMANS
 72
     1
 11
907437.068319
 21
7283166.330656
 31
0.0
210
0.0
220
0.0
230
1.0
  0
TEXT
  8
11
  6
CONTINUOUS
 62
     7
  5
2F9
 10
907442.086
 20
7283170.745
 30
0.0
 40
8.0
  1
1
 50
41.342811
  7
ROMANS
 72
     1
 11
907443.087528
 21
7283171.626191
 31
0.0
210
0.0
220
0.0
230
1.0
  0
TEXT
  8
11
  6
CONTINUOUS
 62
     7
  5
2FA
 10
907446.954
 20
7283175.483
 30
0.0
 40
8.0
  1
5
 50
45.085522
  7
ROMANS
 72
     1
 11
907448.608982
 21
7283177.14293
 31
0.0
210
0.0
220
0.0
230
1.0
  0
TEXT
  8
11
  6
CONTINUOUS
 62
     7
  5
2FB
 10
907452.094
 20
7283180.924
 30
0.0
 40
8.0
  1
0
 50
48.828233
  7
ROMANS
 72
     1
 11
907453.839203
 21
7283182.919512
 31
0.0
210
0.0
220
0.0
230
1.0
  0
TEXT
  8
11
  6
CONTINUOUS
 62
     7
  5
2FC
 10
906365.233
 20
7283223.841
 30
0.0
 40
8.0
  1
220'
 50
358.1267
  7
ROMANS
 72
     1
 11
906378.558874
 21
7283223.405152
 31
0.0
210
0.0
220
0.0
230
1.0
  0
TEXT
  8
11
  6
CONTINUOUS
 62
     7
  5
2FD
 10
907235.905
 20
7283195.365
 30
0.0
 40
8.0
  1
220'
 50
358.1267
  7
ROMANS
 72
     1
 11
907249.230874
 21
7283194.929152
 31
0.0
210
0.0
220
0.0
230
1.0
  0
TEXT
  8
11
  6
CONTINUOUS
 62
     7
  5
2FE
 10
906214.067
 20
7283548.344
 30
0.0
 40
8.0
  1
530'
 50
88.1267
  7
ROMANS
 72
     4
 11
906210.504986
 21
7283561.800632
 31
0.0
210
0.0
220
0.0
230
1.0
  0
TEXT
  8
11
  6
CONTINUOUS
 62
     7
  5
2FF
 10
907433.402
 20
7283502.589
 30
0.0
 40
8.0
  1
530'
 50
88.1267
  7
ROMANS
 72
     4
 11
907429.839986
 21
7283516.045632
 31
0.0
210
0.0
220
0.0
230
1.0
  0
TEXT
  8
11
  6
CONTINUOUS
 62
     7
  5
300
 10
906506.935
 20
7283529.954
 30
0.0
 40
8.0
  1
620'
 50
88.1267
  7
ROMANS
 72
     4
 11
906503.372986
 21
7283543.410632
 31
0.0
210
0.0
220
0.0
230
1.0
  0
TEXT
  8
11
  6
CONTINUOUS
 62
     7
  5
301
 10
907146.205
 20
7283514.92
 30
0.0
 40
8.0
  1
620'
 50
88.1267
  7
ROMANS
 72
     4
 11
907142.642986
 21
7283528.376632
 31
0.0
210
0.0
220
0.0
230
1.0
  0
TEXT
  8
11
  6
CONTINUOUS
 62
     7
  5
302
 10
906356.603
 20
7282791.879
 30
0.0
 40
8.0
  1
640'
 50
88.1267
  7
ROMANS
 72
     4
 11
906353.040986
 21
7282805.335632
 31
0.0
210
0.0
220
0.0
230
1.0
  0
TEXT
  8
11
  6
CONTINUOUS
 62
     7
  5
303
 10
907239.0
 20
7282763.018
 30
0.0
 40
8.0
  1
640'
 50
88.1267
  7
ROMANS
 72
     4
 11
907235.437986
 21
7282776.474632
 31
0.0
210
0.0
220
0.0
230
1.0
  0
TEXT
  8
11
  6
CONTINUOUS
 62
     7
  5
304
 10
906485.939
 20
7283145.855
 30
0.0
 40
8.0
  1
300'
 50
358.1267
  7
ROMANS
 72
     1
 11
906499.52639
 21
7283153.414876
 31
0.0
210
0.0
220
0.0
230
1.0
 73
     3
  0
TEXT
  8
11
  6
CONTINUOUS
 62
     7
  5
305
 10
906805.479
 20
7283135.403
 30
0.0
 40
8.0
  1
290'
 50
358.1267
  7
ROMANS
 72
     1
 11
906819.06639
 21
7283142.962876
 31
0.0
210
0.0
220
0.0
230
1.0
 73
     3
  0
TEXT
  8
11
  6
CONTINUOUS
 62
     7
  5
306
 10
907095.702
 20
7283125.911
 30
0.0
 40
8.0
  1
290'
 50
358.1267
  7
ROMANS
 72
     1
 11
907109.28939
 21
7283133.470876
 31
0.0
210
0.0
220
0.0
230
1.0
 73
     3
  0
TEXT
  8
11
  6
CONTINUOUS
 62
     7
  5
307
 10
907281.252
 20
7283119.842
 30
0.0
 40
8.0
  1
83.27'
 50
358.1267
  7
ROMANS
 72
     1
 11
907302.835114
 21
7283127.140361
 31
0.0
210
0.0
220
0.0
230
1.0
 73
     3
  0
INSERT
  8
11
  6
CONTINUOUS
 62
     7
  5
313
  2
*D1
 10
907364.212
 20
7283124.566
 30
0.0
 70
     0
 71
     0
  0
TEXT
  8
11
  6
CONTINUOUS
 62
     7
  5
314
 10
907409.796
 20
7283132.616
 30
0.0
 40
8.0
  1
C
 50
26.371969
  7
ROMANS
 72
     1
 11
907408.500166
 21
7283140.90281
 31
0.0
210
0.0
220
0.0
230
1.0
 73
     3
  0
TEXT
  8
11
  6
CONTINUOUS
 62
     7
  5
315
 10
907417.813
 20
7283136.506
 30
0.0
 40
8.0
  1
H
 50
30.114681
  7
ROMANS
 72
     1
 11
907415.817239
 21
7283144.596725
 31
0.0
210
0.0
220
0.0
230
1.0
 73
     3
  0
TEXT
  8
11
  6
CONTINUOUS
 62
     7
  5
316
 10
907423.862
 20
7283140.014
 30
0.0
 40
8.0
  1
=
 50
30.114681
  7
ROMANS
 72
     1
 11
907422.731262
 21
7283148.606457
 31
0.0
210
0.0
220
0.0
230
1.0
 73
     3
  0
TEXT
  8
11
  6
CONTINUOUS
 62
     7
  5
317
 10
907432.101
 20
7283145.174
 30
0.0
 40
8.0
  1
9
 50
33.857392
  7
ROMANS
 72
     1
 11
907429.581364
 21
7283153.117194
 31
0.0
210
0.0
220
0.0
230
1.0
 73
     3
  0
TEXT
  8
11
  6
CONTINUOUS
 62
     7
  5
318
 10
907439.067
 20
7283150.09
 30
0.0
 40
8.0
  1
6
 50
37.600103
  7
ROMANS
 72
     1
 11
907436.182394
 21
7283157.965878
 31
0.0
210
0.0
220
0.0
230
1.0
 73
     3
  0
TEXT
  8
11
  6
CONTINUOUS
 62
     7
  5
319
 10
907446.821
 20
7283156.265
 30
0.0
 40
8.0
  1
'
 50
41.342811
  7
ROMANS
 72
     1
 11
907442.538026
 21
7283163.152357
 31
0.0
210
0.0
220
0.0
230
1.0
 73
     3
  0
TEXT
  8
11
  6
CONTINUOUS
 62
     7
  5
31A
 10
907477.094
 20
7283190.53
 30
0.0
 40
8.0
  1
C
 50
56.313656
  7
ROMANS
 72
     1
 11
907471.835018
 21
7283197.064027
 31
0.0
210
0.0
220
0.0
230
1.0
 73
     3
  0
TEXT
  8
11
  6
CONTINUOUS
 62
     7
  5
31B
 10
907481.773
 20
7283198.104
 30
0.0
 40
8.0
  1
H
 50
60.056367
  7
ROMANS
 72
     1
 11
907476.005377
 21
7283204.118766
 31
0.0
210
0.0
220
0.0
230
1.0
 73
     3
  0
TEXT
  8
11
  6
CONTINUOUS
 62
     7
  5
31C
 10
907485.514
 20
7283204.843
 30
0.0
 40
8.0
  1
=
 50
63.799078
  7
ROMANS
 72
     1
 11
907479.807577
 21
7283211.365701
 31
0.0
210
0.0
220
0.0
230
1.0
 73
     3
  0
TEXT
  8
11
  6
CONTINUOUS
 62
     7
  5
31D
 10
907489.743
 20
7283213.601
 30
0.0
 40
8.0
  1
9
 50
67.541789
  7
ROMANS
 72
     1
 11
907483.240961
 21
7283218.813138
 31
0.0
210
0.0
220
0.0
230
1.0
 73
     3
  0
TEXT
  8
11
  6
CONTINUOUS
 62
     7
  5
31E
 10
907493.056
 20
7283221.462
 30
0.0
 40
8.0
  1
6
 50
71.2845
  7
ROMANS
 72
     1
 11
907486.287602
 21
7283226.415705
 31
0.0
210
0.0
220
0.0
230
1.0
 73
     3
  0
TEXT
  8
11
  6
CONTINUOUS
 62
     7
  5
31F
 10
907496.008
 20
7283230.174
 30
0.0
 40
8.0
  1
.
 50
71.2845
  7
ROMANS
 72
     1
 11
907488.855201
 21
7283233.993051
 31
0.0
210
0.0
220
0.0
230
1.0
 73
     3
  0
TEXT
  8
11
  6
CONTINUOUS
 62
     7
  5
320
 10
907498.056
 20
7283237.277
 30
0.0
 40
8.0
  1
0
 50
75.027211
  7
ROMANS
 72
     1
 11
907491.012524
 21
7283241.904877
 31
0.0
210
0.0
220
0.0
230
1.0
 73
     3
  0
TEXT
  8
11
  6
CONTINUOUS
 62
     7
  5
321
 10
907500.118
 20
7283245.873
 30
0.0
 40
8.0
  1
6
 50
78.769922
  7
ROMANS
 72
     1
 11
907492.761944
 21
7283249.902744
 31
0.0
210
0.0
220
0.0
230
1.0
 73
     3
  0
TEXT
  8
11
  6
CONTINUOUS
 62
     7
  5
322
 10
907501.86
 20
7283255.63
 30
0.0
 40
8.0
  1
'
 50
82.512633
  7
ROMANS
 72
     1
 11
907494.101911
 21
7283257.994095
 31
0.0
210
0.0
220
0.0
230
1.0
 73
     3
  0
TEXT
  8
11
  6
CONTINUOUS
 62
     7
  5
323
 10
907508.231
 20
7283367.824
 30
0.0
 40
8.0
  1
248.19'
 50
88.1267
  7
ROMANS
 72
     4
 11
907505.061259
 21
7283393.274219
 31
0.0
210
0.0
220
0.0
230
1.0
  0
TEXT
  8
11
  6
CONTINUOUS
 62
     7
  5
324
 10
908119.012
 20
7283289.278
 30
0.0
 40
8.0
  1
360'
 50
88.1267
  7
ROMANS
 72
     4
 11
908115.449986
 21
7283302.734632
 31
0.0
210
0.0
220
0.0
230
1.0
  0
TEXT
  8
11
  6
CONTINUOUS
 62
     7
  5
325
 10
908102.401
 20
7282878.822
 30
0.0
 40
8.0
  1
520'
 50
88.1267
  7
ROMANS
 72
     4
 11
908098.838986
 21
7282892.278632
 31
0.0
210
0.0
220
0.0
230
1.0
  0
TEXT
  8
11
  6
CONTINUOUS
 62
     7
  5
326
 10
908090.498
 20
7282514.891
 30
0.0
 40
8.0
  1
158.19'
 50
88.1267
  7
ROMANS
 72
     4
 11
908087.328259
 21
7282540.341219
 31
0.0
210
0.0
220
0.0
230
1.0
  0
TEXT
  8
11
  6
CONTINUOUS
 62
     7
  5
327
 10
907872.371
 20
7282474.174
 30
0.0
 40
8.0
  1
445'
 50
358.1267
  7
ROMANS
 72
     1
 11
907885.696874
 21
7282473.738152
 31
0.0
210
0.0
220
0.0
230
1.0
  0
TEXT
  8
11
  6
CONTINUOUS
 62
     7
  5
328
 10
907412.116
 20
7282489.228
 30
0.0
 40
8.0
  1
420'
 50
358.1267
  7
ROMANS
 72
     1
 11
907425.441874
 21
7282488.792152
 31
0.0
210
0.0
220
0.0
230
1.0
  0
TEXT
  8
11
  6
CONTINUOUS
 62
     7
  5
329
 10
907827.179
 20
7285051.529
 30
0.0
 40
8.0
  1
605.04'
 50
358.1267
  7
ROMANS
 72
     1
 11
907852.759976
 21
7285058.696603
 31
0.0
210
0.0
220
0.0
230
1.0
 73
     3
  0
TEXT
  8
11
  6
CONTINUOUS
 62
     7
  5
32A
 10
907822.909
 20
7284741.503
 30
0.0
 40
8.0
  1
630.28'
 50
358.1267
  7
ROMANS
 72
     1
 11
907848.489976
 21
7284748.670603
 31
0.0
210
0.0
220
0.0
230
1.0
 73
     3
  0
TEXT
  8
11
  6
CONTINUOUS
 62
     7
  5
32B
 10
907147.232
 20
7285073.768
 30
0.0
 40
8.0
  1
605'
 50
358.1267
  7
ROMANS
 72
     1
 11
907160.81939
 21
7285081.327876
 31
0.0
210
0.0
220
0.0
230
1.0
 73
     3
  0
TEXT
  8
11
  6
CONTINUOUS
 62
     7
  5
32C
 10
907812.775
 20
7284431.668
 30
0.0
 40
8.0
  1
630.48'
 50
358.1267
  7
ROMANS
 72
     1
 11
907838.355976
 21
7284438.835603
 31
0.0
210
0.0
220
0.0
230
1.0
 73
     3
  0
TEXT
  8
11
  6
CONTINUOUS
 62
     7
  5
32D
 10
907805.572
 20
7284121.738
 30
0.0
 40
8.0
  1
630.68'
 50
358.1267
  7
ROMANS
 72
     1
 11
907831.152976
 21
7284128.905603
 31
0.0
210
0.0
220
0.0
230
1.0
 73
     3
  0
TEXT
  8
11
  6
CONTINUOUS
 62
     7
  5
32E
 10
907792.507
 20
7283812.0
 30
0.0
 40
8.0
  1
630.89'
 50
358.1267
  7
ROMANS
 72
     1
 11
907818.087976
 21
7283819.167603
 31
0.0
210
0.0
220
0.0
230
1.0
 73
     3
  0
TEXT
  8
11
  6
CONTINUOUS
 62
     7
  5
32F
 10
907791.12
 20
7283501.879
 30
0.0
 40
8.0
  1
631.09'
 50
358.1267
  7
ROMANS
 72
     1
 11
907816.700976
 21
7283509.046603
 31
0.0
210
0.0
220
0.0
230
1.0
 73
     3
  0
TEXT
  8
11
  6
CONTINUOUS
 62
     7
  5
330
 10
908178.842
 20
7284865.49
 30
0.0
 40
8.0
  1
309.91'
 50
88.1267
  7
ROMANS
 72
     4
 11
908175.672259
 21
7284890.940219
 31
0.0
210
0.0
220
0.0
230
1.0
  0
TEXT
  8
11
  6
CONTINUOUS
 62
     7
  5
331
 10
907557.646
 20
7284894.784
 30
0.0
 40
8.0
  1
295'
 50
88.1267
  7
ROMANS
 72
     4
 11
907554.083986
 21
7284908.240632
 31
0.0
210
0.0
220
0.0
230
1.0
  0
TEXT
  8
11
  6
CONTINUOUS
 62
     7
  5
332
 10
907478.138
 20
7284886.505
 30
0.0
 40
8.0
  1
302.2'
 50
88.1267
  7
ROMANS
 72
     4
 11
907474.837501
 21
7284907.957356
 31
0.0
210
0.0
220
0.0
230
1.0
  0
TEXT
  8
11
  6
CONTINUOUS
 62
     7
  5
333
 10
906877.232
 20
7284908.062
 30
0.0
 40
8.0
  1
317.29'
 50
88.1267
  7
ROMANS
 72
     4
 11
906874.062259
 21
7284933.512219
 31
0.0
210
0.0
220
0.0
230
1.0
  0
TEXT
  8
11
  6
CONTINUOUS
 62
     7
  5
334
 10
906856.712
 20
7284908.733
 30
0.0
 40
8.0
  1
317.29'
 50
88.1267
  7
ROMANS
 72
     4
 11
906853.542259
 21
7284934.183219
 31
0.0
210
0.0
220
0.0
230
1.0
  0
TEXT
  8
11
  6
CONTINUOUS
 62
     7
  5
335
 10
905563.031
 20
7283398.452
 30
0.0
 40
8.0
  1
370'
 50
88.1267
  7
ROMANS
 72
     4
 11
905559.468986
 21
7283411.908632
 31
0.0
210
0.0
220
0.0
230
1.0
  0
TEXT
  8
11
  6
CONTINUOUS
 62
     7
  5
336
 10
905547.294
 20
7282917.344
 30
0.0
 40
8.0
  1
528'
 50
88.1267
  7
ROMANS
 72
     4
 11
905543.731986
 21
7282930.800632
 31
0.0
210
0.0
220
0.0
230
1.0
  0
TEXT
  8
11
  6
CONTINUOUS
 62
     7
  5
337
 10
905537.119
 20
7282606.218
 30
0.0
 40
8.0
  1
140.19'
 50
88.1267
  7
ROMANS
 72
     4
 11
905533.949259
 21
7282631.668219
 31
0.0
210
0.0
220
0.0
230
1.0
  0
TEXT
  8
11
  6
CONTINUOUS
 62
     7
  5
338
 10
905727.083
 20
7282544.339
 30
0.0
 40
8.0
  1
450.7'
 50
358.1267
  7
ROMANS
 72
     1
 11
905748.404599
 21
7282543.641636
 31
0.0
210
0.0
220
0.0
230
1.0
  0
TEXT
  8
11
  6
CONTINUOUS
 62
     7
  5
339
 10
906157.16
 20
7282530.273
 30
0.0
 40
8.0
  1
390'
 50
358.1267
  7
ROMANS
 72
     1
 11
906170.485874
 21
7282529.837152
 31
0.0
210
0.0
220
0.0
230
1.0
  0
TEXT
  8
11
  6
CONTINUOUS
 62
     7
  5
33A
 10
906292.817
 20
7283152.171
 30
0.0
 40
8.0
  1
96.73'
 50
358.1267
  7
ROMANS
 72
     1
 11
906314.400114
 21
7283159.469361
 31
0.0
210
0.0
220
0.0
230
1.0
 73
     3
  0
INSERT
  8
11
  6
CONTINUOUS
 62
     7
  5
346
  2
*D2
 10
906254.87
 20
7283161.882
 30
0.0
 70
     0
 71
     0
  0
TEXT
  8
11
  6
CONTINUOUS
 62
     7
  5
347
 10
906164.876
 20
7283204.291
 30
0.0
 40
8.0
  1
C
 50
315.085522
  7
ROMANS
 72
     1
 11
906172.308971
 21
7283208.177044
 31
0.0
210
0.0
220
0.0
230
1.0
 73
     3
  0
TEXT
  8
11
  6
CONTINUOUS
 62
     7
  5
348
 10
906170.675
 20
7283198.509
 30
0.0
 40
8.0
  1
H
 50
315.085522
  7
ROMANS
 72
     1
 11
906177.975545
 21
7283202.527076
 31
0.0
210
0.0
220
0.0
230
1.0
 73
     3
  0
TEXT
  8
11
  6
CONTINUOUS
 62
     7
  5
349
 10
906176.315
 20
7283193.257
 30
0.0
 40
8.0
  1
=
 50
318.828233
  7
ROMANS
 72
     1
 11
906184.090429
 21
7283197.084739
 31
0.0
210
0.0
220
0.0
230
1.0
 73
     3
  0
TEXT
  8
11
  6
CONTINUOUS
 62
     7
  5
34A
 10
906183.771
 20
7283187.017
 30
0.0
 40
8.0
  1
9
 50
322.570944
  7
ROMANS
 72
     1
 11
906190.485879
 21
7283191.951905
 31
0.0
210
0.0
220
0.0
230
1.0
 73
     3
  0
TEXT
  8
11
  6
CONTINUOUS
 62
     7
  5
34B
 10
906190.749
 20
7283181.794
 30
0.0
 40
8.0
  1
8
 50
326.313656
  7
ROMANS
 72
     1
 11
906197.127426
 21
7283187.156701
 31
0.0
210
0.0
220
0.0
230
1.0
 73
     3
  0
TEXT
  8
11
  6
CONTINUOUS
 62
     7
  5
34C
 10
906198.864
 20
7283176.435
 30
0.0
 40
8.0
  1
.
 50
330.056367
  7
ROMANS
 72
     1
 11
906204.002718
 21
7283182.707262
 31
0.0
210
0.0
220
0.0
230
1.0
 73
     3
  0
TEXT
  8
11
  6
CONTINUOUS
 62
     7
  5
34D
 10
906204.924
 20
7283172.945
 30
0.0
 40
8.0
  1
4
 50
330.056367
  7
ROMANS
 72
     1
 11
906210.938766
 21
7283178.712623
 31
0.0
210
0.0
220
0.0
230
1.0
 73
     3
  0
TEXT
  8
11
  6
CONTINUOUS
 62
     7
  5
34E
 10
906213.562
 20
7283168.484
 30
0.0
 40
8.0
  1
1
 50
333.799078
  7
ROMANS
 72
     1
 11
906218.290198
 21
7283175.073464
 31
0.0
210
0.0
220
0.0
230
1.0
 73
     3
  0
TEXT
  8
11
  6
CONTINUOUS
 62
     7
  5
34F
 10
906221.521
 20
7283164.935
 30
0.0
 40
8.0
  1
'
 50
337.541789
  7
ROMANS
 72
     1
 11
906225.808979
 21
7283171.819049
 31
0.0
210
0.0
220
0.0
230
1.0
 73
     3
  0
TEXT
  8
11
  6
CONTINUOUS
 62
     7
  5
350
 10
906122.755
 20
7283300.91
 30
0.0
 40
8.0
  1
C
 50
273.915703
  7
ROMANS
 72
     1
 11
906130.908412
 21
7283298.942192
 31
0.0
210
0.0
220
0.0
230
1.0
 73
     3
  0
TEXT
  8
11
  6
CONTINUOUS
 62
     7
  5
351
 10
906123.709
 20
7283292.059
 30
0.0
 40
8.0
  1
H
 50
277.658414
  7
ROMANS
 72
     1
 11
906131.948686
 21
7283290.811954
 31
0.0
210
0.0
220
0.0
230
1.0
 73
     3
  0
TEXT
  8
11
  6
CONTINUOUS
 62
     7
  5
352
 10
906124.899
 20
7283284.444
 30
0.0
 40
8.0
  1
=
 50
281.401125
  7
ROMANS
 72
     1
 11
906133.399994
 21
7283282.758182
 31
0.0
210
0.0
220
0.0
230
1.0
 73
     3
  0
TEXT
  8
11
  6
CONTINUOUS
 62
     7
  5
353
 10
906126.932
 20
7283274.936
 30
0.0
 40
8.0
  1
9
 50
285.143836
  7
ROMANS
 72
     1
 11
906135.263664
 21
7283274.773963
 31
0.0
210
0.0
220
0.0
230
1.0
 73
     3
  0
TEXT
  8
11
  6
CONTINUOUS
 62
     7
  5
354
 10
906129.206
 20
7283266.517
 30
0.0
 40
8.0
  1
8
 50
288.886547
  7
ROMANS
 72
     1
 11
906137.530472
 21
7283266.899168
 31
0.0
210
0.0
220
0.0
230
1.0
 73
     3
  0
TEXT
  8
11
  6
CONTINUOUS
 62
     7
  5
355
 10
906132.302
 20
7283257.295
 30
0.0
 40
8.0
  1
.
 50
292.629258
  7
ROMANS
 72
     1
 11
906140.194772
 21
7283259.152909
 31
0.0
210
0.0
220
0.0
230
1.0
 73
     3
  0
TEXT
  8
11
  6
CONTINUOUS
 62
     7
  5
356
 10
906134.992
 20
7283250.841
 30
0.0
 40
8.0
  1
4
 50
292.629258
  7
ROMANS
 72
     1
 11
906143.273772
 21
7283251.765742
 31
0.0
210
0.0
220
0.0
230
1.0
 73
     3
  0
TEXT
  8
11
  6
CONTINUOUS
 62
     7
  5
357
 10
906139.053
 20
7283242.007
 30
0.0
 40
8.0
  1
1
 50
296.371969
  7
ROMANS
 72
     1
 11
906146.812548
 21
7283244.366302
 31
0.0
210
0.0
220
0.0
230
1.0
 73
     3
  0
TEXT
  8
11
  6
CONTINUOUS
 62
     7
  5
358
 10
906143.131
 20
7283234.306
 30
0.0
 40
8.0
  1
'
 50
300.114681
  7
ROMANS
 72
     1
 11
906150.719992
 21
7283237.166784
 31
0.0
210
0.0
220
0.0
230
1.0
 73
     3
  0
TEXT
  8
11
  6
CONTINUOUS
 62
     7
  5
359
 10
906123.184
 20
7283414.758
 30
0.0
 40
8.0
  1
248.19'
 50
88.1267
  7
ROMANS
 72
     4
 11
906120.014259
 21
7283440.208219
 31
0.0
210
0.0
220
0.0
230
1.0
  0
INSERT
  8
11
  6
CONTINUOUS
 62
     7
  5
365
  2
*D3
 10
905625.578
 20
7285118.091
 30
0.0
 70
     0
 71
     0
  0
TEXT
  8
19
  6
CONTINUOUS
 62
     1
  5
368
 10
905555.515
 20
7284347.608
 30
0.0
 40
24.0
  1
ALCOVE AVE
 50
88.1267
  7
ROMANC
 72
     4
 11
905547.765089
 21
7284477.748893
 31
0.0
210
0.0
220
0.0
230
1.0
  0
TEXT
  8
19
  6
CONTINUOUS
 62
     1
  5
369
 10
906208.86
 20
7284369.509
 30
0.0
 40
24.0
  1
YUMA AVE
 50
88.1267
  7
ROMANC
 72
     4
 11
906200.520209
 21
7284481.614537
 31
0.0
210
0.0
220
0.0
230
1.0
  0
TEXT
  8
19
  6
CONTINUOUS
 62
     1
  5
36A
 10
907509.252
 20
7284316.728
 30
0.0
 40
24.0
  1
XENIA AVE
 50
88.1267
  7
ROMANC
 72
     4
 11
907501.038815
 21
7284432.704467
 31
0.0
210
0.0
220
0.0
230
1.0
  0
TEXT
  8
19
  6
CONTINUOUS
 62
     1
  5
36B
 10
905748.237
 20
7285143.674
 30
0.0
 40
24.0
  1
ERSKINE ST
 50
358.1267
  7
ROMANC
 72
     4
 11
905871.10778
 21
7285151.661693
 31
0.0
210
0.0
220
0.0
230
1.0
  0
TEXT
  8
19
  6
CONTINUOUS
 62
     1
  5
36C
 10
906716.327
 20
7283166.262
 30
0.0
 40
24.0
  1
BAYLOR ST
 50
358.1267
  7
ROMANC
 72
     4
 11
906832.303467
 21
7283174.475185
 31
0.0
210
0.0
220
0.0
230
1.0
  0
TEXT
  8
19
  6
CONTINUOUS
 62
     1
  5
36D
 10
905498.788
 20
7282613.215
 30
0.0
 40
24.0
  1
ALCOVE AVE
 50
88.1267
  7
ROMANC
 72
     4
 11
905491.038089
 21
7282743.355893
 31
0.0
210
0.0
220
0.0
230
1.0
  0
TEXT
  8
19
  6
CONTINUOUS
 62
     1
  5
36E
 10
907832.494
 20
7285067.683
 30
0.0
 40
24.0
  1
ERSKINE ST
 50
358.1267
  7
ROMANC
 72
     4
 11
907955.36478
 21
7285075.670693
 31
0.0
210
0.0
220
0.0
230
1.0
  0
TEXT
  8
19
  6
CONTINUOUS
 62
     1
  5
36F
 10
910369.818
 20
7284984.695
 30
0.0
 40
24.0
  1
ERSKINE ST
 50
358.1267
  7
ROMANC
 72
     4
 11
910492.68878
 21
7284992.682693
 31
0.0
210
0.0
220
0.0
230
1.0
  0
TEXT
  8
19
  6
CONTINUOUS
 62
     1
  5
370
 10
906658.703
 20
7279881.344
 30
0.0
 40
24.0
  1
4TH ST
 50
358.1267
  7
ROMANC
 72
     4
 11
906735.680321
 21
7279890.832727
 31
0.0
210
0.0
220
0.0
230
1.0
  0
TEXT
  8
19
  6
CONTINUOUS
 62
     1
  5
371
 10
908894.274
 20
7279808.226
 30
0.0
 40
24.0
  1
4TH ST
 50
358.1267
  7
ROMANC
 72
     4
 11
908971.251321
 21
7279817.714727
 31
0.0
210
0.0
220
0.0
230
1.0
  0
TEXT
  8
19
  6
CONTINUOUS
 62
     1
  5
372
 10
910687.125
 20
7280785.098
 30
0.0
 40
24.0
  1
UPLAND AVE
 50
88.2047
  7
ROMANC
 72
     4
 11
910679.357768
 21
7280920.327718
 31
0.0
210
0.0
220
0.0
230
1.0
  0
TEXT
  8
19
  6
CONTINUOUS
 62
     1
  5
373
 10
910771.525
 20
7283729.688
 30
0.0
 40
24.0
  1
UPLAND AVE
 50
88.1267
  7
ROMANC
 72
     4
 11
910763.941871
 21
7283864.928166
 31
0.0
210
0.0
220
0.0
230
1.0
  0
TEXT
  8
19
  6
CONTINUOUS
 62
     1
  5
374
 10
910048.08
 20
7282169.02
 30
0.0
 40
24.0
  1
AUBURN ST
 50
358.2047
  7
ROMANC
 72
     4
 11
910170.278117
 21
7282177.195697
 31
0.0
210
0.0
220
0.0
230
1.0
  0
TEXT
  8
19
  6
CONTINUOUS
 62
     1
  5
375
 10
910025.658
 20
7281688.932
 30
0.0
 40
24.0
  1
AMHERST ST
 50
358.2047
  7
ROMANC
 72
     4
 11
910155.317453
 21
7281696.873827
 31
0.0
210
0.0
220
0.0
230
1.0
  0
TEXT
  8
19
  6
CONTINUOUS
 62
     1
  5
376
 10
910073.386
 20
7281202.945
 30
0.0
 40
24.0
  1
1ST ST
 50
358.2047
  7
ROMANC
 72
     4
 11
910140.055388
 21
7281212.861198
 31
0.0
210
0.0
220
0.0
230
1.0
  0
TEXT
  8
19
  6
CONTINUOUS
 62
     1
  5
377
 10
910050.398
 20
7280722.874
 30
0.0
 40
24.0
  1
2ND ST
 50
358.2047
  7
ROMANC
 72
     4
 11
910125.095445
 21
7280732.538565
 31
0.0
210
0.0
220
0.0
230
1.0
  0
TEXT
  8
19
  6
CONTINUOUS
 62
     1
  5
378
 10
910036.592
 20
7280246.213
 30
0.0
 40
24.0
  1
3RD ST
 50
358.2047
  7
ROMANC
 72
     4
 11
910110.156002
 21
7280255.913092
 31
0.0
210
0.0
220
0.0
230
1.0
  0
TEXT
  8
19
  6
CONTINUOUS
 62
     1
  5
379
 10
909863.371
 20
7279902.461
 30
0.0
 40
24.0
  1
VENITA AVE
 50
88.2047
  7
ROMANC
 72
     4
 11
909855.39067
 21
7280030.892056
 31
0.0
210
0.0
220
0.0
230
1.0
  0
TEXT
  8
19
  6
CONTINUOUS
 62
     1
  5
37A
 10
909907.38
 20
7281306.472
 30
0.0
 40
24.0
  1
VENITA AVE
 50
88.2047
  7
ROMANC
 72
     4
 11
909899.39967
 21
7281434.903056
 31
0.0
210
0.0
220
0.0
230
1.0
  0
TEXT
  8
15
  6
CONTINUOUS
 62
    30
  5
37C
 10
905566.21
 20
7284427.707
 30
0.0
 40
50.0
  1
WESTERN
 50
28.1267
  7
ROMANC
 72
     4
 11
905722.462158
 21
7284539.579131
 31
0.0
210
0.0
220
0.0
230
1.0
  0
TEXT
  8
15
  6
CONTINUOUS
 62
    30
  5
37D
 10
906605.861
 20
7284145.308
 30
0.0
 40
50.0
  1
RANCH
 50
28.1267
  7
ROMANC
 72
     4
 11
906715.937375
 21
7284232.496899
 31
0.0
210
0.0
220
0.0
230
1.0
  0
TEXT
  8
15
  6
CONTINUOUS
 62
    30
  5
37E
 10
907658.431
 20
7283206.129
 30
0.0
 40
50.0
  1
ACRES
 50
28.1267
  7
ROMANC
 72
     4
 11
907759.133583
 21
7283288.307145
 31
0.0
210
0.0
220
0.0
230
1.0
  0
TEXT
  8
15
  6
CONTINUOUS
 62
    30
  5
37F
 10
909227.53
 20
7281556.577
 30
0.0
 40
50.0
  1
FRIENDSHIP
 50
28.1267
  7
ROMANC
 72
     4
 11
909437.59614
 21
7281697.215356
 31
0.0
210
0.0
220
0.0
230
1.0
  0
TEXT
  8
15
  6
CONTINUOUS
 62
    30
  5
380
 10
909987.237
 20
7280344.524
 30
0.0
 40
50.0
  1
ESTATES
 50
28.2047
  7
ROMANC
 72
     4
 11
910131.540988
 21
7280450.282682
 31
0.0
210
0.0
220
0.0
230
1.0
  0
INSERT
  8
11
  6
CONTINUOUS
 62
     7
  5
387
  2
*D4
 10
905533.341
 20
7283216.222
 30
0.0
 70
     0
 71
     0
  0
INSERT
  8
11
  6
CONTINUOUS
 62
     7
  5
38D
  2
*D5
 10
905516.082
 20
7282688.504
 30
0.0
 70
     0
 71
     0
  0
INSERT
  8
11
  6
CONTINUOUS
 62
     7
  5
393
  2
*D6
 10
905964.246
 20
7282533.581
 30
0.0
 70
     0
 71
     0
  0
INSERT
  8
11
  6
CONTINUOUS
 62
     7
  5
399
  2
*D7
 10
907492.548
 20
7283274.327
 30
0.0
 70
     0
 71
     0
  0
INSERT
  8
11
  6
CONTINUOUS
 62
     7
  5
39F
  2
*D8
 10
908099.596
 20
7282633.499
 30
0.0
 70
     0
 71
     0
  0
INSERT
  8
11
  6
CONTINUOUS
 62
     7
  5
3A5
  2
*D9
 10
907653.344
 20
7282478.336
 30
0.0
 70
     0
 71
     0
  0
LINE
  8
21
  6
DASHDOT
 62
     7
  5
3A7
 10
909366.032
 20
7280294.805
 30
0.0
 11
909831.184
 21
7280280.226
 31
0.0
  0
LINE
  8
21
  6
DASHDOT
 62
     7
  5
3A8
 10
909365.406
 20
7280274.816
 30
0.0
 11
909830.558
 21
7280260.235
 31
0.0
  0
LINE
  8
21
  6
DASHDOT
 62
     7
  5
3A9
 10
909380.075
 20
7280748.879
 30
0.0
 11
909845.417
 21
7280734.293
 31
0.0
  0
LINE
  8
21
  6
DASHDOT
 62
     7
  5
3AA
 10
909379.448
 20
7280728.888
 30
0.0
 11
909844.79
 21
7280714.303
 31
0.0
  0
LINE
  8
21
  6
DASHDOT
 62
     7
  5
3AB
 10
909371.666
 20
7279830.051
 30
0.0
 11
909438.022
 21
7281949.092
 31
0.0
  0
TEXT
  8
22
  6
CONTINUOUS
 62
     3
  5
3AD
 10
909390.146
 20
7279874.61
 30
0.0
 40
8.0
  1
20' GARBAGE COLLECTION AND UTILITY EASEMENT
 50
88.2047
  7
ROMANS
210
0.0
220
0.0
230
1.0
  0
TEXT
  8
22
  6
CONTINUOUS
 62
     3
  5
3AE
 10
909435.655
 20
7281326.528
 30
0.0
 40
8.0
  1
20' GARBAGE COLLECTION AND UTILITY EASEMENT
 50
88.2047
  7
ROMANS
210
0.0
220
0.0
230
1.0
  0
TEXT
  8
22
  6
CONTINUOUS
 62
     3
  5
3AF
 10
909555.236
 20
7280749.391
 30
0.0
 40
8.0
  1
20' DRAINAGE EASEMENT
 50
358.2047
  7
ROMANS
210
0.0
220
0.0
230
1.0
  0
TEXT
  8
22
  6
CONTINUOUS
 62
     3
  5
3B0
 10
909554.234
 20
7280294.911
 30
0.0
 40
8.0
  1
20' DRAINAGE EASEMENT
 50
358.2047
  7
ROMANS
210
0.0
220
0.0
230
1.0
  0
LINE
  8
21
  6
DASHDOT
 62
     7
  5
3B1
 10
909429.093
 20
7282169.4
 30
0.0
 11
909422.827
 21
7281969.497
 31
0.0
  0
POLYLINE
  8
21
  6
DASHDOT
 62
     7
  5
3B2
 66
     1
 10
0.0
 20
0.0
 30
0.0
  0
VERTEX
  8
21
  6
DASHDOT
 62
     7
  5
3B3
 10
906151.479
 20
7283886.373
 30
0.0
  0
VERTEX
  8
21
  6
DASHDOT
 62
     7
  5
3B4
 10
905911.607
 20
7283894.219
 30
0.0
  0
VERTEX
  8
21
  6
DASHDOT
 62
     7
  5
3B5
 10
905901.94
 20
7283904.541
 30
0.0
  0
VERTEX
  8
21
  6
DASHDOT
 62
     7
  5
3B6
 10
905941.831
 20
7285124.199
 30
0.0
  0
SEQEND
  8
21
  6
DASHDOT
 62
     7
  5
3B7
  0
POLYLINE
  8
21
  6
DASHDOT
 62
     7
  5
3B8
 66
     1
 10
0.0
 20
0.0
 30
0.0
  0
VERTEX
  8
21
  6
DASHDOT
 62
     7
  5
3B9
 10
905921.842
 20
7285124.853
 30
0.0
  0
VERTEX
  8
21
  6
DASHDOT
 62
     7
  5
3BA
 10
905881.95
 20
7283905.195
 30
0.0
  0
VERTEX
  8
21
  6
DASHDOT
 62
     7
  5
3BB
 10
905871.629
 20
7283895.527
 30
0.0
  0
VERTEX
  8
21
  6
DASHDOT
 62
     7
  5
3BC
 10
905555.897
 20
7283905.853
 30
0.0
  0
SEQEND
  8
21
  6
DASHDOT
 62
     7
  5
3BD
  0
POLYLINE
  8
21
  6
DASHDOT
 62
     7
  5
3BE
 66
     1
 10
0.0
 20
0.0
 30
0.0
  0
VERTEX
  8
21
  6
DASHDOT
 62
     7
  5
3BF
 10
906150.825
 20
7283866.384
 30
0.0
  0
VERTEX
  8
21
  6
DASHDOT
 62
     7
  5
3C0
 10
905910.953
 20
7283874.23
 30
0.0
  0
VERTEX
  8
21
  6
DASHDOT
 62
     7
  5
3C1
 10
905900.632
 20
7283864.562
 30
0.0
  0
VERTEX
  8
21
  6
DASHDOT
 62
     7
  5
3C2
 10
905882.366
 20
7283306.119
 30
0.0
  0
SEQEND
  8
21
  6
DASHDOT
 62
     7
  5
3C3
  0
POLYLINE
  8
21
  6
DASHDOT
 62
     7
  5
3C4
 66
     1
 10
0.0
 20
0.0
 30
0.0
  0
VERTEX
  8
21
  6
DASHDOT
 62
     7
  5
3C5
 10
905862.244
 20
7283302.68
 30
0.0
  0
VERTEX
  8
21
  6
DASHDOT
 62
     7
  5
3C6
 10
905880.642
 20
7283865.216
 30
0.0
  0
VERTEX
  8
21
  6
DASHDOT
 62
     7
  5
3C7
 10
905870.975
 20
7283875.538
 30
0.0
  0
VERTEX
  8
21
  6
DASHDOT
 62
     7
  5
3C8
 10
905555.243
 20
7283885.863
 30
0.0
  0
SEQEND
  8
21
  6
DASHDOT
 62
     7
  5
3C9
  0
LINE
  8
21
  6
DASHDOT
 62
     7
  5
3CA
 10
905882.366
 20
7283306.119
 30
0.0
 11
905891.897
 21
7283297.81
 31
0.0
  0
LINE
  8
21
  6
DASHDOT
 62
     7
  5
3CB
 10
905862.244
 20
7283302.68
 30
0.0
 11
905852.059
 21
7283291.0
 31
0.0
  0
LINE
  8
21
  6
DASHDOT
 62
     7
  5
3CC
 10
905574.858
 20
7284485.563
 30
0.0
 11
906170.602
 21
7284466.079
 31
0.0
  0
LINE
  8
21
  6
DASHDOT
 62
     7
  5
3CD
 10
905576.819
 20
7284545.531
 30
0.0
 11
906172.597
 21
7284526.045
 31
0.0
  0
LINE
  8
21
  6
DASHDOT
 62
     7
  5
3CE
 10
906232.565
 20
7284524.084
 30
0.0
 11
907471.903
 21
7284483.549
 31
0.0
  0
LINE
  8
21
  6
DASHDOT
 62
     7
  5
3CF
 10
906230.604
 20
7284464.116
 30
0.0
 11
907469.941
 21
7284423.581
 31
0.0
  0
LINE
  8
21
  6
DASHDOT
 62
     7
  5
3D0
 10
907531.871
 20
7284481.587
 30
0.0
 11
908162.014
 21
7284460.978
 31
0.0
  0
LINE
  8
21
  6
DASHDOT
 62
     7
  5
3D1
 10
907529.909
 20
7284421.62
 30
0.0
 11
908160.052
 21
7284401.01
 31
0.0
  0
LINE
  8
21
  6
DASHDOT
 62
     7
  5
3D2
 10
906210.231
 20
7283836.237
 30
0.0
 11
907449.568
 21
7283795.701
 31
0.0
  0
POLYLINE
  8
21
  6
DASHDOT
 62
     7
  5
3D3
 66
     1
 10
0.0
 20
0.0
 30
0.0
  0
VERTEX
  8
21
  6
DASHDOT
 62
     7
  5
3D4
 10
906210.885
 20
7283856.226
 30
0.0
  0
VERTEX
  8
21
  6
DASHDOT
 62
     7
  5
3D5
 10
906810.564
 20
7283836.611
 30
0.0
  0
VERTEX
  8
21
  6
DASHDOT
 62
     7
  5
3D6
 10
906820.886
 20
7283846.279
 30
0.0
  0
VERTEX
  8
21
  6
DASHDOT
 62
     7
  5
3D7
 10
906861.698
 20
7285094.112
 30
0.0
  0
SEQEND
  8
21
  6
DASHDOT
 62
     7
  5
3D8
  0
POLYLINE
  8
21
  6
DASHDOT
 62
     7
  5
3D9
 66
     1
 10
0.0
 20
0.0
 30
0.0
  0
VERTEX
  8
21
  6
DASHDOT
 62
     7
  5
3DA
 10
907450.222
 20
7283815.69
 30
0.0
  0
VERTEX
  8
21
  6
DASHDOT
 62
     7
  5
3DB
 10
906850.543
 20
7283835.305
 30
0.0
  0
VERTEX
  8
21
  6
DASHDOT
 62
     7
  5
3DC
 10
906840.875
 20
7283845.626
 30
0.0
  0
VERTEX
  8
21
  6
DASHDOT
 62
     7
  5
3DD
 10
906881.688
 20
7285093.459
 30
0.0
  0
SEQEND
  8
21
  6
DASHDOT
 62
     7
  5
3DE
  0
LINE
  8
21
  6
DASHDOT
 62
     7
  5
3DF
 10
905922.599
 20
7284536.223
 30
0.0
 11
906172.663
 21
7284528.043
 31
0.0
  0
LINE
  8
21
  6
DASHDOT
 62
     7
  5
3E0
 10
905891.434
 20
7283277.44
 30
0.0
 11
905881.32
 21
7282968.208
 31
0.0
  0
LINE
  8
21
  6
DASHDOT
 62
     7
  5
3E1
 10
905851.187
 20
7283270.561
 30
0.0
 11
905840.992
 21
7282958.84
 31
0.0
  0
LINE
  8
21
  6
DASHDOT
 62
     7
  5
3E2
 10
905840.992
 20
7282958.84
 30
0.0
 11
906069.191
 21
7282530.149
 31
0.0
  0
LINE
  8
21
  6
DASHDOT
 62
     7
  5
3E3
 10
905881.32
 20
7282968.208
 30
0.0
 11
906115.308
 21
7282528.641
 31
0.0
  0
LINE
  8
21
  6
DASHDOT
 62
     7
  5
3E4
 10
905512.152
 20
7282568.378
 30
0.0
 11
908063.502
 21
7282484.931
 31
0.0
  0
POLYLINE
  8
21
  6
DASHDOT
 62
     7
  5
3E5
 66
     1
 10
0.0
 20
0.0
 30
0.0
  0
VERTEX
  8
21
  6
DASHDOT
 62
     7
  5
3E6
 10
908063.502
 20
7282484.931
 30
0.0
  0
VERTEX
  8
21
  6
DASHDOT
 62
     7
  5
3E7
 10
908073.823
 20
7282494.599
 30
0.0
  0
VERTEX
  8
21
  6
DASHDOT
 62
     7
  5
3E8
 10
908157.459
 20
7285051.732
 30
0.0
  0
SEQEND
  8
21
  6
DASHDOT
 62
     7
  5
3E9
  0
TEXT
  8
22
  6
CONTINUOUS
 62
     3
  5
3EA
 10
905653.864
 20
7282569.746
 30
0.0
 40
8.0
  1
20' UUE
 50
358.1267
  7
ROMANS
210
0.0
220
0.0
230
1.0
  0
TEXT
  8
22
  6
CONTINUOUS
 62
     3
  5
3EB
 10
906757.838
 20
7282533.639
 30
0.0
 40
8.0
  1
20' UUE
 50
358.1267
  7
ROMANS
210
0.0
220
0.0
230
1.0
  0
TEXT
  8
22
  6
CONTINUOUS
 62
     3
  5
3EC
 10
907951.51
 20
7282494.597
 30
0.0
 40
8.0
  1
20' UUE
 50
358.1267
  7
ROMANS
210
0.0
220
0.0
230
1.0
  0
TEXT
  8
22
  6
CONTINUOUS
 62
     3
  5
3ED
 10
908078.531
 20
7282754.498
 30
0.0
 40
8.0
  1
20' UUE
 50
88.1267
  7
ROMANS
210
0.0
220
0.0
230
1.0
  0
TEXT
  8
22
  6
CONTINUOUS
 62
     3
  5
3EE
 10
908100.763
 20
7283645.419
 30
0.0
 40
8.0
  1
20' UUE
 50
88.1267
  7
ROMANS
210
0.0
220
0.0
230
1.0
  0
TEXT
  8
22
  6
CONTINUOUS
 62
     3
  5
3EF
 10
908133.507
 20
7284646.59
 30
0.0
 40
8.0
  1
20' UUE
 50
88.1267
  7
ROMANS
210
0.0
220
0.0
230
1.0
  0
TEXT
  8
22
  6
CONTINUOUS
 62
     3
  5
3F0
 10
906490.169
 20
7283853.094
 30
0.0
 40
8.0
  1
20' UUE
 50
358.1267
  7
ROMANS
210
0.0
220
0.0
230
1.0
  0
TEXT
  8
22
  6
CONTINUOUS
 62
     3
  5
3F1
 10
907187.052
 20
7283830.301
 30
0.0
 40
8.0
  1
20' UUE
 50
358.1267
  7
ROMANS
210
0.0
220
0.0
230
1.0
  0
TEXT
  8
22
  6
CONTINUOUS
 62
     3
  5
3F2
 10
906860.473
 20
7283948.641
 30
0.0
 40
8.0
  1
20' UUE
 50
88.1267
  7
ROMANS
210
0.0
220
0.0
230
1.0
  0
TEXT
  8
22
  6
CONTINUOUS
 62
     3
  5
3F3
 10
906842.436
 20
7284875.44
 30
0.0
 40
8.0
  1
20' UUE
 50
88.1267
  7
ROMANS
210
0.0
220
0.0
230
1.0
  0
TEXT
  8
22
  6
CONTINUOUS
 62
     3
  5
3F4
 10
905667.616
 20
7284468.522
 30
0.0
 40
8.0
  1
60' DRAINAGE EASEMENT
 50
358.1267
  7
ROMANS
210
0.0
220
0.0
230
1.0
  0
TEXT
  8
22
  6
CONTINUOUS
 62
     3
  5
3F5
 10
906412.799
 20
7284444.149
 30
0.0
 40
8.0
  1
60' DRAINAGE EASEMENT
 50
358.1267
  7
ROMANS
210
0.0
220
0.0
230
1.0
  0
TEXT
  8
22
  6
CONTINUOUS
 62
     3
  5
3F6
 10
907689.269
 20
7284402.4
 30
0.0
 40
8.0
  1
60' DRAINAGE EASEMENT
 50
358.1267
  7
ROMANS
210
0.0
220
0.0
230
1.0
  0
TEXT
  8
22
  6
CONTINUOUS
 62
     3
  5
3F7
 10
907658.877
 20
7283473.187
 30
0.0
 40
8.0
  1
60' DRAINAGE EASEMENT
 50
358.1267
  7
ROMANS
210
0.0
220
0.0
230
1.0
  0
TEXT
  8
22
  6
CONTINUOUS
 62
     3
  5
3F8
 10
905910.929
 20
7283426.737
 30
0.0
 40
8.0
  1
20' DRAINAGE AND UTILITY EASEMENT
 50
88.1267
  7
ROMANS
210
0.0
220
0.0
230
1.0
  0
TEXT
  8
22
  6
CONTINUOUS
 62
     3
  5
3F9
 10
905947.613
 20
7284759.555
 30
0.0
 40
8.0
  1
20' DRAINAGE AND UTILITY EASEMENT
 50
88.1267
  7
ROMANS
210
0.0
220
0.0
230
1.0
  0
TEXT
  8
22
  6
CONTINUOUS
 62
     3
  5
3FA
 10
905594.187
 20
7283912.933
 30
0.0
 40
8.0
  1
20' DRAINAGE AND UTILITY EASEMENT
 50
358.1267
  7
ROMANS
210
0.0
220
0.0
230
1.0
  0
TEXT
  8
22
  6
CONTINUOUS
 62
     3
  5
3FB
 10
905602.254
 20
7283254.381
 30
0.0
 40
8.0
  1
20' DRAINAGE AND UTILITY EASEMENT
 50
9.701542
  7
ROMANS
210
0.0
220
0.0
230
1.0
  0
TEXT
  8
22
  6
CONTINUOUS
 62
     3
  5
3FC
 10
905915.797
 20
7282916.206
 30
0.0
 40
8.0
  1
40' DRAINAGE AND UTILITY EASEMENT
 50
298.027025
  7
ROMANS
210
0.0
220
0.0
230
1.0
  0
POLYLINE
  8
1
  6
HIDDEN
 62
   253
  5
3FE
 66
     1
 10
0.0
 20
0.0
 30
0.0
 70
     1
  0
VERTEX
  8
1
  6
HIDDEN
 62
   253
  5
3FF
 10
905393.263
 20
7279905.3
 30
0.0
  0
VERTEX
  8
1
  6
HIDDEN
 62
   253
  5
400
 10
910657.187
 20
7279748.899
 30
0.0
  0
VERTEX
  8
1
  6
HIDDEN
 62
   253
  5
401
 10
910827.848
 20
7285055.38
 30
0.0
  0
VERTEX
  8
1
  6
HIDDEN
 62
   253
  5
402
 10
905565.301
 20
7285215.098
 30
0.0
  0
SEQEND
  8
1
  6
HIDDEN
 62
   253
  5
403
  0
LINE
  8
6
  6
CONTINUOUS
 62
     7
  5
404
 10
909801.644
 20
7279816.573
 30
0.0
 11
909351.676
 21
7279830.677
 31
0.0
  0
LINE
  8
6
  6
CONTINUOUS
 62
     7
  5
405
 10
909351.313
 20
7279818.941
 30
0.0
 11
909417.203
 21
7281949.665
 31
0.0
  0
TEXT
  8
22
  6
CONTINUOUS
 62
     3
  5
406
 10
909937.417
 20
7282243.294
 30
0.0
 40
8.0
  1
20' UUE-ENERGAS
 50
88.2047
  7
ROMANS
210
0.0
220
0.0
230
1.0
  0
TEXT
  8
11
  6
CONTINUOUS
 62
     7
  5
407
 10
910656.48
 20
7282230.411
 30
0.0
 40
8.0
  1
R=30
 50
315.0
  7
ROMANS
 11
910659.308427
 21
7282233.239427
 31
0.0
210
0.0
220
0.0
230
1.0
 73
     2
  0
TEXT
  8
11
  6
CONTINUOUS
 62
     7
  5
408
 10
910658.786
 20
7282086.7
 30
0.0
 40
8.0
  1
R=30
 50
45.0
  7
ROMANS
 11
910655.957573
 21
7282089.528427
 31
0.0
210
0.0
220
0.0
230
1.0
 73
     2
  0
LINE
  8
58
  6
DIVIDE
 62
   216
  5
40A
 10
905415.05
 20
7280565.882
 30
0.0
 11
909370.621
 21
7280430.352
 31
0.0
  0
LINE
  8
58
  6
DIVIDE
 62
   216
  5
40B
 10
909365.909
 20
7280279.776
 30
0.0
 11
909370.621
 21
7280430.352
 31
0.0
  0
LINE
  8
58
  6
DIVIDE
 62
   216
  5
40C
 10
909365.909
 20
7280279.776
 30
0.0
 11
909831.016
 21
7280263.84
 31
0.0
  0
LINE
  8
58
  6
DIVIDE
 62
   216
  5
40D
 10
909831.016
 20
7280263.84
 30
0.0
 11
909831.819
 21
7280289.497
 31
0.0
  0
LINE
  8
58
  6
DIVIDE
 62
   216
  5
40E
 10
909831.819
 20
7280289.497
 30
0.0
 11
910631.35
 21
7280262.103
 31
0.0
  0
LINE
  8
58
  6
DIVIDE
 62
   216
  5
40F
 10
910631.35
 20
7280262.103
 30
0.0
 11
910635.259
 21
7280387.022
 31
0.0
  0
LINE
  8
58
  6
DIVIDE
 62
   216
  5
410
 10
910635.259
 20
7280387.022
 30
0.0
 11
910690.227
 21
7280385.139
 31
0.0
  0
LINE
  8
21
  6
DASHDOT
 62
     7
  5
411
 10
910319.741
 20
7282205.515
 30
0.0
 11
910324.938
 21
7282371.284
 31
0.0
  0
TEXT
  8
22
  6
CONTINUOUS
 62
     3
  5
412
 10
910316.221
 20
7282249.994
 30
0.0
 40
8.0
  1
20' UUE-LPL
 50
88.2047
  7
ROMANS
210
0.0
220
0.0
230
1.0
  0
LINE
  8
21
  6
DASHDOT
 62
     7
  5
413
 10
909961.917
 20
7282216.73
 30
0.0
 11
909967.113
 21
7282382.499
 31
0.0
  0
LINE
  8
21
  6
DASHDOT
 62
     7
  5
414
 10
909941.927
 20
7282217.356
 30
0.0
 11
909947.123
 21
7282383.126
 31
0.0
  0
LINE
  8
21
  6
DASHDOT
 62
     7
  5
415
 10
905534.009
 20
7283236.626
 30
0.0
 11
905852.059
 21
7283291.0
 31
0.0
  0
LINE
  8
21
  6
DASHDOT
 62
     7
  5
416
 10
905891.897
 20
7283297.81
 30
0.0
 11
906133.942
 21
7283339.189
 31
0.0
  0
LINE
  8
21
  6
DASHDOT
 62
     7
  5
417
 10
907499.681
 20
7283492.402
 30
0.0
 11
908133.253
 21
7283471.679
 31
0.0
  0
LINE
  8
21
  6
DASHDOT
 62
     7
  5
418
 10
907501.642
 20
7283552.369
 30
0.0
 11
908135.214
 21
7283531.647
 31
0.0
  0
ENDSEC
  0
EOF
