  0
SECTION
  2
HEADER
  9
$ACADVER
  1
AC1009
  9
$INSBASE
 10
0.0
 20
0.0
 30
0.0
  9
$EXTMIN
 10
904709.658
 20
7258641.426
 30
0.0
  9
$EXTMAX
 10
910147.867
 20
7264079.379
 30
0.0
  9
$LIMMIN
 10
0.0
 20
0.0
  9
$LIMMAX
 10
12.0
 20
9.0
  9
$ORTHOMODE
 70
     0
  9
$REGENMODE
 70
     1
  9
$FILLMODE
 70
     1
  9
$QTEXTMODE
 70
     0
  9
$MIRRTEXT
 70
     1
  9
$DRAGMODE
 70
     2
  9
$LTSCALE
 40
1.0
  9
$OSMODE
 70
     0
  9
$ATTMODE
 70
     1
  9
$TEXTSIZE
 40
0.2
  9
$TRACEWID
 40
0.05
  9
$TEXTSTYLE
  7
STANDARD
  9
$CLAYER
  8
0
  9
$CELTYPE
  6
CONTINUOUS
  9
$CECOLOR
 62
   256
  9
$DIMSCALE
 40
1.0
  9
$DIMASZ
 40
0.18
  9
$DIMEXO
 40
0.0625
  9
$DIMDLI
 40
0.38
  9
$DIMRND
 40
0.0
  9
$DIMDLE
 40
0.0
  9
$DIMEXE
 40
0.18
  9
$DIMTP
 40
0.0
  9
$DIMTM
 40
0.0
  9
$DIMTXT
 40
0.18
  9
$DIMCEN
 40
0.09
  9
$DIMTSZ
 40
0.0
  9
$DIMTOL
 70
     0
  9
$DIMLIM
 70
     0
  9
$DIMTIH
 70
     1
  9
$DIMTOH
 70
     1
  9
$DIMSE1
 70
     0
  9
$DIMSE2
 70
     0
  9
$DIMTAD
 70
     0
  9
$DIMZIN
 70
     0
  9
$DIMBLK
  1

  9
$DIMASO
 70
     1
  9
$DIMSHO
 70
     1
  9
$DIMPOST
  1

  9
$DIMAPOST
  1

  9
$DIMALT
 70
     0
  9
$DIMALTD
 70
     2
  9
$DIMALTF
 40
25.4
  9
$DIMLFAC
 40
1.0
  9
$DIMTOFL
 70
     0
  9
$DIMTVP
 40
0.0
  9
$DIMTIX
 70
     0
  9
$DIMSOXD
 70
     0
  9
$DIMSAH
 70
     0
  9
$DIMBLK1
  1

  9
$DIMBLK2
  1

  9
$DIMSTYLE
  2
STANDARD
  9
$DIMCLRD
 70
     0
  9
$DIMCLRE
 70
     0
  9
$DIMCLRT
 70
     0
  9
$DIMTFAC
 40
1.0
  9
$DIMGAP
 40
0.09
  9
$LUNITS
 70
     2
  9
$LUPREC
 70
     4
  9
$AXISMODE
 70
     0
  9
$AXISUNIT
 10
0.0
 20
0.0
  9
$SKETCHINC
 40
0.1
  9
$FILLETRAD
 40
0.0
  9
$AUNITS
 70
     0
  9
$AUPREC
 70
     0
  9
$MENU
  1
acad
  9
$ELEVATION
 40
0.0
  9
$PELEVATION
 40
0.0
  9
$THICKNESS
 40
0.0
  9
$LIMCHECK
 70
     0
  9
$BLIPMODE
 70
     1
  9
$CHAMFERA
 40
0.0
  9
$CHAMFERB
 40
0.0
  9
$SKPOLY
 70
     0
  9
$TDCREATE
 40
2453013.904016204
  9
$TDUPDATE
 40
2453013.904016204
  9
$TDINDWG
 40
0.0000000000
  9
$TDUSRTIMER
 40
0.0000000000
  9
$USRTIMER
 70
     1
  9
$ANGBASE
 50
0.0
  9
$ANGDIR
 70
     0
  9
$PDMODE
 70
     0
  9
$PDSIZE
 40
0.0
  9
$PLINEWID
 40
0.0
  9
$COORDS
 70
     0
  9
$SPLFRAME
 70
     0
  9
$SPLINETYPE
 70
     6
  9
$SPLINESEGS
 70
    10
  9
$ATTDIA
 70
     0
  9
$ATTREQ
 70
     1
  9
$HANDLING
 70
     1
  9
$HANDSEED
  5
2A2
  9
$SURFTAB1
 70
     6
  9
$SURFTAB2
 70
     6
  9
$SURFTYPE
 70
     6
  9
$SURFU
 70
     6
  9
$SURFV
 70
     6
  9
$UCSNAME
  2

  9
$UCSORG
 10
0.0
 20
0.0
 30
0.0
  9
$UCSXDIR
 10
1.0
 20
0.0
 30
0.0
  9
$UCSYDIR
 10
0.0
 20
1.0
 30
0.0
  9
$PUCSNAME
  2

  9
$PUCSORG
 10
0.0
 20
0.0
 30
0.0
  9
$PUCSXDIR
 10
1.0
 20
0.0
 30
0.0
  9
$PUCSYDIR
 10
0.0
 20
1.0
 30
0.0
  9
$USERI1
 70
     0
  9
$USERI2
 70
     0
  9
$USERI3
 70
     0
  9
$USERI4
 70
     0
  9
$USERI5
 70
     0
  9
$USERR1
 40
0.0
  9
$USERR2
 40
0.0
  9
$USERR3
 40
0.0
  9
$USERR4
 40
0.0
  9
$USERR5
 40
0.0
  9
$WORLDVIEW
 70
     1
  9
$SHADEDGE
 70
     3
  9
$SHADEDIF
 70
    70
  9
$TILEMODE
 70
     1
  9
$MAXACTVP
 70
    16
  9
$PINSBASE
 10
0.0
 20
0.0
 30
0.0
  9
$PLIMCHECK
 70
     0
  9
$PEXTMIN
 10
-1.000000E+20
 20
-1.000000E+20
 30
-1.000000E+20
  9
$PEXTMAX
 10
-1.000000E+20
 20
-1.000000E+20
 30
-1.000000E+20
  9
$PLIMMIN
 10
0.0
 20
0.0
  9
$PLIMMAX
 10
12.0
 20
9.0
  9
$UNITMODE
 70
     0
  9
$VISRETAIN
 70
     0
  9
$PLINEGEN
 70
     1
  9
$PSLTSCALE
 70
     0
  9
$TREEDEPTH
 70
  3020
  9
$DWGCODEPAGE
  3
ansi_1252
  0
ENDSEC
  0
SECTION
  2
TABLES
  0
TABLE
  2
VPORT
 70
     1
  0
VPORT
  2
*ACTIVE
 70
     0
 10
0.0
 20
0.0
 11
1.0
 21
1.0
 12
0.0
 22
0.0
 13
0.0
 23
0.0
 14
0.0
 24
0.0
 15
0.0
 25
0.0
 16
0.0
 26
0.0
 36
1.0
 17
907288.668875
 27
7261381.668
 37
0.0
 40
5616.432
 41
1.314236
 42
50.0
 43
0.004
 44
0.0
 50
0.0
 51
0.0
 71
     0
 72
   100
 73
     1
 74
     0
 75
     0
 76
     0
 77
     0
 78
     0
  0
ENDTAB
  0
TABLE
  2
LTYPE
 70
     7
  0
LTYPE
  2
CONTINUOUS
 70
     0
  3
Solid line
 72
    65
 73
     0
 40
0.0
  0
LTYPE
  2
DOT
 70
    64
  3
. . . . . . . . . . . . . . . . . . . . . . . . . . . . . . . . .
 72
    65
 73
     2
 40
0.25
 49
0.0
 49
-0.25
  0
LTYPE
  2
HIDDEN
 70
    64
  3
__ __ __ __ __ __ __ __ __ __ __ __ __ __ __ __ __ __ __ __ __ 
 72
    65
 73
     2
 40
0.375
 49
0.25
 49
-0.125
  0
LTYPE
  2
DASHED
 70
    64
  3
__ __ __ __ __ __ __ __ __ __ __ __ __ __ __ __ __ __ __ __ __
 72
    65
 73
     2
 40
0.75
 49
0.5
 49
-0.25
  0
LTYPE
  2
DASHDOT
 70
    64
  3
__ . __ . __ . __ . __ . __ . __ . __ . __ . __ . __ . __ . _
 72
    65
 73
     4
 40
1.0
 49
0.5
 49
-0.25
 49
0.0
 49
-0.25
  0
LTYPE
  2
DIVIDE
 70
    64
  3
____ . . ____ . . ____ . . ____ . . ____ . . ____ . . ____ . .
 72
    65
 73
     6
 40
1.25
 49
0.5
 49
-0.25
 49
0.0
 49
-0.25
 49
0.0
 49
-0.25
  0
LTYPE
  2
CENTER
 70
    64
  3
____ _ ____ _ ____ _ ____ _ ____ _ ____ _ ____ _ ____ _ ____ _
 72
    65
 73
     4
 40
2.0
 49
1.25
 49
-0.25
 49
0.25
 49
-0.25
  0
ENDTAB
  0
TABLE
  2
LAYER
 70
    15
  0
LAYER
  2
0
 70
     0
 62
     7
  6
CONTINUOUS
  0
LAYER
  2
CONSTRUCTION_CLASS
 70
     1
 62
     7
  6
CONTINUOUS
  0
LAYER
  2
PATTERN_CLASS
 70
     0
 62
     7
  6
CONTINUOUS
  0
LAYER
  2
6
 70
    64
 62
     7
  6
CONTINUOUS
  0
LAYER
  2
7
 70
    64
 62
     7
  6
CONTINUOUS
  0
LAYER
  2
21
 70
    64
 62
     7
  6
CONTINUOUS
  0
LAYER
  2
10
 70
    64
 62
     7
  6
CONTINUOUS
  0
LAYER
  2
11
 70
    64
 62
     7
  6
CONTINUOUS
  0
LAYER
  2
22
 70
    64
 62
     7
  6
CONTINUOUS
  0
LAYER
  2
8
 70
    64
 62
     7
  6
CONTINUOUS
  0
LAYER
  2
19
 70
    64
 62
     7
  6
CONTINUOUS
  0
LAYER
  2
15
 70
    64
 62
     7
  6
CONTINUOUS
  0
LAYER
  2
1
 70
    64
 62
     7
  6
CONTINUOUS
  0
LAYER
  2
13
 70
    64
 62
     7
  6
CONTINUOUS
  0
LAYER
  2
58
 70
    64
 62
     7
  6
CONTINUOUS
  0
ENDTAB
  0
TABLE
  2
STYLE
 70
     4
  0
STYLE
  2
STANDARD
 70
     0
 40
0.0
 41
1.0
 50
0.0
 71
     0
 42
0.0
  3
txt
  4

  0
STYLE
  2
ROMANS
 70
     0
 40
0.2
 41
1.0
 50
0.0
 71
     0
 42
0.2
  3
ROMANS
  4

  0
STYLE
  2
txt
 70
     0
 40
0.2
 41
1.0
 50
0.0
 71
     0
 42
0.2
  3
TXT
  4

  0
STYLE
  2
ROMANC
 70
     0
 40
0.2
 41
1.0
 50
0.0
 71
     0
 42
0.2
  3
ROMANC
  4

  0
ENDTAB
  0
TABLE
  2
VIEW
 70
     0
  0
ENDTAB
  0
TABLE
  2
UCS
 70
     0
  0
ENDTAB
  0
TABLE
  2
APPID
 70
     1
  0
APPID
  2
ACAD
 70
     0
  0
ENDTAB
  0
TABLE
  2
DIMSTYLE
 70
     1
  0
DIMSTYLE
  2
STANDARD
 70
     0
  3

  4

  5

  6

  7

 40
1.0
 41
0.18
 42
0.0625
 43
0.38
 44
0.18
 45
0.0
 46
0.0
 47
0.0
 48
0.0
140
0.18
141
0.09
142
0.0
143
25.4
144
1.0
145
0.0
146
1.0
147
0.09
 71
     0
 72
     0
 73
     1
 74
     1
 75
     0
 76
     0
 77
     0
 78
     0
170
     0
171
     2
172
     0
173
     0
174
     0
175
     0
176
     0
177
     0
178
     0
  0
ENDTAB
  0
ENDSEC
  0
SECTION
  2
BLOCKS
  0
ENDSEC
  0
SECTION
  2
ENTITIES
  0
LINE
  8
6
  6
CONTINUOUS
 62
     7
  5
29
 10
910030.345
 20
7261272.378
 30
0.0
 11
909987.69
 21
7261273.702
 31
0.0
  0
LINE
  8
6
  6
CONTINUOUS
 62
     7
  5
2A
 10
909987.69
 20
7261273.702
 30
0.0
 11
909986.527
 21
7261236.22
 31
0.0
  0
LINE
  8
6
  6
CONTINUOUS
 62
     7
  5
2B
 10
909986.527
 20
7261236.22
 30
0.0
 11
909929.894
 21
7261237.977
 31
0.0
  0
LINE
  8
6
  6
CONTINUOUS
 62
     7
  5
2C
 10
909929.894
 20
7261237.977
 30
0.0
 11
909673.684
 21
7261069.372
 31
0.0
  0
LINE
  8
6
  6
CONTINUOUS
 62
     7
  5
2D
 10
909673.684
 20
7261069.372
 30
0.0
 11
909646.198
 21
7261111.139
 31
0.0
  0
LINE
  8
6
  6
CONTINUOUS
 62
     7
  5
2E
 10
909646.198
 20
7261111.139
 30
0.0
 11
908750.813
 21
7260521.91
 31
0.0
  0
LINE
  8
6
  6
CONTINUOUS
 62
     7
  5
2F
 10
908750.813
 20
7260521.91
 30
0.0
 11
908805.785
 21
7260438.375
 31
0.0
  0
LINE
  8
6
  6
CONTINUOUS
 62
     7
  5
30
 10
908805.785
 20
7260438.375
 30
0.0
 11
908773.006
 21
7260416.805
 31
0.0
  0
LINE
  8
6
  6
CONTINUOUS
 62
     7
  5
31
 10
908863.317
 20
7260235.301
 30
0.0
 11
908861.498
 21
7260176.259
 31
0.0
  0
LINE
  8
7
  6
CONTINUOUS
 62
     7
  5
33
 10
909719.571
 20
7260746.598
 30
0.0
 11
910000.997
 21
7260737.928
 31
0.0
  0
LINE
  8
6
  6
CONTINUOUS
 62
     7
  5
34
 10
910000.997
 20
7260737.928
 30
0.0
 11
910006.956
 21
7260932.837
 31
0.0
  0
LINE
  8
7
  6
CONTINUOUS
 62
     7
  5
35
 10
909725.617
 20
7260941.504
 30
0.0
 11
910006.956
 21
7260932.837
 31
0.0
  0
LINE
  8
6
  6
CONTINUOUS
 62
     7
  5
36
 10
910006.956
 20
7260932.837
 30
0.0
 11
910015.286
 21
7261205.33
 31
0.0
  0
LINE
  8
6
  6
CONTINUOUS
 62
     7
  5
37
 10
909728.853
 20
7261045.824
 30
0.0
 11
910006.038
 21
7261228.232
 31
0.0
  0
ARC
  8
6
  6
CONTINUOUS
 62
     7
  5
38
 10
909985.310654
 20
7261206.544438
 30
0.0
 40
30.0
 50
357.679747
 51
46.297356
210
0.0
220
0.0
230
1.0
  0
ARC
  8
6
  6
CONTINUOUS
 62
     7
  5
39
 10
909985.641399
 20
7261206.233099
 30
0.0
 40
30.0
 50
47.164878
 51
88.309225
210
0.0
220
0.0
230
1.0
  0
LINE
  8
21
  6
DASHDOT
 62
     7
  5
3B
 10
909739.562
 20
7260745.982
 30
0.0
 11
909749.279
 21
7261059.266
 31
0.0
  0
LINE
  8
6
  6
CONTINUOUS
 62
     7
  5
3C
 10
909728.853
 20
7261045.824
 30
0.0
 11
909510.175
 21
7260901.918
 31
0.0
  0
LINE
  8
7
  6
CONTINUOUS
 62
     7
  5
3D
 10
909510.175
 20
7260901.918
 30
0.0
 11
909526.667
 21
7260876.858
 31
0.0
  0
LINE
  8
7
  6
CONTINUOUS
 62
     7
  5
3E
 10
909713.371
 20
7260546.694
 30
0.0
 11
909715.854
 21
7260626.745
 31
0.0
  0
LINE
  8
7
  6
CONTINUOUS
 62
     7
  5
3F
 10
909715.854
 20
7260626.745
 30
0.0
 11
909592.541
 21
7260624.747
 31
0.0
  0
LINE
  8
7
  6
CONTINUOUS
 62
     7
  5
40
 10
909715.854
 20
7260626.745
 30
0.0
 11
909718.378
 21
7260708.106
 31
0.0
  0
LINE
  8
7
  6
CONTINUOUS
 62
     7
  5
41
 10
909718.378
 20
7260708.106
 30
0.0
 11
909583.372
 21
7260692.896
 31
0.0
  0
LINE
  8
7
  6
CONTINUOUS
 62
     7
  5
42
 10
909718.378
 20
7260708.106
 30
0.0
 11
909719.571
 21
7260746.598
 31
0.0
  0
LINE
  8
7
  6
CONTINUOUS
 62
     7
  5
43
 10
909728.853
 20
7261045.824
 30
0.0
 11
909725.581
 21
7260940.345
 31
0.0
  0
LINE
  8
7
  6
CONTINUOUS
 62
     7
  5
44
 10
909725.581
 20
7260940.345
 30
0.0
 11
909579.144
 21
7260878.402
 31
0.0
  0
LINE
  8
7
  6
CONTINUOUS
 62
     7
  5
45
 10
909725.581
 20
7260940.345
 30
0.0
 11
909723.276
 21
7260866.01
 31
0.0
  0
LINE
  8
7
  6
CONTINUOUS
 62
     7
  5
46
 10
909723.276
 20
7260866.01
 30
0.0
 11
909603.718
 21
7260828.479
 31
0.0
  0
LINE
  8
7
  6
CONTINUOUS
 62
     7
  5
47
 10
909723.276
 20
7260866.01
 30
0.0
 11
909720.85
 21
7260787.818
 31
0.0
  0
LINE
  8
7
  6
CONTINUOUS
 62
     7
  5
48
 10
909720.85
 20
7260787.818
 30
0.0
 11
909574.754
 21
7260756.955
 31
0.0
  0
LINE
  8
7
  6
CONTINUOUS
 62
     7
  5
49
 10
909720.85
 20
7260787.818
 30
0.0
 11
909719.571
 21
7260746.598
 31
0.0
  0
ARC
  8
6
  6
CONTINUOUS
 62
     7
  5
4A
 10
909554.15673
 20
7260835.092966
 30
0.0
 40
50.0
 50
60.017097
 51
123.352817
210
0.0
220
0.0
230
1.0
  0
ARC
  8
6
  6
CONTINUOUS
 62
     7
  5
4B
 10
909554.157706
 20
7260835.092403
 30
0.0
 40
50.0
 50
352.399025
 51
60.018389
210
0.0
220
0.0
230
1.0
  0
LINE
  8
6
  6
CONTINUOUS
 62
     7
  5
4C
 10
909574.754
 20
7260756.955
 30
0.0
 11
909570.594
 21
7260787.877
 31
0.0
  0
ARC
  8
6
  6
CONTINUOUS
 62
     7
  5
4D
 10
909554.158455
 20
7260835.09801
 30
0.0
 40
50.0
 50
289.190947
 51
352.392542
210
0.0
220
0.0
230
1.0
  0
LINE
  8
6
  6
CONTINUOUS
 62
     7
  5
4E
 10
909574.754
 20
7260756.955
 30
0.0
 11
909583.372
 21
7260692.896
 31
0.0
  0
LINE
  8
6
  6
CONTINUOUS
 62
     7
  5
4F
 10
909583.372
 20
7260692.896
 30
0.0
 11
909592.541
 21
7260624.747
 31
0.0
  0
LINE
  8
6
  6
CONTINUOUS
 62
     7
  5
50
 10
909592.541
 20
7260624.747
 30
0.0
 11
909601.901
 21
7260559.08
 31
0.0
  0
ARC
  8
6
  6
CONTINUOUS
 62
     7
  5
51
 10
909616.750974
 20
7260561.196346
 30
0.0
 40
15.0
 50
188.110586
 51
268.233222
210
0.0
220
0.0
230
1.0
  0
LINE
  8
6
  6
CONTINUOUS
 62
     7
  5
52
 10
909616.289
 20
7260546.204
 30
0.0
 11
909688.373
 21
7260547.465
 31
0.0
  0
LINE
  8
6
  6
CONTINUOUS
 62
     7
  5
53
 10
909510.175
 20
7260901.918
 30
0.0
 11
909339.848
 21
7260789.831
 31
0.0
  0
LINE
  8
7
  6
CONTINUOUS
 62
     7
  5
54
 10
909355.255
 20
7260745.438
 30
0.0
 11
909507.442
 21
7260807.326
 31
0.0
  0
LINE
  8
7
  6
CONTINUOUS
 62
     7
  5
55
 10
909372.022
 20
7260697.125
 30
0.0
 11
909515.387
 21
7260748.258
 31
0.0
  0
LINE
  8
7
  6
CONTINUOUS
 62
     7
  5
56
 10
909390.587
 20
7260643.635
 30
0.0
 11
909523.937
 21
7260684.734
 31
0.0
  0
LINE
  8
7
  6
CONTINUOUS
 62
     7
  5
57
 10
909410.968
 20
7260584.912
 30
0.0
 11
909533.077
 21
7260616.785
 31
0.0
  0
LINE
  8
6
  6
CONTINUOUS
 62
     7
  5
58
 10
909507.442
 20
7260807.326
 30
0.0
 11
909504.603
 21
7260828.425
 31
0.0
  0
ARC
  8
6
  6
CONTINUOUS
 62
     7
  5
59
 10
909554.156862
 20
7260835.093052
 30
0.0
 40
50.0
 50
123.352997
 51
187.663322
210
0.0
220
0.0
230
1.0
  0
LINE
  8
6
  6
CONTINUOUS
 62
     7
  5
5A
 10
909507.442
 20
7260807.326
 30
0.0
 11
909515.387
 21
7260748.258
 31
0.0
  0
LINE
  8
6
  6
CONTINUOUS
 62
     7
  5
5B
 10
909515.387
 20
7260748.258
 30
0.0
 11
909523.937
 21
7260684.734
 31
0.0
  0
LINE
  8
6
  6
CONTINUOUS
 62
     7
  5
5C
 10
909523.937
 20
7260684.734
 30
0.0
 11
909533.077
 21
7260616.785
 31
0.0
  0
LINE
  8
6
  6
CONTINUOUS
 62
     7
  5
5D
 10
909533.077
 20
7260616.785
 30
0.0
 11
909541.927
 21
7260551.008
 31
0.0
  0
LINE
  8
6
  6
CONTINUOUS
 62
     7
  5
5E
 10
909339.848
 20
7260789.831
 30
0.0
 11
909187.405
 21
7260689.512
 31
0.0
  0
LINE
  8
7
  6
CONTINUOUS
 62
     7
  5
5F
 10
909187.405
 20
7260689.512
 30
0.0
 11
909203.897
 21
7260664.451
 31
0.0
  0
LINE
  8
7
  6
CONTINUOUS
 62
     7
  5
60
 10
909364.957
 20
7260717.484
 30
0.0
 11
909261.768
 21
7260662.445
 31
0.0
  0
LINE
  8
7
  6
CONTINUOUS
 62
     7
  5
61
 10
909387.98
 20
7260651.146
 30
0.0
 11
909264.976
 21
7260585.639
 31
0.0
  0
LINE
  8
7
  6
CONTINUOUS
 62
     7
  5
62
 10
909410.968
 20
7260584.913
 30
0.0
 11
909299.249
 21
7260527.738
 31
0.0
  0
LINE
  8
7
  6
CONTINUOUS
 62
     7
  5
63
 10
909410.968
 20
7260584.913
 30
0.0
 11
909437.281
 21
7260509.099
 31
0.0
  0
LINE
  8
7
  6
CONTINUOUS
 62
     7
  5
64
 10
909339.848
 20
7260789.831
 30
0.0
 11
909355.255
 21
7260745.438
 31
0.0
  0
LINE
  8
7
  6
CONTINUOUS
 62
     7
  5
65
 10
909355.255
 20
7260745.438
 30
0.0
 11
909364.957
 21
7260717.484
 31
0.0
  0
LINE
  8
7
  6
CONTINUOUS
 62
     7
  5
66
 10
909372.022
 20
7260697.125
 30
0.0
 11
909387.98
 21
7260651.146
 31
0.0
  0
LINE
  8
7
  6
CONTINUOUS
 62
     7
  5
67
 10
909387.98
 20
7260651.146
 30
0.0
 11
909390.587
 21
7260643.635
 31
0.0
  0
LINE
  8
7
  6
CONTINUOUS
 62
     7
  5
68
 10
909390.587
 20
7260643.635
 30
0.0
 11
909410.968
 21
7260584.912
 31
0.0
  0
LINE
  8
7
  6
CONTINUOUS
 62
     7
  5
69
 10
909364.957
 20
7260717.484
 30
0.0
 11
909372.022
 21
7260697.125
 31
0.0
  0
ARC
  8
6
  6
CONTINUOUS
 62
     7
  5
6A
 10
909231.419798
 20
7260622.708365
 30
0.0
 40
50.0
 50
52.629356
 51
123.398842
210
0.0
220
0.0
230
1.0
  0
ARC
  8
6
  6
CONTINUOUS
 62
     7
  5
6B
 10
909231.421214
 20
7260622.707283
 30
0.0
 40
50.0
 50
312.15195
 51
52.631397
210
0.0
220
0.0
230
1.0
  0
LINE
  8
6
  6
CONTINUOUS
 62
     7
  5
6C
 10
909264.976
 20
7260585.639
 30
0.0
 11
909299.249
 21
7260527.738
 31
0.0
  0
LINE
  8
6
  6
CONTINUOUS
 62
     7
  5
6D
 10
909299.249
 20
7260527.738
 30
0.0
 11
909329.178
 21
7260477.168
 31
0.0
  0
LINE
  8
6
  6
CONTINUOUS
 62
     7
  5
6E
 10
909187.405
 20
7260689.512
 30
0.0
 11
909040.091
 21
7260592.568
 31
0.0
  0
LINE
  8
7
  6
CONTINUOUS
 62
     7
  5
6F
 10
909072.214
 20
7260538.292
 30
0.0
 11
909182.788
 21
7260611.059
 31
0.0
  0
LINE
  8
7
  6
CONTINUOUS
 62
     7
  5
70
 10
909105.356
 20
7260482.294
 30
0.0
 11
909214.077
 21
7260553.84
 31
0.0
  0
LINE
  8
7
  6
CONTINUOUS
 62
     7
  5
71
 10
909139.521
 20
7260424.567
 30
0.0
 11
909248.242
 21
7260496.113
 31
0.0
  0
ARC
  8
6
  6
CONTINUOUS
 62
     7
  5
72
 10
909231.413197
 20
7260622.704012
 30
0.0
 40
50.0
 50
123.389781
 51
193.468011
210
0.0
220
0.0
230
1.0
  0
LINE
  8
6
  6
CONTINUOUS
 62
     7
  5
73
 10
909214.077
 20
7260553.84
 30
0.0
 11
909188.386
 21
7260597.247
 31
0.0
  0
ARC
  8
6
  6
CONTINUOUS
 62
     7
  5
74
 10
909231.40815
 20
7260622.725067
 30
0.0
 40
50.0
 50
193.492819
 51
210.634119
210
0.0
220
0.0
230
1.0
  0
LINE
  8
6
  6
CONTINUOUS
 62
     7
  5
75
 10
909214.077
 20
7260553.84
 30
0.0
 11
909248.242
 21
7260496.113
 31
0.0
  0
LINE
  8
6
  6
CONTINUOUS
 62
     7
  5
76
 10
909248.242
 20
7260496.113
 30
0.0
 11
909277.703
 21
7260446.333
 31
0.0
  0
LINE
  8
6
  6
CONTINUOUS
 62
     7
  5
77
 10
909040.091
 20
7260592.568
 30
0.0
 11
908903.094
 21
7260502.414
 31
0.0
  0
LINE
  8
7
  6
CONTINUOUS
 62
     7
  5
78
 10
908903.094
 20
7260502.414
 30
0.0
 11
908919.585
 21
7260477.354
 31
0.0
  0
LINE
  8
7
  6
CONTINUOUS
 62
     7
  5
79
 10
909040.091
 20
7260592.568
 30
0.0
 11
909072.214
 21
7260538.292
 31
0.0
  0
LINE
  8
7
  6
CONTINUOUS
 62
     7
  5
7A
 10
909072.214
 20
7260538.292
 30
0.0
 11
908971.957
 21
7260478.956
 31
0.0
  0
LINE
  8
7
  6
CONTINUOUS
 62
     7
  5
7B
 10
909108.375
 20
7260477.191
 30
0.0
 11
908996.501
 21
7260410.979
 31
0.0
  0
LINE
  8
7
  6
CONTINUOUS
 62
     7
  5
7C
 10
909142.719
 20
7260419.162
 30
0.0
 11
909033.765
 21
7260359.688
 31
0.0
  0
LINE
  8
7
  6
CONTINUOUS
 62
     7
  5
7D
 10
909142.719
 20
7260419.162
 30
0.0
 11
909177.175
 21
7260360.944
 31
0.0
  0
LINE
  8
7
  6
CONTINUOUS
 62
     7
  5
7E
 10
909072.214
 20
7260538.292
 30
0.0
 11
909105.356
 21
7260482.294
 31
0.0
  0
LINE
  8
7
  6
CONTINUOUS
 62
     7
  5
7F
 10
909105.356
 20
7260482.294
 30
0.0
 11
909108.375
 21
7260477.191
 31
0.0
  0
LINE
  8
7
  6
CONTINUOUS
 62
     7
  5
80
 10
909108.375
 20
7260477.191
 30
0.0
 11
909139.521
 21
7260424.567
 31
0.0
  0
LINE
  8
7
  6
CONTINUOUS
 62
     7
  5
81
 10
909139.521
 20
7260424.567
 30
0.0
 11
909142.719
 21
7260419.162
 31
0.0
  0
ARC
  8
6
  6
CONTINUOUS
 62
     7
  5
82
 10
908947.073111
 20
7260435.587396
 30
0.0
 40
50.0
 50
60.153803
 51
123.350283
210
0.0
220
0.0
230
1.0
  0
LINE
  8
6
  6
CONTINUOUS
 62
     7
  5
83
 10
908996.501
 20
7260410.979
 30
0.0
 11
908993.267
 21
7260416.443
 31
0.0
  0
ARC
  8
6
  6
CONTINUOUS
 62
     7
  5
84
 10
908947.076215
 20
7260435.585615
 30
0.0
 40
50.0
 50
337.490144
 51
60.157903
210
0.0
220
0.0
230
1.0
  0
LINE
  8
6
  6
CONTINUOUS
 62
     7
  5
85
 10
908903.094
 20
7260502.414
 30
0.0
 11
908805.785
 21
7260438.375
 31
0.0
  0
LINE
  8
6
  6
CONTINUOUS
 62
     7
  5
86
 10
908773.006
 20
7260416.805
 30
0.0
 11
908799.989
 21
7260362.576
 31
0.0
  0
LINE
  8
6
  6
CONTINUOUS
 62
     7
  5
87
 10
908996.501
 20
7260410.979
 30
0.0
 11
909004.609
 21
7260397.279
 31
0.0
  0
LINE
  8
6
  6
CONTINUOUS
 62
     7
  5
88
 10
908799.989
 20
7260362.576
 30
0.0
 11
908831.653
 21
7260298.939
 31
0.0
  0
LINE
  8
6
  6
CONTINUOUS
 62
     7
  5
89
 10
908831.653
 20
7260298.939
 30
0.0
 11
908971.655
 21
7260340.285
 31
0.0
  0
LINE
  8
6
  6
CONTINUOUS
 62
     7
  5
8A
 10
908799.989
 20
7260362.576
 30
0.0
 11
908915.612
 21
7260396.723
 31
0.0
  0
LINE
  8
6
  6
CONTINUOUS
 62
     7
  5
8B
 10
908831.653
 20
7260298.939
 30
0.0
 11
908863.317
 21
7260235.301
 31
0.0
  0
ARC
  8
6
  6
CONTINUOUS
 62
     7
  5
8C
 10
908947.070741
 20
7260435.585837
 30
0.0
 40
50.0
 50
123.347031
 51
263.756425
210
0.0
220
0.0
230
1.0
  0
LINE
  8
6
  6
CONTINUOUS
 62
     7
  5
8D
 10
909711.512
 20
7260486.723
 30
0.0
 11
909686.524
 21
7260487.493
 31
0.0
  0
LINE
  8
6
  6
CONTINUOUS
 62
     7
  5
8E
 10
909711.512
 20
7260486.723
 30
0.0
 11
909707.9
 21
7260370.279
 31
0.0
  0
LINE
  8
7
  6
CONTINUOUS
 62
     7
  5
8F
 10
909707.9
 20
7260370.279
 30
0.0
 11
909473.832
 21
7260377.539
 31
0.0
  0
LINE
  8
6
  6
CONTINUOUS
 62
     7
  5
90
 10
909707.9
 20
7260370.279
 30
0.0
 11
909704.49
 21
7260260.332
 31
0.0
  0
LINE
  8
7
  6
CONTINUOUS
 62
     7
  5
91
 10
909704.645
 20
7260265.329
 30
0.0
 11
909490.401
 21
7260271.974
 31
0.0
  0
LINE
  8
6
  6
CONTINUOUS
 62
     7
  5
92
 10
909705.543
 20
7260294.29
 30
0.0
 11
909701.08
 21
7260150.385
 31
0.0
  0
LINE
  8
6
  6
CONTINUOUS
 62
     7
  5
93
 10
909701.08
 20
7260150.385
 30
0.0
 11
909451.199
 21
7260158.085
 31
0.0
  0
LINE
  8
7
  6
CONTINUOUS
 62
     7
  5
94
 10
909451.199
 20
7260158.085
 30
0.0
 11
909452.128
 21
7260188.071
 31
0.0
  0
LINE
  8
6
  6
CONTINUOUS
 62
     7
  5
95
 10
909451.199
 20
7260158.085
 30
0.0
 11
909257.82
 21
7260164.045
 31
0.0
  0
LINE
  8
7
  6
CONTINUOUS
 62
     7
  5
96
 10
909257.82
 20
7260164.045
 30
0.0
 11
909243.868
 21
7260188.286
 31
0.0
  0
LINE
  8
7
  6
CONTINUOUS
 62
     7
  5
97
 10
909243.868
 20
7260188.286
 30
0.0
 11
909326.203
 21
7260235.678
 31
0.0
  0
LINE
  8
7
  6
CONTINUOUS
 62
     7
  5
98
 10
909243.868
 20
7260188.286
 30
0.0
 11
909182.471
 21
7260294.951
 31
0.0
  0
LINE
  8
7
  6
CONTINUOUS
 62
     7
  5
99
 10
909326.203
 20
7260235.678
 30
0.0
 11
909309.99
 21
7260263.845
 31
0.0
  0
LINE
  8
7
  6
CONTINUOUS
 62
     7
  5
9A
 10
909309.99
 20
7260263.845
 30
0.0
 11
909422.364
 21
7260328.526
 31
0.0
  0
LINE
  8
7
  6
CONTINUOUS
 62
     7
  5
9B
 10
909309.99
 20
7260263.845
 30
0.0
 11
909262.963
 21
7260345.548
 31
0.0
  0
LINE
  8
6
  6
CONTINUOUS
 62
     7
  5
9C
 10
909257.82
 20
7260164.045
 30
0.0
 11
908861.498
 21
7260176.259
 31
0.0
  0
LINE
  8
6
  6
CONTINUOUS
 62
     7
  5
9D
 10
909673.684
 20
7261069.372
 30
0.0
 11
908778.299
 21
7260480.143
 31
0.0
  0
ARC
  8
6
  6
CONTINUOUS
 62
     7
  5
9E
 10
909666.804531
 20
7259847.796934
 30
0.0
 40
640.0
 50
88.234383
 51
108.558572
210
0.0
220
0.0
230
1.0
  0
ARC
  8
6
  6
CONTINUOUS
 62
     7
  5
9F
 10
908659.164298
 20
7261216.76945
 30
0.0
 40
1060.0
 50
281.004167
 51
306.225983
210
0.0
220
0.0
230
1.0
  0
ARC
  8
6
  6
CONTINUOUS
 62
     7
  5
A0
 10
909663.816361
 20
7259845.391963
 30
0.0
 40
640.0
 50
116.478219
 51
126.225983
210
0.0
220
0.0
230
1.0
  0
ARC
  8
6
  6
CONTINUOUS
 62
     7
  5
A1
 10
909125.068335
 20
7260288.299839
 30
0.0
 40
360.0
 50
358.217392
 51
23.911406
210
0.0
220
0.0
230
1.0
  0
ARC
  8
6
  6
CONTINUOUS
 62
     7
  5
A2
 10
909385.155387
 20
7260404.831916
 30
0.0
 40
15.0
 50
24.134781
 51
116.478219
210
0.0
220
0.0
230
1.0
  0
ARC
  8
6
  6
CONTINUOUS
 62
     7
  5
A3
 10
909467.883319
 20
7260440.296176
 30
0.0
 40
15.0
 50
108.558572
 51
203.911406
210
0.0
220
0.0
230
1.0
  0
ARC
  8
6
  6
CONTINUOUS
 62
     7
  5
A4
 10
909125.068335
 20
7260288.299839
 30
0.0
 40
300.0
 50
358.214911
 51
24.134778
210
0.0
220
0.0
230
1.0
  0
ARC
  8
6
  6
CONTINUOUS
 62
     7
  5
A5
 10
909453.672793
 20
7260238.047006
 30
0.0
 40
50.0
 50
125.0997
 51
51.359903
210
0.0
220
0.0
230
1.0
  0
ARC
  8
6
  6
CONTINUOUS
 62
     7
  5
A6
 10
909666.804531
 20
7259847.796934
 30
0.0
 40
700.0
 50
101.2708
 51
117.010311
210
0.0
220
0.0
230
1.0
  0
ARC
  8
6
  6
CONTINUOUS
 62
     7
  5
A7
 10
909663.816361
 20
7259845.391963
 30
0.0
 40
700.0
 50
123.922578
 51
126.225986
210
0.0
220
0.0
230
1.0
  0
ARC
  8
6
  6
CONTINUOUS
 62
     7
  5
A8
 10
909264.794774
 20
7260438.69355
 30
0.0
 40
15.0
 50
303.922578
 51
30.61885
210
0.0
220
0.0
230
1.0
  0
ARC
  8
6
  6
CONTINUOUS
 62
     7
  5
A9
 10
909342.086672
 20
7260484.808168
 30
0.0
 40
15.0
 50
210.618953
 51
297.010311
210
0.0
220
0.0
230
1.0
  0
ARC
  8
6
  6
CONTINUOUS
 62
     7
  5
AA
 10
909527.060383
 20
7260549.007725
 30
0.0
 40
15.0
 50
281.2708
 51
7.662178
210
0.0
220
0.0
230
1.0
  0
ARC
  8
6
  6
CONTINUOUS
 62
     7
  5
AB
 10
909125.08816
 20
7260468.587073
 30
0.0
 40
140.0
 50
210.620114
 51
222.435322
210
0.0
220
0.0
230
1.0
  0
ARC
  8
6
  6
CONTINUOUS
 62
     7
  5
AC
 10
908874.155219
 20
7260239.169524
 30
0.0
 40
200.0
 50
22.833325
 51
42.435322
210
0.0
220
0.0
230
1.0
  0
ARC
  8
6
  6
CONTINUOUS
 62
     7
  5
AD
 10
908659.164298
 20
7261216.76945
 30
0.0
 40
1000.0
 50
281.784508
 51
289.561336
210
0.0
220
0.0
230
1.0
  0
ARC
  8
6
  6
CONTINUOUS
 62
     7
  5
AE
 10
908659.164298
 20
7261216.76945
 30
0.0
 40
1000.0
 50
294.798892
 51
306.225986
210
0.0
220
0.0
230
1.0
  0
ARC
  8
6
  6
CONTINUOUS
 62
     7
  5
AF
 10
909072.307303
 20
7260322.600642
 30
0.0
 40
15.0
 50
202.833325
 51
294.798892
210
0.0
220
0.0
230
1.0
  0
LINE
  8
6
  6
CONTINUOUS
 62
     7
  5
B0
 10
908944.867
 20
7260380.418
 30
0.0
 11
908952.976
 21
7260366.718
 31
0.0
  0
ARC
  8
6
  6
CONTINUOUS
 62
     7
  5
B1
 10
908874.155219
 20
7260239.169524
 30
0.0
 40
140.0
 50
23.303686
 51
42.435322
210
0.0
220
0.0
230
1.0
  0
ARC
  8
6
  6
CONTINUOUS
 62
     7
  5
B2
 10
909125.08816
 20
7260468.587073
 30
0.0
 40
200.0
 50
210.620114
 51
222.435322
210
0.0
220
0.0
230
1.0
  0
LINE
  8
6
  6
CONTINUOUS
 62
     7
  5
B3
 10
908949.37
 20
7260372.81
 30
0.0
 11
908941.634
 21
7260385.882
 31
0.0
  0
ARC
  8
6
  6
CONTINUOUS
 62
     7
  5
B4
 10
908988.957836
 20
7260288.620096
 30
0.0
 40
15.0
 50
289.561336
 51
23.303686
210
0.0
220
0.0
230
1.0
  0
TEXT
  8
10
  6
CONTINUOUS
 62
   134
  5
B7
 10
909582.89
 20
7260417.819
 30
0.0
 40
13.999
  1
3
 50
358.2298
  7
ROMANS
210
0.0
220
0.0
230
1.0
  0
TEXT
  8
10
  6
CONTINUOUS
 62
   134
  5
B8
 10
909336.79
 20
7260334.449
 30
0.0
 40
13.999
  1
4
 50
358.2298
  7
ROMANS
210
0.0
220
0.0
230
1.0
  0
TEXT
  8
10
  6
CONTINUOUS
 62
   134
  5
B9
 10
909354.512
 20
7260201.427
 30
0.0
 40
13.999
  1
5
 50
358.2298
  7
ROMANS
210
0.0
220
0.0
230
1.0
  0
TEXT
  8
10
  6
CONTINUOUS
 62
   134
  5
BA
 10
909242.142
 20
7260260.762
 30
0.0
 40
13.999
  1
6
 50
358.2298
  7
ROMANS
210
0.0
220
0.0
230
1.0
  0
TEXT
  8
10
  6
CONTINUOUS
 62
   134
  5
BB
 10
909090.643
 20
7260195.217
 30
0.0
 40
13.999
  1
7
 50
358.2298
  7
ROMANS
210
0.0
220
0.0
230
1.0
  0
TEXT
  8
10
  6
CONTINUOUS
 62
   134
  5
BC
 10
908908.492
 20
7260279.054
 30
0.0
 40
13.999
  1
8
 50
358.2298
  7
ROMANS
210
0.0
220
0.0
230
1.0
  0
TEXT
  8
10
  6
CONTINUOUS
 62
   134
  5
BD
 10
908873.55
 20
7260343.977
 30
0.0
 40
13.999
  1
9
 50
358.2298
  7
ROMANS
210
0.0
220
0.0
230
1.0
  0
TEXT
  8
10
  6
CONTINUOUS
 62
   134
  5
BE
 10
908840.434
 20
7260413.632
 30
0.0
 40
13.999
  1
10
 50
358.2298
  7
ROMANS
210
0.0
220
0.0
230
1.0
  0
TEXT
  8
10
  6
CONTINUOUS
 62
   134
  5
BF
 10
908978.064
 20
7260519.508
 30
0.0
 40
13.999
  1
11
 50
358.2298
  7
ROMANS
210
0.0
220
0.0
230
1.0
  0
TEXT
  8
10
  6
CONTINUOUS
 62
   134
  5
C0
 10
909026.922
 20
7260470.115
 30
0.0
 40
13.999
  1
12
 50
358.2298
  7
ROMANS
210
0.0
220
0.0
230
1.0
  0
TEXT
  8
10
  6
CONTINUOUS
 62
   134
  5
C1
 10
909056.929
 20
7260408.537
 30
0.0
 40
13.999
  1
13
 50
358.2298
  7
ROMANS
210
0.0
220
0.0
230
1.0
  0
TEXT
  8
10
  6
CONTINUOUS
 62
   134
  5
C2
 10
909090.439
 20
7260351.639
 30
0.0
 40
13.999
  1
14
 50
358.2298
  7
ROMANS
210
0.0
220
0.0
230
1.0
  0
TEXT
  8
10
  6
CONTINUOUS
 62
   134
  5
C3
 10
909198.363
 20
7260420.127
 30
0.0
 40
13.999
  1
15
 50
358.2298
  7
ROMANS
210
0.0
220
0.0
230
1.0
  0
TEXT
  8
10
  6
CONTINUOUS
 62
   134
  5
C4
 10
909161.594
 20
7260480.318
 30
0.0
 40
13.999
  1
16
 50
358.2298
  7
ROMANS
210
0.0
220
0.0
230
1.0
  0
TEXT
  8
10
  6
CONTINUOUS
 62
   134
  5
C5
 10
909131.638
 20
7260543.491
 30
0.0
 40
13.999
  1
17
 50
358.2298
  7
ROMANS
210
0.0
220
0.0
230
1.0
  0
TEXT
  8
10
  6
CONTINUOUS
 62
   134
  5
C6
 10
909106.565
 20
7260601.725
 30
0.0
 40
13.999
  1
18
 50
358.2298
  7
ROMANS
210
0.0
220
0.0
230
1.0
  0
TEXT
  8
10
  6
CONTINUOUS
 62
   134
  5
C7
 10
909266.007
 20
7260706.927
 30
0.0
 40
13.999
  1
19
 50
358.2298
  7
ROMANS
210
0.0
220
0.0
230
1.0
  0
TEXT
  8
10
  6
CONTINUOUS
 62
   134
  5
C8
 10
909311.214
 20
7260648.07
 30
0.0
 40
13.999
  1
20
 50
358.2298
  7
ROMANS
210
0.0
220
0.0
230
1.0
  0
TEXT
  8
10
  6
CONTINUOUS
 62
   134
  5
C9
 10
909332.634
 20
7260580.373
 30
0.0
 40
13.999
  1
21
 50
358.2298
  7
ROMANS
210
0.0
220
0.0
230
1.0
  0
TEXT
  8
10
  6
CONTINUOUS
 62
   134
  5
CA
 10
909364.27
 20
7260517.149
 30
0.0
 40
13.999
  1
22
 50
358.2298
  7
ROMANS
210
0.0
220
0.0
230
1.0
  0
TEXT
  8
10
  6
CONTINUOUS
 62
   134
  5
CB
 10
909469.48
 20
7260552.203
 30
0.0
 40
13.999
  1
23
 50
358.2298
  7
ROMANS
210
0.0
220
0.0
230
1.0
  0
TEXT
  8
10
  6
CONTINUOUS
 62
   134
  5
CC
 10
909448.257
 20
7260626.279
 30
0.0
 40
13.999
  1
24
 50
358.2298
  7
ROMANS
210
0.0
220
0.0
230
1.0
  0
TEXT
  8
10
  6
CONTINUOUS
 62
   134
  5
CD
 10
909436.755
 20
7260688.881
 30
0.0
 40
13.999
  1
25
 50
358.2298
  7
ROMANS
210
0.0
220
0.0
230
1.0
  0
TEXT
  8
10
  6
CONTINUOUS
 62
   134
  5
CE
 10
909426.687
 20
7260743.459
 30
0.0
 40
13.999
  1
26
 50
358.2298
  7
ROMANS
210
0.0
220
0.0
230
1.0
  0
TEXT
  8
10
  6
CONTINUOUS
 62
   134
  5
CF
 10
909420.218
 20
7260805.905
 30
0.0
 40
13.999
  1
27
 50
358.2298
  7
ROMANS
210
0.0
220
0.0
230
1.0
  0
TEXT
  8
10
  6
CONTINUOUS
 62
   134
  5
D0
 10
909622.396
 20
7260935.324
 30
0.0
 40
13.999
  1
28
 50
358.2298
  7
ROMANS
210
0.0
220
0.0
230
1.0
  0
TEXT
  8
10
  6
CONTINUOUS
 62
   134
  5
D1
 10
909648.949
 20
7260870.66
 30
0.0
 40
13.999
  1
29
 50
358.2298
  7
ROMANS
210
0.0
220
0.0
230
1.0
  0
TEXT
  8
10
  6
CONTINUOUS
 62
   134
  5
D2
 10
909648.409
 20
7260798.853
 30
0.0
 40
13.999
  1
30
 50
358.2298
  7
ROMANS
210
0.0
220
0.0
230
1.0
  0
TEXT
  8
10
  6
CONTINUOUS
 62
   134
  5
D3
 10
909644.563
 20
7260728.744
 30
0.0
 40
13.999
  1
31
 50
358.2298
  7
ROMANS
210
0.0
220
0.0
230
1.0
  0
TEXT
  8
10
  6
CONTINUOUS
 62
   134
  5
D4
 10
909645.651
 20
7260655.292
 30
0.0
 40
13.999
  1
32
 50
358.2298
  7
ROMANS
210
0.0
220
0.0
230
1.0
  0
TEXT
  8
10
  6
CONTINUOUS
 62
   134
  5
D5
 10
909643.237
 20
7260577.158
 30
0.0
 40
13.999
  1
33
 50
358.2298
  7
ROMANS
210
0.0
220
0.0
230
1.0
  0
TEXT
  8
10
  6
CONTINUOUS
 62
   134
  5
D6
 10
909849.209
 20
7260829.357
 30
0.0
 40
13.999
  1
35
 50
358.2298
  7
ROMANS
210
0.0
220
0.0
230
1.0
  0
TEXT
  8
10
  6
CONTINUOUS
 62
   134
  5
D7
 10
909866.816
 20
7261018.638
 30
0.0
 40
13.999
  1
36
 50
358.2298
  7
ROMANS
210
0.0
220
0.0
230
1.0
  0
TEXT
  8
10
  6
CONTINUOUS
 62
   134
  5
D8
 10
909194.252
 20
7260721.805
 30
0.0
 40
13.999
  1
37
 50
358.2298
  7
ROMANS
210
0.0
220
0.0
230
1.0
  0
TEXT
  8
10
  6
CONTINUOUS
 62
   134
  5
D9
 10
909170.611
 20
7260772.014
 30
0.0
 40
13.999
  1
38
 50
358.2298
  7
ROMANS
210
0.0
220
0.0
230
1.0
  0
TEXT
  8
11
  6
CONTINUOUS
 62
     7
  5
DB
 10
909559.95
 20
7260157.736
 30
0.0
 40
8.0
  1
250'
 50
358.234842
  7
ROMANS
 72
     1
 11
909573.276673
 21
7260157.325304
 31
0.0
210
0.0
220
0.0
230
1.0
  0
TEXT
  8
11
  6
CONTINUOUS
 62
     7
  5
DC
 10
909320.668
 20
7260165.11
 30
0.0
 40
8.0
  1
193.47'
 50
358.234833
  7
ROMANS
 72
     1
 11
909345.988979
 21
7260164.329665
 31
0.0
210
0.0
220
0.0
230
1.0
  0
TEXT
  8
11
  6
CONTINUOUS
 62
     7
  5
DD
 10
909576.004
 20
7260274.566
 30
0.0
 40
8.0
  1
214.34'
 50
358.223525
  7
ROMANS
 72
     1
 11
909601.324824
 21
7260273.780668
 31
0.0
210
0.0
220
0.0
230
1.0
  0
TEXT
  8
11
  6
CONTINUOUS
 62
     7
  5
DE
 10
909578.339
 20
7260377.299
 30
0.0
 40
8.0
  1
234.18'
 50
358.223439
  7
ROMANS
 72
     1
 11
909603.659823
 21
7260376.51363
 31
0.0
210
0.0
220
0.0
230
1.0
  0
TEXT
  8
11
  6
CONTINUOUS
 62
     7
  5
DF
 10
909344.13
 20
7260286.958
 30
0.0
 40
8.0
  1
129.66'
 50
29.924439
  7
ROMANS
 72
     1
 11
909366.085707
 21
7260299.595556
 31
0.0
210
0.0
220
0.0
230
1.0
  0
TEXT
  8
11
  6
CONTINUOUS
 62
     7
  5
E0
 10
909275.098
 20
7260209.724
 30
0.0
 40
8.0
  1
95'
 50
29.924228
  7
ROMANS
 72
     1
 11
909283.186779
 21
7260214.379807
 31
0.0
210
0.0
220
0.0
230
1.0
  0
TEXT
  8
11
  6
CONTINUOUS
 62
     7
  5
E1
 10
909699.34
 20
7260191.05
 30
0.0
 40
8.0
  1
115'
 50
88.22355
  7
ROMANS
 72
     1
 11
909699.753322
 21
7260204.376592
 31
0.0
210
0.0
220
0.0
230
1.0
  0
TEXT
  8
11
  6
CONTINUOUS
 62
     7
  5
E2
 10
909702.899
 20
7260305.82
 30
0.0
 40
8.0
  1
105'
 50
88.22355
  7
ROMANS
 72
     1
 11
909703.312322
 21
7260319.146592
 31
0.0
210
0.0
220
0.0
230
1.0
  0
TEXT
  8
11
  6
CONTINUOUS
 62
     7
  5
E3
 10
909706.114
 20
7260409.486
 30
0.0
 40
8.0
  1
116.50'
 50
88.223406
  7
ROMANS
 72
     1
 11
909706.899416
 21
7260434.807822
 31
0.0
210
0.0
220
0.0
230
1.0
  0
TEXT
  8
11
  6
CONTINUOUS
 62
     7
  5
E4
 10
909202.826
 20
7260265.601
 30
0.0
 40
8.0
  1
122.50'
 50
299.924833
  7
ROMANS
 72
     1
 11
909215.463707
 21
7260243.64538
 31
0.0
210
0.0
220
0.0
230
1.0
  0
TEXT
  8
11
  6
CONTINUOUS
 62
     7
  5
E5
 10
909242.546
 20
7260196.597
 30
0.0
 40
8.0
  1
27.97'
 50
299.923592
  7
ROMANS
 72
     1
 11
909253.187853
 21
7260178.107872
 31
0.0
210
0.0
220
0.0
230
1.0
  0
TEXT
  8
11
  6
CONTINUOUS
 62
     7
  5
E6
 10
909270.594
 20
7260310.24
 30
0.0
 40
8.0
  1
126.77'
 50
299.924461
  7
ROMANS
 72
     1
 11
909290.165035
 21
7260292.27516
 31
0.0
210
0.0
220
0.0
230
1.0
 73
     3
  0
TEXT
  8
11
  6
CONTINUOUS
 62
     7
  5
E7
 10
909281.22
 20
7260319.84
 30
0.0
 40
8.0
  1
94.27'
 50
299.924461
  7
ROMANS
 72
     1
 11
909291.862133
 21
7260301.351033
 31
0.0
210
0.0
220
0.0
230
1.0
  0
TEXT
  8
11
  6
CONTINUOUS
 62
     7
  5
E8
 10
909483.062
 20
7260347.945
 30
0.0
 40
8.0
  1
1
 50
279.088703
  7
ROMANS
 72
     1
 11
909483.272565
 21
7260346.628736
 31
0.0
210
0.0
220
0.0
230
1.0
  0
TEXT
  8
11
  6
CONTINUOUS
 62
     7
  5
E9
 10
909484.415
 20
7260339.995
 30
0.0
 40
8.0
  1
0
 50
276.672856
  7
ROMANS
 72
     1
 11
909484.723047
 21
7260337.361958
 31
0.0
210
0.0
220
0.0
230
1.0
  0
TEXT
  8
11
  6
CONTINUOUS
 62
     7
  5
EA
 10
909485.492
 20
7260330.797
 30
0.0
 40
8.0
  1
1
 50
276.672856
  7
ROMANS
 72
     1
 11
909485.646895
 21
7260329.47303
 31
0.0
210
0.0
220
0.0
230
1.0
  0
TEXT
  8
11
  6
CONTINUOUS
 62
     7
  5
EB
 10
909486.427
 20
7260322.757
 30
0.0
 40
8.0
  1
.
 50
274.257008
  7
ROMANS
 72
     1
 11
909486.525133
 21
7260321.438647
 31
0.0
210
0.0
220
0.0
230
1.0
  0
TEXT
  8
11
  6
CONTINUOUS
 62
     7
  5
EC
 10
909486.916
 20
7260316.192
 30
0.0
 40
8.0
  1
0
 50
274.257008
  7
ROMANS
 72
     1
 11
909487.112785
 21
7260313.548314
 31
0.0
210
0.0
220
0.0
230
1.0
  0
TEXT
  8
11
  6
CONTINUOUS
 62
     7
  5
ED
 10
909487.548
 20
7260307.837
 30
0.0
 40
8.0
  1
5
 50
271.841161
  7
ROMANS
 72
     1
 11
909487.62331
 21
7260305.49421
 31
0.0
210
0.0
220
0.0
230
1.0
  0
TEXT
  8
11
  6
CONTINUOUS
 62
     7
  5
EE
 10
909487.836
 20
7260298.897
 30
0.0
 40
8.0
  1
'
 50
271.841161
  7
ROMANS
 72
     1
 11
909487.878828
 21
7260297.564688
 31
0.0
210
0.0
220
0.0
230
1.0
  0
TEXT
  8
11
  6
CONTINUOUS
 62
     7
  5
EF
 10
909464.247
 20
7260417.424
 30
0.0
 40
8.0
  1
5
 50
291.167936
  7
ROMANS
 72
     1
 11
909465.093425
 21
7260415.238159
 31
0.0
210
0.0
220
0.0
230
1.0
  0
TEXT
  8
11
  6
CONTINUOUS
 62
     7
  5
F0
 10
909467.162
 20
7260409.57
 30
0.0
 40
8.0
  1
2
 50
288.752092
  7
ROMANS
 72
     1
 11
909467.911999
 21
7260407.360839
 31
0.0
210
0.0
220
0.0
230
1.0
  0
TEXT
  8
11
  6
CONTINUOUS
 62
     7
  5
F1
 10
909470.047
 20
7260401.071
 30
0.0
 40
8.0
  1
.
 50
288.752092
  7
ROMANS
 72
     1
 11
909470.471989
 21
7260399.819174
 31
0.0
210
0.0
220
0.0
230
1.0
  0
TEXT
  8
11
  6
CONTINUOUS
 62
     7
  5
F2
 10
909472.166
 20
7260394.375
 30
0.0
 40
8.0
  1
2
 50
286.336244
  7
ROMANS
 72
     1
 11
909472.822212
 21
7260392.136189
 31
0.0
210
0.0
220
0.0
230
1.0
  0
TEXT
  8
11
  6
CONTINUOUS
 62
     7
  5
F3
 10
909474.398
 20
7260386.759
 30
0.0
 40
8.0
  1
3
 50
286.336244
  7
ROMANS
 72
     1
 11
909475.054212
 21
7260384.520189
 31
0.0
210
0.0
220
0.0
230
1.0
  0
TEXT
  8
11
  6
CONTINUOUS
 62
     7
  5
F4
 10
909476.738
 20
7260377.996
 30
0.0
 40
8.0
  1
'
 50
283.920397
  7
ROMANS
 72
     1
 11
909477.058925
 21
7260376.701178
 31
0.0
210
0.0
220
0.0
230
1.0
  0
TEXT
  8
11
  6
CONTINUOUS
 62
     7
  5
F5
 10
909550.789
 20
7260465.961
 30
0.0
 40
8.0
  1
2
 50
10.011542
  7
ROMANS
 72
     1
 11
909551.695702
 21
7260474.244766
 31
0.0
210
0.0
220
0.0
230
1.0
 73
     3
  0
TEXT
  8
11
  6
CONTINUOUS
 62
     7
  5
F6
 10
909558.915
 20
7260467.395
 30
0.0
 40
8.0
  1
2
 50
10.011542
  7
ROMANS
 72
     1
 11
909559.821702
 21
7260475.678766
 31
0.0
210
0.0
220
0.0
230
1.0
 73
     3
  0
TEXT
  8
11
  6
CONTINUOUS
 62
     7
  5
F7
 10
909566.383
 20
7260468.742
 30
0.0
 40
8.0
  1
5
 50
8.199672
  7
ROMANS
 72
     1
 11
909567.562051
 21
7260476.994525
 31
0.0
210
0.0
220
0.0
230
1.0
 73
     3
  0
TEXT
  8
11
  6
CONTINUOUS
 62
     7
  5
F8
 10
909575.268
 20
7260470.023
 30
0.0
 40
8.0
  1
.
 50
8.199672
  7
ROMANS
 72
     1
 11
909575.435499
 21
7260478.129764
 31
0.0
210
0.0
220
0.0
230
1.0
 73
     3
  0
TEXT
  8
11
  6
CONTINUOUS
 62
     7
  5
F9
 10
909582.094
 20
7260471.006
 30
0.0
 40
8.0
  1
7
 50
8.199672
  7
ROMANS
 72
     1
 11
909583.262164
 21
7260479.256956
 31
0.0
210
0.0
220
0.0
230
1.0
 73
     3
  0
TEXT
  8
11
  6
CONTINUOUS
 62
     7
  5
FA
 10
909589.429
 20
7260471.983
 30
0.0
 40
8.0
  1
6
 50
6.3878
  7
ROMANS
 72
     1
 11
909591.043296
 21
7260480.213702
 31
0.0
210
0.0
220
0.0
230
1.0
 73
     3
  0
TEXT
  8
11
  6
CONTINUOUS
 62
     7
  5
FB
 10
909598.507
 20
7260472.999
 30
0.0
 40
8.0
  1
'
 50
6.3878
  7
ROMANS
 72
     1
 11
909598.941666
 21
7260481.097639
 31
0.0
210
0.0
220
0.0
230
1.0
 73
     3
  0
TEXT
  8
11
  6
CONTINUOUS
 62
     7
  5
FC
 10
909318.938
 20
7260371.327
 30
0.0
 40
8.0
  1
1
 50
33.508178
  7
ROMANS
 72
     1
 11
909315.633017
 21
7260378.733347
 31
0.0
210
0.0
220
0.0
230
1.0
 73
     3
  0
TEXT
  8
11
  6
CONTINUOUS
 62
     7
  5
FD
 10
909325.272
 20
7260375.504
 30
0.0
 40
8.0
  1
0
 50
31.696308
  7
ROMANS
 72
     1
 11
909323.324255
 21
7260383.70364
 31
0.0
210
0.0
220
0.0
230
1.0
 73
     3
  0
TEXT
  8
11
  6
CONTINUOUS
 62
     7
  5
FE
 10
909332.294
 20
7260379.839
 30
0.0
 40
8.0
  1
8
 50
31.696308
  7
ROMANS
 72
     1
 11
909330.075687
 21
7260387.871557
 31
0.0
210
0.0
220
0.0
230
1.0
 73
     3
  0
TEXT
  8
11
  6
CONTINUOUS
 62
     7
  5
FF
 10
909339.931
 20
7260384.556
 30
0.0
 40
8.0
  1
.
 50
31.696308
  7
ROMANS
 72
     1
 11
909336.852482
 21
7260392.057361
 31
0.0
210
0.0
220
0.0
230
1.0
 73
     3
  0
TEXT
  8
11
  6
CONTINUOUS
 62
     7
  5
100
 10
909345.574
 20
7260387.88
 30
0.0
 40
8.0
  1
8
 50
29.884436
  7
ROMANS
 72
     1
 11
909343.610768
 21
7260395.978679
 31
0.0
210
0.0
220
0.0
230
1.0
 73
     3
  0
TEXT
  8
11
  6
CONTINUOUS
 62
     7
  5
101
 10
909352.455
 20
7260391.835
 30
0.0
 40
8.0
  1
9
 50
29.884436
  7
ROMANS
 72
     1
 11
909350.491768
 21
7260399.933679
 31
0.0
210
0.0
220
0.0
230
1.0
 73
     3
  0
TEXT
  8
11
  6
CONTINUOUS
 62
     7
  5
102
 10
909359.924
 20
7260396.092
 30
0.0
 40
8.0
  1
'
 50
28.072567
  7
ROMANS
 72
     1
 11
909357.33546
 21
7260403.778114
 31
0.0
210
0.0
220
0.0
230
1.0
 73
     3
  0
TEXT
  8
11
  6
CONTINUOUS
 62
     7
  5
103
 10
909255.777
 20
7260327.403
 30
0.0
 40
8.0
  1
2
 50
34.234014
  7
ROMANS
 72
     1
 11
909253.205206
 21
7260335.32946
 31
0.0
210
0.0
220
0.0
230
1.0
 73
     3
  0
TEXT
  8
11
  6
CONTINUOUS
 62
     7
  5
104
 10
909262.598
 20
7260332.045
 30
0.0
 40
8.0
  1
7
 50
34.234014
  7
ROMANS
 72
     1
 11
909260.026206
 21
7260339.97146
 31
0.0
210
0.0
220
0.0
230
1.0
 73
     3
  0
TEXT
  8
11
  6
CONTINUOUS
 62
     7
  5
105
 10
909270.019
 20
7260337.094
 30
0.0
 40
8.0
  1
.
 50
34.234014
  7
ROMANS
 72
     1
 11
909266.611365
 21
7260344.451697
 31
0.0
210
0.0
220
0.0
230
1.0
 73
     3
  0
TEXT
  8
11
  6
CONTINUOUS
 62
     7
  5
106
 10
909275.881
 20
7260341.2
 30
0.0
 40
8.0
  1
7
 50
35.581967
  7
ROMANS
 72
     1
 11
909273.123455
 21
7260349.063767
 31
0.0
210
0.0
220
0.0
230
1.0
 73
     3
  0
TEXT
  8
11
  6
CONTINUOUS
 62
     7
  5
107
 10
909282.336
 20
7260345.819
 30
0.0
 40
8.0
  1
9
 50
35.581967
  7
ROMANS
 72
     1
 11
909279.578455
 21
7260353.682767
 31
0.0
210
0.0
220
0.0
230
1.0
 73
     3
  0
TEXT
  8
11
  6
CONTINUOUS
 62
     7
  5
108
 10
909289.61
 20
7260351.024
 30
0.0
 40
8.0
  1
'
 50
35.581967
  7
ROMANS
 72
     1
 11
909286.039171
 21
7260358.3059
 31
0.0
210
0.0
220
0.0
230
1.0
 73
     3
  0
TEXT
  8
11
  6
CONTINUOUS
 62
     7
  5
109
 10
909205.548
 20
7260295.614
 30
0.0
 40
8.0
  1
9
 50
31.418275
  7
ROMANS
 72
     1
 11
909203.368691
 21
7260303.657227
 31
0.0
210
0.0
220
0.0
230
1.0
 73
     3
  0
TEXT
  8
11
  6
CONTINUOUS
 62
     7
  5
10A
 10
909212.59
 20
7260299.916
 30
0.0
 40
8.0
  1
5
 50
31.418275
  7
ROMANS
 72
     1
 11
909210.420079
 21
7260307.964961
 31
0.0
210
0.0
220
0.0
230
1.0
 73
     3
  0
TEXT
  8
11
  6
CONTINUOUS
 62
     7
  5
10B
 10
909220.25
 20
7260304.594
 30
0.0
 40
8.0
  1
.
 50
31.418275
  7
ROMANS
 72
     1
 11
909217.20792
 21
7260312.110211
 31
0.0
210
0.0
220
0.0
230
1.0
 73
     3
  0
TEXT
  8
11
  6
CONTINUOUS
 62
     7
  5
10C
 10
909226.998
 20
7260308.715
 30
0.0
 40
8.0
  1
1
 50
31.418275
  7
ROMANS
 72
     1
 11
909223.965307
 21
7260316.236945
 31
0.0
210
0.0
220
0.0
230
1.0
 73
     3
  0
TEXT
  8
11
  6
CONTINUOUS
 62
     7
  5
10D
 10
909232.806
 20
7260312.406
 30
0.0
 40
8.0
  1
0
 50
32.826144
  7
ROMANS
 72
     1
 11
909230.696953
 21
7260320.56564
 31
0.0
210
0.0
220
0.0
230
1.0
 73
     3
  0
TEXT
  8
11
  6
CONTINUOUS
 62
     7
  5
10E
 10
909240.588
 20
7260317.427
 30
0.0
 40
8.0
  1
'
 50
32.826144
  7
ROMANS
 72
     1
 11
909237.371412
 21
7260324.872163
 31
0.0
210
0.0
220
0.0
230
1.0
 73
     3
  0
TEXT
  8
11
  6
CONTINUOUS
 62
     7
  5
10F
 10
909027.485
 20
7260211.18
 30
0.0
 40
8.0
  1
3
 50
20.155319
  7
ROMANS
 72
     1
 11
909026.918602
 21
7260219.493969
 31
0.0
210
0.0
220
0.0
230
1.0
 73
     3
  0
TEXT
  8
11
  6
CONTINUOUS
 62
     7
  5
110
 10
909035.233
 20
7260214.025
 30
0.0
 40
8.0
  1
3
 50
20.155319
  7
ROMANS
 72
     1
 11
909034.666602
 21
7260222.338969
 31
0.0
210
0.0
220
0.0
230
1.0
 73
     3
  0
TEXT
  8
11
  6
CONTINUOUS
 62
     7
  5
111
 10
909042.914
 20
7260216.911
 30
0.0
 40
8.0
  1
2
 50
21.563189
  7
ROMANS
 72
     1
 11
909042.143503
 21
7260225.208543
 31
0.0
210
0.0
220
0.0
230
1.0
 73
     3
  0
TEXT
  8
11
  6
CONTINUOUS
 62
     7
  5
112
 10
909051.262
 20
7260220.209
 30
0.0
 40
8.0
  1
.
 50
21.563189
  7
ROMANS
 72
     1
 11
909049.55126
 21
7260228.134973
 31
0.0
210
0.0
220
0.0
230
1.0
 73
     3
  0
TEXT
  8
11
  6
CONTINUOUS
 62
     7
  5
113
 10
909058.615
 20
7260223.116
 30
0.0
 40
8.0
  1
1
 50
21.563189
  7
ROMANS
 72
     1
 11
909056.91449
 21
7260231.046016
 31
0.0
210
0.0
220
0.0
230
1.0
 73
     3
  0
TEXT
  8
11
  6
CONTINUOUS
 62
     7
  5
114
 10
909066.236
 20
7260226.163
 30
0.0
 40
8.0
  1
1
 50
22.971058
  7
ROMANS
 72
     1
 11
909064.341167
 21
7260234.048842
 31
0.0
210
0.0
220
0.0
230
1.0
 73
     3
  0
TEXT
  8
11
  6
CONTINUOUS
 62
     7
  5
115
 10
909073.543
 20
7260229.26
 30
0.0
 40
8.0
  1
'
 50
22.971058
  7
ROMANS
 72
     1
 11
909071.648167
 21
7260237.145842
 31
0.0
210
0.0
220
0.0
230
1.0
 73
     3
  0
TEXT
  8
11
  6
CONTINUOUS
 62
     7
  5
116
 10
909025.72
 20
7260225.446
 30
0.0
 40
8.0
  1
r
 50
20.155319
  7
ROMANS
 72
     1
 11
909028.22274
 21
7260226.364614
 31
0.0
210
0.0
220
0.0
230
1.0
  0
TEXT
  8
11
  6
CONTINUOUS
 62
     7
  5
117
 10
909032.51
 20
7260227.853
 30
0.0
 40
8.0
  1
=
 50
21.563189
  7
ROMANS
 72
     1
 11
909035.609733
 21
7260229.077968
 31
0.0
210
0.0
220
0.0
230
1.0
  0
TEXT
  8
11
  6
CONTINUOUS
 62
     7
  5
118
 10
909041.738
 20
7260231.499
 30
0.0
 40
8.0
  1
1
 50
21.563189
  7
ROMANS
 72
     1
 11
909042.977707
 21
7260231.988914
 31
0.0
210
0.0
220
0.0
230
1.0
  0
TEXT
  8
11
  6
CONTINUOUS
 62
     7
  5
119
 10
909047.888
 20
7260233.93
 30
0.0
 40
8.0
  1
0
 50
21.563189
  7
ROMANS
 72
     1
 11
909050.353464
 21
7260234.904314
 31
0.0
210
0.0
220
0.0
230
1.0
  0
TEXT
  8
11
  6
CONTINUOUS
 62
     7
  5
11A
 10
909055.387
 20
7260236.894
 30
0.0
 40
8.0
  1
6
 50
21.563189
  7
ROMANS
 72
     1
 11
909057.730632
 21
7260237.820168
 31
0.0
210
0.0
220
0.0
230
1.0
  0
TEXT
  8
11
  6
CONTINUOUS
 62
     7
  5
11B
 10
909062.555
 20
7260239.808
 30
0.0
 40
8.0
  1
0
 50
22.971058
  7
ROMANS
 72
     1
 11
909064.995781
 21
7260240.842595
 31
0.0
210
0.0
220
0.0
230
1.0
  0
TEXT
  8
11
  6
CONTINUOUS
 62
     7
  5
11C
 10
909071.08
 20
7260243.422
 30
0.0
 40
8.0
  1
'
 50
22.971058
  7
ROMANS
 72
     1
 11
909072.307296
 21
7260243.942225
 31
0.0
210
0.0
220
0.0
230
1.0
  0
TEXT
  8
11
  6
CONTINUOUS
 62
     7
  5
11D
 10
908912.476
 20
7260238.052
 30
0.0
 40
8.0
  1
R
 50
13.958744
  7
ROMANS
 72
     1
 11
908912.991798
 21
7260246.42364
 31
0.0
210
0.0
220
0.0
230
1.0
 73
     3
  0
TEXT
  8
11
  6
CONTINUOUS
 62
     7
  5
11E
 10
908919.778
 20
7260239.984
 30
0.0
 40
8.0
  1
=
 50
15.408236
  7
ROMANS
 72
     1
 11
908920.865645
 21
7260248.582018
 31
0.0
210
0.0
220
0.0
230
1.0
 73
     3
  0
TEXT
  8
11
  6
CONTINUOUS
 62
     7
  5
11F
 10
908929.344
 20
7260242.62
 30
0.0
 40
8.0
  1
1
 50
15.408236
  7
ROMANS
 72
     1
 11
908928.503531
 21
7260250.686629
 31
0.0
210
0.0
220
0.0
230
1.0
 73
     3
  0
TEXT
  8
11
  6
CONTINUOUS
 62
     7
  5
120
 10
908935.719
 20
7260244.378
 30
0.0
 40
8.0
  1
0
 50
15.408236
  7
ROMANS
 72
     1
 11
908936.149158
 21
7260252.794814
 31
0.0
210
0.0
220
0.0
230
1.0
 73
     3
  0
TEXT
  8
11
  6
CONTINUOUS
 62
     7
  5
121
 10
908943.613
 20
7260246.65
 30
0.0
 40
8.0
  1
0
 50
16.857728
  7
ROMANS
 72
     1
 11
908943.830111
 21
7260255.075002
 31
0.0
210
0.0
220
0.0
230
1.0
 73
     3
  0
TEXT
  8
11
  6
CONTINUOUS
 62
     7
  5
122
 10
908951.209
 20
7260248.952
 30
0.0
 40
8.0
  1
0
 50
16.857728
  7
ROMANS
 72
     1
 11
908951.426111
 21
7260257.377002
 31
0.0
210
0.0
220
0.0
230
1.0
 73
     3
  0
TEXT
  8
11
  6
CONTINUOUS
 62
     7
  5
123
 10
909110.57
 20
7260312.194
 30
0.0
 40
8.0
  1
R
 50
26.973128
  7
ROMANS
 72
     1
 11
909109.187292
 21
7260320.466758
 31
0.0
210
0.0
220
0.0
230
1.0
 73
     3
  0
TEXT
  8
11
  6
CONTINUOUS
 62
     7
  5
124
 10
909117.055
 20
7260315.493
 30
0.0
 40
8.0
  1
=
 50
26.973128
  7
ROMANS
 72
     1
 11
909116.396854
 21
7260324.134512
 31
0.0
210
0.0
220
0.0
230
1.0
 73
     3
  0
TEXT
  8
11
  6
CONTINUOUS
 62
     7
  5
125
 10
909125.897
 20
7260319.994
 30
0.0
 40
8.0
  1
1
 50
26.973128
  7
ROMANS
 72
     1
 11
909123.456415
 21
7260327.728367
 31
0.0
210
0.0
220
0.0
230
1.0
 73
     3
  0
TEXT
  8
11
  6
CONTINUOUS
 62
     7
  5
126
 10
909131.999
 20
7260323.195
 30
0.0
 40
8.0
  1
0
 50
28.422619
  7
ROMANS
 72
     1
 11
909130.522679
 21
7260331.492486
 31
0.0
210
0.0
220
0.0
230
1.0
 73
     3
  0
TEXT
  8
11
  6
CONTINUOUS
 62
     7
  5
127
 10
909138.98
 20
7260326.973
 30
0.0
 40
8.0
  1
0
 50
28.422619
  7
ROMANS
 72
     1
 11
909137.503679
 21
7260335.270486
 31
0.0
210
0.0
220
0.0
230
1.0
 73
     3
  0
TEXT
  8
11
  6
CONTINUOUS
 62
     7
  5
128
 10
909145.96
 20
7260330.751
 30
0.0
 40
8.0
  1
0
 50
28.422619
  7
ROMANS
 72
     1
 11
909144.483679
 21
7260339.048486
 31
0.0
210
0.0
220
0.0
230
1.0
 73
     3
  0
TEXT
  8
11
  6
CONTINUOUS
 62
     7
  5
129
 10
909421.575
 20
7260491.593
 30
0.0
 40
8.0
  1
R
 50
20.799428
  7
ROMANS
 72
     1
 11
909421.089989
 21
7260499.96648
 31
0.0
210
0.0
220
0.0
230
1.0
 73
     3
  0
TEXT
  8
11
  6
CONTINUOUS
 62
     7
  5
12A
 10
909428.378
 20
7260494.177
 30
0.0
 40
8.0
  1
=
 50
20.799428
  7
ROMANS
 72
     1
 11
909428.653005
 21
7260502.839174
 31
0.0
210
0.0
220
0.0
230
1.0
 73
     3
  0
TEXT
  8
11
  6
CONTINUOUS
 62
     7
  5
12B
 10
909436.449
 20
7260497.088
 30
0.0
 40
8.0
  1
7
 50
19.06695
  7
ROMANS
 72
     1
 11
909436.040624
 21
7260505.411228
 31
0.0
210
0.0
220
0.0
230
1.0
 73
     3
  0
TEXT
  8
11
  6
CONTINUOUS
 62
     7
  5
12C
 10
909443.652
 20
7260499.577
 30
0.0
 40
8.0
  1
0
 50
19.06695
  7
ROMANS
 72
     1
 11
909443.544177
 21
7260508.00411
 31
0.0
210
0.0
220
0.0
230
1.0
 73
     3
  0
TEXT
  8
11
  6
CONTINUOUS
 62
     7
  5
12D
 10
909450.832
 20
7260502.085
 30
0.0
 40
8.0
  1
0
 50
17.334472
  7
ROMANS
 72
     1
 11
909450.979002
 21
7260510.511517
 31
0.0
210
0.0
220
0.0
230
1.0
 73
     3
  0
TEXT
  8
11
  6
CONTINUOUS
 62
     7
  5
12E
 10
909459.672
 20
7260504.844
 30
0.0
 40
8.0
  1
'
 50
17.334472
  7
ROMANS
 72
     1
 11
909458.560863
 21
7260512.87782
 31
0.0
210
0.0
220
0.0
230
1.0
 73
     3
  0
TEXT
  8
11
  6
CONTINUOUS
 62
     7
  5
12F
 10
908906.212
 20
7260250.922
 30
0.0
 40
8.0
  1
1
 50
13.958744
  7
ROMANS
 72
     1
 11
908907.505636
 21
7260251.24355
 31
0.0
210
0.0
220
0.0
230
1.0
  0
TEXT
  8
11
  6
CONTINUOUS
 62
     7
  5
130
 10
908914.131
 20
7260252.951
 30
0.0
 40
8.0
  1
3
 50
15.408236
  7
ROMANS
 72
     1
 11
908916.380145
 21
7260253.570866
 31
0.0
210
0.0
220
0.0
230
1.0
  0
TEXT
  8
11
  6
CONTINUOUS
 62
     7
  5
131
 10
908921.599
 20
7260255.009
 30
0.0
 40
8.0
  1
6
 50
15.408236
  7
ROMANS
 72
     1
 11
908924.028424
 21
7260255.678551
 31
0.0
210
0.0
220
0.0
230
1.0
  0
TEXT
  8
11
  6
CONTINUOUS
 62
     7
  5
132
 10
908930.436
 20
7260257.445
 30
0.0
 40
8.0
  1
.
 50
15.408236
  7
ROMANS
 72
     1
 11
908931.710484
 21
7260257.796248
 31
0.0
210
0.0
220
0.0
230
1.0
  0
TEXT
  8
11
  6
CONTINUOUS
 62
     7
  5
133
 10
908936.825
 20
7260259.222
 30
0.0
 40
8.0
  1
6
 50
16.857728
  7
ROMANS
 72
     1
 11
908939.23671
 21
7260259.95279
 31
0.0
210
0.0
220
0.0
230
1.0
  0
TEXT
  8
11
  6
CONTINUOUS
 62
     7
  5
134
 10
908944.603
 20
7260261.579
 30
0.0
 40
8.0
  1
9
 50
16.857728
  7
ROMANS
 72
     1
 11
908946.835746
 21
7260262.255561
 31
0.0
210
0.0
220
0.0
230
1.0
  0
TEXT
  8
11
  6
CONTINUOUS
 62
     7
  5
135
 10
908953.163
 20
7260264.174
 30
0.0
 40
8.0
  1
'
 50
16.857728
  7
ROMANS
 72
     1
 11
908954.438718
 21
7260264.560565
 31
0.0
210
0.0
220
0.0
230
1.0
  0
TEXT
  8
11
  6
CONTINUOUS
 62
     7
  5
136
 10
909104.654
 20
7260324.892
 30
0.0
 40
8.0
  1
1
 50
26.973128
  7
ROMANS
 72
     1
 11
909105.841995
 21
7260325.496612
 31
0.0
210
0.0
220
0.0
230
1.0
  0
TEXT
  8
11
  6
CONTINUOUS
 62
     7
  5
137
 10
909112.907
 20
7260329.092
 30
0.0
 40
8.0
  1
1
 50
26.973128
  7
ROMANS
 72
     1
 11
909114.094995
 21
7260329.696612
 31
0.0
210
0.0
220
0.0
230
1.0
  0
TEXT
  8
11
  6
CONTINUOUS
 62
     7
  5
138
 10
909119.98
 20
7260332.692
 30
0.0
 40
8.0
  1
1
 50
26.973128
  7
ROMANS
 72
     1
 11
909121.167995
 21
7260333.296612
 31
0.0
210
0.0
220
0.0
230
1.0
  0
TEXT
  8
11
  6
CONTINUOUS
 62
     7
  5
139
 10
909126.955
 20
7260336.384
 30
0.0
 40
8.0
  1
.
 50
28.422619
  7
ROMANS
 72
     1
 11
909128.117647
 21
7260337.013234
 31
0.0
210
0.0
220
0.0
230
1.0
  0
TEXT
  8
11
  6
CONTINUOUS
 62
     7
  5
13A
 10
909133.021
 20
7260339.667
 30
0.0
 40
8.0
  1
4
 50
28.422619
  7
ROMANS
 72
     1
 11
909135.072782
 21
7260340.777441
 31
0.0
210
0.0
220
0.0
230
1.0
  0
TEXT
  8
11
  6
CONTINUOUS
 62
     7
  5
13B
 10
909140.002
 20
7260343.444
 30
0.0
 40
8.0
  1
4
 50
28.422619
  7
ROMANS
 72
     1
 11
909142.053782
 21
7260344.554441
 31
0.0
210
0.0
220
0.0
230
1.0
  0
TEXT
  8
11
  6
CONTINUOUS
 62
     7
  5
13C
 10
909147.759
 20
7260347.741
 30
0.0
 40
8.0
  1
'
 50
29.872111
  7
ROMANS
 72
     1
 11
909148.914897
 21
7260348.404922
 31
0.0
210
0.0
220
0.0
230
1.0
  0
TEXT
  8
11
  6
CONTINUOUS
 62
     7
  5
13D
 10
909206.387
 20
7260383.416
 30
0.0
 40
8.0
  1
9
 50
32.771092
  7
ROMANS
 72
     1
 11
909208.348679
 21
7260384.678816
 31
0.0
210
0.0
220
0.0
230
1.0
  0
TEXT
  8
11
  6
CONTINUOUS
 62
     7
  5
13E
 10
909213.198
 20
7260387.939
 30
0.0
 40
8.0
  1
7
 50
34.220583
  7
ROMANS
 72
     1
 11
909215.127108
 21
7260389.251034
 31
0.0
210
0.0
220
0.0
230
1.0
  0
TEXT
  8
11
  6
CONTINUOUS
 62
     7
  5
13F
 10
909220.62
 20
7260392.986
 30
0.0
 40
8.0
  1
.
 50
34.220583
  7
ROMANS
 72
     1
 11
909221.713134
 21
7260393.729467
 31
0.0
210
0.0
220
0.0
230
1.0
  0
TEXT
  8
11
  6
CONTINUOUS
 62
     7
  5
140
 10
909226.167
 20
7260396.759
 30
0.0
 40
8.0
  1
6
 50
34.220583
  7
ROMANS
 72
     1
 11
909228.250734
 21
7260398.176199
 31
0.0
210
0.0
220
0.0
230
1.0
  0
TEXT
  8
11
  6
CONTINUOUS
 62
     7
  5
141
 10
909232.528
 20
7260401.167
 30
0.0
 40
8.0
  1
0
 50
35.585658
  7
ROMANS
 72
     1
 11
909234.683916
 21
7260402.709668
 31
0.0
210
0.0
220
0.0
230
1.0
  0
TEXT
  8
11
  6
CONTINUOUS
 62
     7
  5
142
 10
909240.059
 20
7260406.556
 30
0.0
 40
8.0
  1
'
 50
35.585658
  7
ROMANS
 72
     1
 11
909241.143058
 21
7260407.331699
 31
0.0
210
0.0
220
0.0
230
1.0
  0
TEXT
  8
11
  6
CONTINUOUS
 62
     7
  5
143
 10
909369.907
 20
7260484.998
 30
0.0
 40
8.0
  1
9
 50
24.264386
  7
ROMANS
 72
     1
 11
909372.0339
 21
7260485.956741
 31
0.0
210
0.0
220
0.0
230
1.0
  0
TEXT
  8
11
  6
CONTINUOUS
 62
     7
  5
144
 10
909377.258
 20
7260488.312
 30
0.0
 40
8.0
  1
6
 50
24.264386
  7
ROMANS
 72
     1
 11
909379.55538
 21
7260489.347588
 31
0.0
210
0.0
220
0.0
230
1.0
  0
TEXT
  8
11
  6
CONTINUOUS
 62
     7
  5
145
 10
909385.614
 20
7260492.079
 30
0.0
 40
8.0
  1
.
 50
24.264386
  7
ROMANS
 72
     1
 11
909386.819213
 21
7260492.622273
 31
0.0
210
0.0
220
0.0
230
1.0
  0
TEXT
  8
11
  6
CONTINUOUS
 62
     7
  5
146
 10
909391.75
 20
7260494.697
 30
0.0
 40
8.0
  1
0
 50
22.531908
  7
ROMANS
 72
     1
 11
909394.198639
 21
7260495.712858
 31
0.0
210
0.0
220
0.0
230
1.0
  0
TEXT
  8
11
  6
CONTINUOUS
 62
     7
  5
147
 10
909399.374
 20
7260497.859
 30
0.0
 40
8.0
  1
7
 50
22.531908
  7
ROMANS
 72
     1
 11
909401.528913
 21
7260498.753001
 31
0.0
210
0.0
220
0.0
230
1.0
  0
TEXT
  8
11
  6
CONTINUOUS
 62
     7
  5
148
 10
909407.725
 20
7260501.309
 30
0.0
 40
8.0
  1
'
 50
20.799428
  7
ROMANS
 72
     1
 11
909408.971127
 21
7260501.782345
 31
0.0
210
0.0
220
0.0
230
1.0
  0
TEXT
  8
11
  6
CONTINUOUS
 62
     7
  5
149
 10
909469.441
 20
7260522.496
 30
0.0
 40
8.0
  1
9
 50
15.601994
  7
ROMANS
 72
     1
 11
909471.688036
 21
7260523.123468
 31
0.0
210
0.0
220
0.0
230
1.0
  0
TEXT
  8
11
  6
CONTINUOUS
 62
     7
  5
14A
 10
909477.206
 20
7260524.665
 30
0.0
 40
8.0
  1
6
 50
15.601994
  7
ROMANS
 72
     1
 11
909479.633146
 21
7260525.342762
 31
0.0
210
0.0
220
0.0
230
1.0
  0
TEXT
  8
11
  6
CONTINUOUS
 62
     7
  5
14B
 10
909486.034
 20
7260527.13
 30
0.0
 40
8.0
  1
.
 50
15.601994
  7
ROMANS
 72
     1
 11
909487.307289
 21
7260527.485556
 31
0.0
210
0.0
220
0.0
230
1.0
  0
TEXT
  8
11
  6
CONTINUOUS
 62
     7
  5
14C
 10
909492.498
 20
7260528.788
 30
0.0
 40
8.0
  1
0
 50
13.869517
  7
ROMANS
 72
     1
 11
909495.071708
 21
7260529.423475
 31
0.0
210
0.0
220
0.0
230
1.0
  0
TEXT
  8
11
  6
CONTINUOUS
 62
     7
  5
14D
 10
909500.51
 20
7260530.767
 30
0.0
 40
8.0
  1
7
 50
13.869517
  7
ROMANS
 72
     1
 11
909502.774979
 21
7260531.326247
 31
0.0
210
0.0
220
0.0
230
1.0
  0
TEXT
  8
11
  6
CONTINUOUS
 62
     7
  5
14E
 10
909509.287
 20
7260532.913
 30
0.0
 40
8.0
  1
'
 50
12.137039
  7
ROMANS
 72
     1
 11
909510.591182
 21
7260533.193474
 31
0.0
210
0.0
220
0.0
230
1.0
  0
TEXT
  8
11
  6
CONTINUOUS
 62
     7
  5
14F
 10
908979.666
 20
7260335.697
 30
0.0
 40
8.0
  1
R
 50
310.498278
  7
ROMANS
 72
     1
 11
908981.302551
 21
7260333.780728
 31
0.0
210
0.0
220
0.0
230
1.0
  0
TEXT
  8
11
  6
CONTINUOUS
 62
     7
  5
150
 10
908984.641
 20
7260330.104
 30
0.0
 40
8.0
  1
=
 50
306.624192
  7
ROMANS
 72
     1
 11
908986.629347
 21
7260327.429049
 31
0.0
210
0.0
220
0.0
230
1.0
  0
TEXT
  8
11
  6
CONTINUOUS
 62
     7
  5
151
 10
908990.56
 20
7260322.14
 30
0.0
 40
8.0
  1
1
 50
306.624192
  7
ROMANS
 72
     1
 11
908991.35522
 21
7260321.07018
 31
0.0
210
0.0
220
0.0
230
1.0
  0
TEXT
  8
11
  6
CONTINUOUS
 62
     7
  5
152
 10
908994.528
 20
7260316.219
 30
0.0
 40
8.0
  1
4
 50
302.750106
  7
ROMANS
 72
     1
 11
908995.790097
 21
7260314.256858
 31
0.0
210
0.0
220
0.0
230
1.0
  0
TEXT
  8
11
  6
CONTINUOUS
 62
     7
  5
153
 10
908998.569
 20
7260309.524
 30
0.0
 40
8.0
  1
0
 50
298.876019
  7
ROMANS
 72
     1
 11
908999.84921
 21
7260307.202608
 31
0.0
210
0.0
220
0.0
230
1.0
  0
TEXT
  8
11
  6
CONTINUOUS
 62
     7
  5
154
 10
909002.955
 20
7260301.15
 30
0.0
 40
8.0
  1
'
 50
295.121331
  7
ROMANS
 72
     1
 11
909003.520907
 21
7260299.943087
 31
0.0
210
0.0
220
0.0
230
1.0
  0
TEXT
  8
11
  6
CONTINUOUS
 62
     7
  5
155
 10
909023.225
 20
7260355.231
 30
0.0
 40
8.0
  1
R
 50
307.573453
  7
ROMANS
 72
     1
 11
909031.102219
 21
7260358.111942
 31
0.0
210
0.0
220
0.0
230
1.0
 73
     3
  0
TEXT
  8
11
  6
CONTINUOUS
 62
     7
  5
156
 10
909027.272
 20
7260349.95
 30
0.0
 40
8.0
  1
=
 50
304.332206
  7
ROMANS
 72
     1
 11
909035.758031
 21
7260351.709593
 31
0.0
210
0.0
220
0.0
230
1.0
 73
     3
  0
TEXT
  8
11
  6
CONTINUOUS
 62
     7
  5
157
 10
909032.052
 20
7260343.169
 30
0.0
 40
8.0
  1
2
 50
301.090958
  7
ROMANS
 72
     1
 11
909040.107546
 21
7260345.302324
 31
0.0
210
0.0
220
0.0
230
1.0
 73
     3
  0
TEXT
  8
11
  6
CONTINUOUS
 62
     7
  5
158
 10
909035.986
 20
7260336.644
 30
0.0
 40
8.0
  1
0
 50
301.090958
  7
ROMANS
 72
     1
 11
909044.20576
 21
7260338.505005
 31
0.0
210
0.0
220
0.0
230
1.0
 73
     3
  0
TEXT
  8
11
  6
CONTINUOUS
 62
     7
  5
159
 10
909039.663
 20
7260330.322
 30
0.0
 40
8.0
  1
0
 50
297.849711
  7
ROMANS
 72
     1
 11
909047.974833
 21
7260331.715281
 31
0.0
210
0.0
220
0.0
230
1.0
 73
     3
  0
TEXT
  8
11
  6
CONTINUOUS
 62
     7
  5
15A
 10
909043.698
 20
7260322.684
 30
0.0
 40
8.0
  1
'
 50
294.608464
  7
ROMANS
 72
     1
 11
909051.526478
 21
7260324.803391
 31
0.0
210
0.0
220
0.0
230
1.0
 73
     3
  0
TEXT
  8
11
  6
CONTINUOUS
 62
     7
  5
15B
 10
908957.982
 20
7260364.405
 30
0.0
 40
8.0
  1
2
 50
302.240736
  7
ROMANS
 72
     1
 11
908959.226604
 21
7260362.431716
 31
0.0
210
0.0
220
0.0
230
1.0
  0
TEXT
  8
11
  6
CONTINUOUS
 62
     7
  5
15C
 10
908962.179
 20
7260357.873
 30
0.0
 40
8.0
  1
0
 50
305.481983
  7
ROMANS
 72
     1
 11
908963.717765
 21
7260355.714296
 31
0.0
210
0.0
220
0.0
230
1.0
  0
TEXT
  8
11
  6
CONTINUOUS
 62
     7
  5
15D
 10
908966.588
 20
7260351.473
 30
0.0
 40
8.0
  1
0
 50
308.723231
  7
ROMANS
 72
     1
 11
908968.246357
 21
7260349.404751
 31
0.0
210
0.0
220
0.0
230
1.0
  0
TEXT
  8
11
  6
CONTINUOUS
 62
     7
  5
15E
 10
908972.382
 20
7260344.247
 30
0.0
 40
8.0
  1
'
 50
308.723231
  7
ROMANS
 72
     1
 11
908973.21587
 21
7260343.207024
 31
0.0
210
0.0
220
0.0
230
1.0
  0
TEXT
  8
11
  6
CONTINUOUS
 62
     7
  5
15F
 10
909491.809
 20
7260190.525
 30
0.0
 40
8.0
  1
9
 50
39.86925
  7
ROMANS
 72
     1
 11
909488.471297
 21
7260198.160616
 31
0.0
210
0.0
220
0.0
230
1.0
 73
     3
  0
TEXT
  8
11
  6
CONTINUOUS
 62
     7
  5
160
 10
909499.653
 20
7260197.858
 30
0.0
 40
8.0
  1
2
 50
52.835533
  7
ROMANS
 72
     1
 11
909494.687139
 21
7260204.550019
 31
0.0
210
0.0
220
0.0
230
1.0
 73
     3
  0
TEXT
  8
11
  6
CONTINUOUS
 62
     7
  5
161
 10
909505.592
 20
7260206.163
 30
0.0
 40
8.0
  1
.
 50
59.318675
  7
ROMANS
 72
     1
 11
909499.386418
 21
7260211.382046
 31
0.0
210
0.0
220
0.0
230
1.0
 73
     3
  0
TEXT
  8
11
  6
CONTINUOUS
 62
     7
  5
162
 10
909509.369
 20
7260213.364
 30
0.0
 40
8.0
  1
2
 50
65.801817
  7
ROMANS
 72
     1
 11
909503.028218
 21
7260218.771159
 31
0.0
210
0.0
220
0.0
230
1.0
 73
     3
  0
TEXT
  8
11
  6
CONTINUOUS
 62
     7
  5
163
 10
909512.83
 20
7260223.182
 30
0.0
 40
8.0
  1
2
 50
78.768103
  7
ROMANS
 72
     1
 11
909505.437648
 21
7260227.028559
 31
0.0
210
0.0
220
0.0
230
1.0
 73
     3
  0
TEXT
  8
11
  6
CONTINUOUS
 62
     7
  5
164
 10
909514.402
 20
7260233.236
 30
0.0
 40
8.0
  1
'
 50
85.251244
  7
ROMANS
 72
     1
 11
909506.539816
 21
7260235.226717
 31
0.0
210
0.0
220
0.0
230
1.0
 73
     3
  0
TEXT
  8
11
  6
CONTINUOUS
 62
     7
  5
165
 10
909392.75
 20
7260238.624
 30
0.0
 40
8.0
  1
9
 50
270.206408
  7
ROMANS
 72
     1
 11
909400.758353
 21
7260236.319835
 31
0.0
210
0.0
220
0.0
230
1.0
 73
     3
  0
TEXT
  8
11
  6
CONTINUOUS
 62
     7
  5
166
 10
909393.478
 20
7260227.917
 30
0.0
 40
8.0
  1
4
 50
283.172692
  7
ROMANS
 72
     1
 11
909401.799161
 21
7260227.468481
 31
0.0
210
0.0
220
0.0
230
1.0
 73
     3
  0
TEXT
  8
11
  6
CONTINUOUS
 62
     7
  5
167
 10
909396.123
 20
7260218.056
 30
0.0
 40
8.0
  1
.
 50
289.655833
  7
ROMANS
 72
     1
 11
909404.101521
 21
7260219.501988
 31
0.0
210
0.0
220
0.0
230
1.0
 73
     3
  0
TEXT
  8
11
  6
CONTINUOUS
 62
     7
  5
168
 10
909399.698
 20
7260209.37
 30
0.0
 40
8.0
  1
8
 50
302.622119
  7
ROMANS
 72
     1
 11
909407.693666
 21
7260211.717812
 31
0.0
210
0.0
220
0.0
230
1.0
 73
     3
  0
TEXT
  8
11
  6
CONTINUOUS
 62
     7
  5
169
 10
909404.721
 20
7260201.687
 30
0.0
 40
8.0
  1
7
 50
309.105261
  7
ROMANS
 72
     1
 11
909412.400441
 21
7260204.922595
 31
0.0
210
0.0
220
0.0
230
1.0
 73
     3
  0
TEXT
  8
11
  6
CONTINUOUS
 62
     7
  5
16A
 10
909411.49
 20
7260194.09
 30
0.0
 40
8.0
  1
'
 50
315.588403
  7
ROMANS
 72
     1
 11
909418.040667
 21
7260198.871804
 31
0.0
210
0.0
220
0.0
230
1.0
 73
     3
  0
TEXT
  8
11
  6
CONTINUOUS
 62
     7
  5
16B
 10
909460.807
 20
7260383.353
 30
0.0
 40
8.0
  1
R
 50
286.336244
  7
ROMANS
 72
     1
 11
909469.19283
 21
7260383.184929
 31
0.0
210
0.0
220
0.0
230
1.0
 73
     3
  0
TEXT
  8
11
  6
CONTINUOUS
 62
     7
  5
16C
 10
909462.615
 20
7260376.786
 30
0.0
 40
8.0
  1
=
 50
283.920397
  7
ROMANS
 72
     1
 11
909471.181879
 21
7260375.475476
 31
0.0
210
0.0
220
0.0
230
1.0
 73
     3
  0
TEXT
  8
11
  6
CONTINUOUS
 62
     7
  5
16D
 10
909464.759
 20
7260368.135
 30
0.0
 40
8.0
  1
3
 50
283.920397
  7
ROMANS
 72
     1
 11
909473.085305
 21
7260367.795107
 31
0.0
210
0.0
220
0.0
230
1.0
 73
     3
  0
TEXT
  8
11
  6
CONTINUOUS
 62
     7
  5
16E
 10
909466.34
 20
7260361.026
 30
0.0
 40
8.0
  1
6
 50
281.50455
  7
ROMANS
 72
     1
 11
909474.681874
 21
7260360.152196
 31
0.0
210
0.0
220
0.0
230
1.0
 73
     3
  0
TEXT
  8
11
  6
CONTINUOUS
 62
     7
  5
16F
 10
909467.897
 20
7260353.372
 30
0.0
 40
8.0
  1
0
 50
281.50455
  7
ROMANS
 72
     1
 11
909476.265002
 21
7260352.369828
 31
0.0
210
0.0
220
0.0
230
1.0
 73
     3
  0
TEXT
  8
11
  6
CONTINUOUS
 62
     7
  5
170
 10
909469.401
 20
7260344.706
 30
0.0
 40
8.0
  1
'
 50
279.088703
  7
ROMANS
 72
     1
 11
909477.511125
 21
7260344.653443
 31
0.0
210
0.0
220
0.0
230
1.0
 73
     3
  0
TEXT
  8
11
  6
CONTINUOUS
 62
     7
  5
171
 10
909416.991
 20
7260369.178
 30
0.0
 40
8.0
  1
R
 50
285.416756
  7
ROMANS
 72
     1
 11
909417.660912
 21
7260366.748675
 31
0.0
210
0.0
220
0.0
230
1.0
  0
TEXT
  8
11
  6
CONTINUOUS
 62
     7
  5
172
 10
909418.961
 20
7260362.03
 30
0.0
 40
8.0
  1
=
 50
282.770317
  7
ROMANS
 72
     1
 11
909419.697737
 21
7260358.779445
 31
0.0
210
0.0
220
0.0
230
1.0
  0
TEXT
  8
11
  6
CONTINUOUS
 62
     7
  5
173
 10
909420.931
 20
7260353.336
 30
0.0
 40
8.0
  1
3
 50
282.770317
  7
ROMANS
 72
     1
 11
909421.446694
 21
7260351.060709
 31
0.0
210
0.0
220
0.0
230
1.0
  0
TEXT
  8
11
  6
CONTINUOUS
 62
     7
  5
174
 10
909422.523
 20
7260345.744
 30
0.0
 40
8.0
  1
0
 50
280.123881
  7
ROMANS
 72
     1
 11
909422.988985
 21
7260343.134276
 31
0.0
210
0.0
220
0.0
230
1.0
  0
TEXT
  8
11
  6
CONTINUOUS
 62
     7
  5
175
 10
909423.918
 20
7260337.931
 30
0.0
 40
8.0
  1
0
 50
280.123881
  7
ROMANS
 72
     1
 11
909424.383985
 21
7260335.321276
 31
0.0
210
0.0
220
0.0
230
1.0
  0
TEXT
  8
11
  6
CONTINUOUS
 62
     7
  5
176
 10
909425.293
 20
7260328.635
 30
0.0
 40
8.0
  1
'
 50
277.477442
  7
ROMANS
 72
     1
 11
909425.466471
 21
7260327.313336
 31
0.0
210
0.0
220
0.0
230
1.0
  0
TEXT
  8
11
  6
CONTINUOUS
 62
     7
  5
177
 10
909411.834
 20
7260323.597
 30
0.0
 40
8.0
  1
4
 50
277.477442
  7
ROMANS
 72
     1
 11
909420.069576
 21
7260322.324926
 31
0.0
210
0.0
220
0.0
230
1.0
 73
     3
  0
TEXT
  8
11
  6
CONTINUOUS
 62
     7
  5
178
 10
909412.685
 20
7260315.903
 30
0.0
 40
8.0
  1
9
 50
274.831006
  7
ROMANS
 72
     1
 11
909420.853058
 21
7260314.252025
 31
0.0
210
0.0
220
0.0
230
1.0
 73
     3
  0
TEXT
  8
11
  6
CONTINUOUS
 62
     7
  5
179
 10
909413.467
 20
7260307.469
 30
0.0
 40
8.0
  1
.
 50
272.184567
  7
ROMANS
 72
     1
 11
909421.511579
 21
7260306.45291
 31
0.0
210
0.0
220
0.0
230
1.0
 73
     3
  0
TEXT
  8
11
  6
CONTINUOUS
 62
     7
  5
17A
 10
909413.722
 20
7260300.766
 30
0.0
 40
8.0
  1
6
 50
272.184567
  7
ROMANS
 72
     1
 11
909421.812245
 21
7260298.552781
 31
0.0
210
0.0
220
0.0
230
1.0
 73
     3
  0
TEXT
  8
11
  6
CONTINUOUS
 62
     7
  5
17B
 10
909414.037
 20
7260293.154
 30
0.0
 40
8.0
  1
4
 50
269.538131
  7
ROMANS
 72
     1
 11
909422.017934
 21
7260290.756587
 31
0.0
210
0.0
220
0.0
230
1.0
 73
     3
  0
TEXT
  8
11
  6
CONTINUOUS
 62
     7
  5
17C
 10
909413.965
 20
7260284.209
 30
0.0
 40
8.0
  1
'
 50
269.538131
  7
ROMANS
 72
     1
 11
909421.953995
 21
7260282.811555
 31
0.0
210
0.0
220
0.0
230
1.0
 73
     3
  0
TEXT
  8
11
  6
CONTINUOUS
 62
     7
  5
17D
 10
909392.701
 20
7260397.399
 30
0.0
 40
8.0
  1
7
 50
290.709631
  7
ROMANS
 72
     1
 11
909401.0091
 21
7260398.045804
 31
0.0
210
0.0
220
0.0
230
1.0
 73
     3
  0
TEXT
  8
11
  6
CONTINUOUS
 62
     7
  5
17E
 10
909395.619
 20
7260389.68
 30
0.0
 40
8.0
  1
8
 50
290.709631
  7
ROMANS
 72
     1
 11
909403.9271
 21
7260390.326804
 31
0.0
210
0.0
220
0.0
230
1.0
 73
     3
  0
TEXT
  8
11
  6
CONTINUOUS
 62
     7
  5
17F
 10
909398.499
 20
7260381.718
 30
0.0
 40
8.0
  1
.
 50
288.063192
  7
ROMANS
 72
     1
 11
909406.514628
 21
7260382.94168
 31
0.0
210
0.0
220
0.0
230
1.0
 73
     3
  0
TEXT
  8
11
  6
CONTINUOUS
 62
     7
  5
180
 10
909400.95
 20
7260374.202
 30
0.0
 40
8.0
  1
1
 50
288.063192
  7
ROMANS
 72
     1
 11
909408.969039
 21
7260375.415223
 31
0.0
210
0.0
220
0.0
230
1.0
 73
     3
  0
TEXT
  8
11
  6
CONTINUOUS
 62
     7
  5
181
 10
909402.78
 20
7260368.049
 30
0.0
 40
8.0
  1
3
 50
285.416756
  7
ROMANS
 72
     1
 11
909411.112342
 21
7260367.926651
 31
0.0
210
0.0
220
0.0
230
1.0
 73
     3
  0
TEXT
  8
11
  6
CONTINUOUS
 62
     7
  5
182
 10
909405.081
 20
7260359.93
 30
0.0
 40
8.0
  1
'
 50
282.770317
  7
ROMANS
 72
     1
 11
909413.177763
 21
7260360.398319
 31
0.0
210
0.0
220
0.0
230
1.0
 73
     3
  0
TEXT
  8
11
  6
CONTINUOUS
 62
     7
  5
183
 10
908895.626
 20
7260422.993
 30
0.0
 40
8.0
  1
8
 50
101.420022
  7
ROMANS
 72
     1
 11
908895.164066
 21
7260425.279811
 31
0.0
210
0.0
220
0.0
230
1.0
  0
TEXT
  8
11
  6
CONTINUOUS
 62
     7
  5
184
 10
908894.336
 20
7260431.156
 30
0.0
 40
8.0
  1
0
 50
94.936881
  7
ROMANS
 72
     1
 11
908894.10786
 21
7260433.797165
 31
0.0
210
0.0
220
0.0
230
1.0
  0
TEXT
  8
11
  6
CONTINUOUS
 62
     7
  5
185
 10
908894.405
 20
7260441.104
 30
0.0
 40
8.0
  1
.
 50
81.970597
  7
ROMANS
 72
     1
 11
908894.589659
 21
7260442.41304
 31
0.0
210
0.0
220
0.0
230
1.0
  0
TEXT
  8
11
  6
CONTINUOUS
 62
     7
  5
186
 10
908895.677
 20
7260448.218
 30
0.0
 40
8.0
  1
7
 50
75.487453
  7
ROMANS
 72
     1
 11
908896.261631
 21
7260450.47656
 31
0.0
210
0.0
220
0.0
230
1.0
  0
TEXT
  8
11
  6
CONTINUOUS
 62
     7
  5
187
 10
908898.265
 20
7260456.436
 30
0.0
 40
8.0
  1
2
 50
62.521169
  7
ROMANS
 72
     1
 11
908899.341495
 21
7260458.505794
 31
0.0
210
0.0
220
0.0
230
1.0
  0
TEXT
  8
11
  6
CONTINUOUS
 62
     7
  5
188
 10
908902.771
 20
7260464.542
 30
0.0
 40
8.0
  1
'
 50
56.038028
  7
ROMANS
 72
     1
 11
908903.515671
 21
7260465.647602
 31
0.0
210
0.0
220
0.0
230
1.0
  0
TEXT
  8
11
  6
CONTINUOUS
 62
     7
  5
189
 10
908926.064
 20
7260484.159
 30
0.0
 40
8.0
  1
5
 50
23.625569
  7
ROMANS
 72
     1
 11
908928.211535
 21
7260485.098377
 31
0.0
210
0.0
220
0.0
230
1.0
  0
TEXT
  8
11
  6
CONTINUOUS
 62
     7
  5
18A
 10
908934.494
 20
7260487.069
 30
0.0
 40
8.0
  1
2
 50
10.659286
  7
ROMANS
 72
     1
 11
908936.786743
 21
7260487.500531
 31
0.0
210
0.0
220
0.0
230
1.0
  0
TEXT
  8
11
  6
CONTINUOUS
 62
     7
  5
18B
 10
908943.699
 20
7260488.402
 30
0.0
 40
8.0
  1
.
 50
4.176144
  7
ROMANS
 72
     1
 11
908945.01749
 21
7260488.498272
 31
0.0
210
0.0
220
0.0
230
1.0
  0
TEXT
  8
11
  6
CONTINUOUS
 62
     7
  5
18C
 10
908951.275
 20
7260488.487
 30
0.0
 40
8.0
  1
4
 50
351.209861
  7
ROMANS
 72
     1
 11
908953.580598
 21
7260488.130481
 31
0.0
210
0.0
220
0.0
230
1.0
  0
TEXT
  8
11
  6
CONTINUOUS
 62
     7
  5
18D
 10
908959.119
 20
7260487.156
 30
0.0
 40
8.0
  1
0
 50
344.726717
  7
ROMANS
 72
     1
 11
908961.676368
 21
7260486.457665
 31
0.0
210
0.0
220
0.0
230
1.0
  0
TEXT
  8
11
  6
CONTINUOUS
 62
     7
  5
18E
 10
908968.532
 20
7260484.112
 30
0.0
 40
8.0
  1
'
 50
332.577903
  7
ROMANS
 72
     1
 11
908969.715221
 21
7260483.498097
 31
0.0
210
0.0
220
0.0
230
1.0
  0
TEXT
  8
11
  6
CONTINUOUS
 62
     7
  5
18F
 10
908982.811
 20
7260474.767
 30
0.0
 40
8.0
  1
6
 50
313.950047
  7
ROMANS
 72
     1
 11
908984.559958
 21
7260472.952738
 31
0.0
210
0.0
220
0.0
230
1.0
  0
TEXT
  8
11
  6
CONTINUOUS
 62
     7
  5
190
 10
908988.471
 20
7260468.571
 30
0.0
 40
8.0
  1
6
 50
307.466906
  7
ROMANS
 72
     1
 11
908990.003924
 21
7260466.570864
 31
0.0
210
0.0
220
0.0
230
1.0
  0
TEXT
  8
11
  6
CONTINUOUS
 62
     7
  5
191
 10
908993.928
 20
7260460.392
 30
0.0
 40
8.0
  1
.
 50
294.500622
  7
ROMANS
 72
     1
 11
908994.476238
 21
7260459.189037
 31
0.0
210
0.0
220
0.0
230
1.0
  0
TEXT
  8
11
  6
CONTINUOUS
 62
     7
  5
192
 10
908996.716
 20
7260454.061
 30
0.0
 40
8.0
  1
0
 50
288.017481
  7
ROMANS
 72
     1
 11
908997.535973
 21
7260451.539999
 31
0.0
210
0.0
220
0.0
230
1.0
  0
TEXT
  8
11
  6
CONTINUOUS
 62
     7
  5
193
 10
908999.004
 20
7260445.791
 30
0.0
 40
8.0
  1
4
 50
281.534336
  7
ROMANS
 72
     1
 11
908999.470495
 21
7260443.505115
 31
0.0
210
0.0
220
0.0
230
1.0
  0
TEXT
  8
11
  6
CONTINUOUS
 62
     7
  5
194
 10
909000.029
 20
7260436.244
 30
0.0
 40
8.0
  1
'
 50
268.568053
  7
ROMANS
 72
     1
 11
908999.995689
 21
7260434.911416
 31
0.0
210
0.0
220
0.0
230
1.0
  0
TEXT
  8
11
  6
CONTINUOUS
 62
     7
  5
195
 10
909178.388
 20
7260625.641
 30
0.0
 40
8.0
  1
5
 50
82.013347
  7
ROMANS
 72
     1
 11
909178.713681
 21
7260627.962264
 31
0.0
210
0.0
220
0.0
230
1.0
  0
TEXT
  8
11
  6
CONTINUOUS
 62
     7
  5
196
 10
909179.707
 20
7260634.124
 30
0.0
 40
8.0
  1
7
 50
75.530203
  7
ROMANS
 72
     1
 11
909180.289946
 21
7260636.382996
 31
0.0
210
0.0
220
0.0
230
1.0
  0
TEXT
  8
11
  6
CONTINUOUS
 62
     7
  5
197
 10
909182.514
 20
7260642.992
 30
0.0
 40
8.0
  1
.
 50
69.047061
  7
ROMANS
 72
     1
 11
909182.986749
 21
7260644.226582
 31
0.0
210
0.0
220
0.0
230
1.0
  0
TEXT
  8
11
  6
CONTINUOUS
 62
     7
  5
198
 10
909185.851
 20
7260649.785
 30
0.0
 40
8.0
  1
4
 50
56.080778
  7
ROMANS
 72
     1
 11
909187.152869
 21
7260651.720982
 31
0.0
210
0.0
220
0.0
230
1.0
  0
TEXT
  8
11
  6
CONTINUOUS
 62
     7
  5
199
 10
909191.334
 20
7260657.262
 30
0.0
 40
8.0
  1
1
 50
49.597636
  7
ROMANS
 72
     1
 11
909192.197986
 21
7260658.277095
 31
0.0
210
0.0
220
0.0
230
1.0
  0
TEXT
  8
11
  6
CONTINUOUS
 62
     7
  5
19A
 10
909197.403
 20
7260663.361
 30
0.0
 40
8.0
  1
'
 50
36.631353
  7
ROMANS
 72
     1
 11
909198.472721
 21
7260664.156353
 31
0.0
210
0.0
220
0.0
230
1.0
  0
TEXT
  8
11
  6
CONTINUOUS
 62
     7
  5
19B
 10
909215.754
 20
7260673.256
 30
0.0
 40
8.0
  1
5
 50
17.190986
  7
ROMANS
 72
     1
 11
909217.993281
 21
7260673.948787
 31
0.0
210
0.0
220
0.0
230
1.0
  0
TEXT
  8
11
  6
CONTINUOUS
 62
     7
  5
19C
 10
909224.447
 20
7260675.258
 30
0.0
 40
8.0
  1
7
 50
4.224703
  7
ROMANS
 72
     1
 11
909226.773661
 21
7260675.429868
 31
0.0
210
0.0
220
0.0
230
1.0
  0
TEXT
  8
11
  6
CONTINUOUS
 62
     7
  5
19D
 10
909233.744
 20
7260675.578
 30
0.0
 40
8.0
  1
.
 50
357.741561
  7
ROMANS
 72
     1
 11
909235.064973
 21
7260675.525904
 31
0.0
210
0.0
220
0.0
230
1.0
  0
TEXT
  8
11
  6
CONTINUOUS
 62
     7
  5
19E
 10
909241.29
 20
7260674.867
 30
0.0
 40
8.0
  1
9
 50
344.775275
  7
ROMANS
 72
     1
 11
909243.541119
 21
7260674.254341
 31
0.0
210
0.0
220
0.0
230
1.0
  0
TEXT
  8
11
  6
CONTINUOUS
 62
     7
  5
19F
 10
909250.173
 20
7260672.201
 30
0.0
 40
8.0
  1
1
 50
338.292133
  7
ROMANS
 72
     1
 11
909251.411466
 21
7260671.707958
 31
0.0
210
0.0
220
0.0
230
1.0
  0
TEXT
  8
11
  6
CONTINUOUS
 62
     7
  5
1A0
 10
909257.654
 20
7260668.69
 30
0.0
 40
8.0
  1
'
 50
331.808992
  7
ROMANS
 72
     1
 11
909258.828876
 21
7260668.060274
 31
0.0
210
0.0
220
0.0
230
1.0
  0
TEXT
  8
11
  6
CONTINUOUS
 62
     7
  5
1A1
 10
909275.121
 20
7260652.866
 30
0.0
 40
8.0
  1
7
 50
299.9404
  7
ROMANS
 72
     1
 11
909276.285398
 21
7260650.84435
 31
0.0
210
0.0
220
0.0
230
1.0
  0
TEXT
  8
11
  6
CONTINUOUS
 62
     7
  5
1A2
 10
909279.205
 20
7260645.531
 30
0.0
 40
8.0
  1
6
 50
293.457258
  7
ROMANS
 72
     1
 11
909280.208123
 21
7260643.21926
 31
0.0
210
0.0
220
0.0
230
1.0
  0
TEXT
  8
11
  6
CONTINUOUS
 62
     7
  5
1A3
 10
909282.718
 20
7260636.335
 30
0.0
 40
8.0
  1
.
 50
280.490975
  7
ROMANS
 72
     1
 11
909282.958711
 21
7260635.035099
 31
0.0
210
0.0
220
0.0
230
1.0
  0
TEXT
  8
11
  6
CONTINUOUS
 62
     7
  5
1A4
 10
909284.014
 20
7260629.215
 30
0.0
 40
8.0
  1
8
 50
274.007831
  7
ROMANS
 72
     1
 11
909284.17706
 21
7260626.887705
 31
0.0
210
0.0
220
0.0
230
1.0
  0
TEXT
  8
11
  6
CONTINUOUS
 62
     7
  5
1A5
 10
909284.315
 20
7260620.954
 30
0.0
 40
8.0
  1
7
 50
267.524689
  7
ROMANS
 72
     1
 11
909284.21424
 21
7260618.623177
 31
0.0
210
0.0
220
0.0
230
1.0
  0
TEXT
  8
11
  6
CONTINUOUS
 62
     7
  5
1A6
 10
909283.202
 20
7260611.41
 30
0.0
 40
8.0
  1
'
 50
254.558406
  7
ROMANS
 72
     1
 11
909282.847081
 21
7260610.125118
 31
0.0
210
0.0
220
0.0
230
1.0
  0
TEXT
  8
11
  6
CONTINUOUS
 62
     7
  5
1A7
 10
908867.315
 20
7260312.599
 30
0.0
 40
8.0
  1
145.98'
 50
16.453131
  7
ROMANS
 72
     1
 11
908891.610658
 21
7260319.774089
 31
0.0
210
0.0
220
0.0
230
1.0
  0
TEXT
  8
11
  6
CONTINUOUS
 62
     7
  5
1A8
 10
908835.326
 20
7260376.14
 30
0.0
 40
8.0
  1
120.56'
 50
16.453294
  7
ROMANS
 72
     1
 11
908859.621637
 21
7260383.315158
 31
0.0
210
0.0
220
0.0
230
1.0
  0
TEXT
  8
11
  6
CONTINUOUS
 62
     7
  5
1A9
 10
909064.141
 20
7260379.688
 30
0.0
 40
8.0
  1
124.13'
 50
28.628342
  7
ROMANS
 72
     1
 11
909086.376941
 21
7260391.825701
 31
0.0
210
0.0
220
0.0
230
1.0
  0
TEXT
  8
11
  6
CONTINUOUS
 62
     7
  5
1AA
 10
909042.595
 20
7260441.745
 30
0.0
 40
8.0
  1
130'
 50
30.618647
  7
ROMANS
 72
     1
 11
909054.069064
 21
7260448.535784
 31
0.0
210
0.0
220
0.0
230
1.0
  0
TEXT
  8
11
  6
CONTINUOUS
 62
     7
  5
1AB
 10
908996.317
 20
7260496.86
 30
0.0
 40
8.0
  1
116.50'
 50
30.618875
  7
ROMANS
 72
     1
 11
909018.117928
 21
7260509.762729
 31
0.0
210
0.0
220
0.0
230
1.0
  0
TEXT
  8
11
  6
CONTINUOUS
 62
     7
  5
1AC
 10
909107.342
 20
7260565.0
 30
0.0
 40
8.0
  1
132.37'
 50
33.348131
  7
ROMANS
 72
     1
 11
909128.503817
 21
7260578.926177
 31
0.0
210
0.0
220
0.0
230
1.0
  0
TEXT
  8
11
  6
CONTINUOUS
 62
     7
  5
1AD
 10
909170.205
 20
7260448.351
 30
0.0
 40
8.0
  1
130.15'
 50
33.347578
  7
ROMANS
 72
     1
 11
909191.366951
 21
7260462.276972
 31
0.0
210
0.0
220
0.0
230
1.0
  0
TEXT
  8
11
  6
CONTINUOUS
 62
     7
  5
1AE
 10
909138.03
 20
7260507.388
 30
0.0
 40
8.0
  1
130.15'
 50
33.347578
  7
ROMANS
 72
     1
 11
909159.191951
 21
7260521.313972
 31
0.0
210
0.0
220
0.0
230
1.0
  0
TEXT
  8
11
  6
CONTINUOUS
 62
     7
  5
1AF
 10
909331.2
 20
7260547.46
 30
0.0
 40
8.0
  1
125.50'
 50
27.102197
  7
ROMANS
 72
     1
 11
909353.751318
 21
7260559.001184
 31
0.0
210
0.0
220
0.0
230
1.0
  0
TEXT
  8
11
  6
CONTINUOUS
 62
     7
  5
1B0
 10
909309.039
 20
7260612.505
 30
0.0
 40
8.0
  1
139.36'
 50
28.038119
  7
ROMANS
 72
     1
 11
909331.398794
 21
7260624.413002
 31
0.0
210
0.0
220
0.0
230
1.0
  0
TEXT
  8
11
  6
CONTINUOUS
 62
     7
  5
1B1
 10
909283.884
 20
7260677.642
 30
0.0
 40
8.0
  1
116.95'
 50
28.075008
  7
ROMANS
 72
     1
 11
909306.236122
 21
7260689.564395
 31
0.0
210
0.0
220
0.0
230
1.0
  0
TEXT
  8
11
  6
CONTINUOUS
 62
     7
  5
1B2
 10
909445.39
 20
7260596.997
 30
0.0
 40
8.0
  1
126.20'
 50
14.629075
  7
ROMANS
 72
     1
 11
909469.901733
 21
7260603.395112
 31
0.0
210
0.0
220
0.0
230
1.0
  0
TEXT
  8
11
  6
CONTINUOUS
 62
     7
  5
1B3
 10
909429.982
 20
7260658.916
 30
0.0
 40
8.0
  1
139.54'
 50
17.129208
  7
ROMANS
 72
     1
 11
909454.191304
 21
7260666.377266
 31
0.0
210
0.0
220
0.0
230
1.0
  0
TEXT
  8
11
  6
CONTINUOUS
 62
     7
  5
1B4
 10
909419.673
 20
7260717.305
 30
0.0
 40
8.0
  1
152.21'
 50
19.62935
  7
ROMANS
 72
     1
 11
909443.533785
 21
7260725.815219
 31
0.0
210
0.0
220
0.0
230
1.0
  0
TEXT
  8
11
  6
CONTINUOUS
 62
     7
  5
1B5
 10
909410.844
 20
7260771.282
 30
0.0
 40
8.0
  1
164.29'
 50
22.129222
  7
ROMANS
 72
     1
 11
909434.310886
 21
7260780.824859
 31
0.0
210
0.0
220
0.0
230
1.0
  0
TEXT
  8
11
  6
CONTINUOUS
 62
     7
  5
1B6
 10
909635.806
 20
7260905.627
 30
0.0
 40
8.0
  1
159'
 50
22.928353
  7
ROMANS
 72
     1
 11
909648.085596
 21
7260910.821267
 31
0.0
210
0.0
220
0.0
230
1.0
  0
TEXT
  8
11
  6
CONTINUOUS
 62
     7
  5
1B7
 10
909635.778
 20
7260841.687
 30
0.0
 40
8.0
  1
125.31'
 50
17.428203
  7
ROMANS
 72
     1
 11
909659.948038
 21
7260849.274499
 31
0.0
210
0.0
220
0.0
230
1.0
  0
TEXT
  8
11
  6
CONTINUOUS
 62
     7
  5
1B8
 10
909624.655
 20
7260770.563
 30
0.0
 40
8.0
  1
149.32'
 50
11.928314
  7
ROMANS
 72
     1
 11
909649.440984
 21
7260775.79902
 31
0.0
210
0.0
220
0.0
230
1.0
  0
TEXT
  8
11
  6
CONTINUOUS
 62
     7
  5
1B9
 10
909628.458
 20
7260700.995
 30
0.0
 40
8.0
  1
135.86'
 50
6.428311
  7
ROMANS
 72
     1
 11
909653.631724
 21
7260703.831282
 31
0.0
210
0.0
220
0.0
230
1.0
  0
TEXT
  8
11
  6
CONTINUOUS
 62
     7
  5
1BA
 10
909630.489
 20
7260628.362
 30
0.0
 40
8.0
  1
123.33'
 50
0.928578
  7
ROMANS
 72
     1
 11
909655.818673
 21
7260628.772547
 31
0.0
210
0.0
220
0.0
230
1.0
  0
TEXT
  8
11
  6
CONTINUOUS
 62
     7
  5
1BB
 10
909641.199
 20
7260549.64
 30
0.0
 40
8.0
  1
71.07'
 50
1.002078
  7
ROMANS
 72
     1
 11
909662.528737
 21
7260550.013086
 31
0.0
210
0.0
220
0.0
230
1.0
  0
TEXT
  8
11
  6
CONTINUOUS
 62
     7
  5
1BC
 10
909844.148
 20
7260745.762
 30
0.0
 40
8.0
  1
281.56'
 50
358.235497
  7
ROMANS
 72
     1
 11
909869.468988
 21
7260744.981959
 31
0.0
210
0.0
220
0.0
230
1.0
  0
TEXT
  8
11
  6
CONTINUOUS
 62
     7
  5
1BD
 10
909855.201
 20
7260940.513
 30
0.0
 40
8.0
  1
281.60'
 50
358.2355
  7
ROMANS
 72
     1
 11
909880.521988
 21
7260939.73296
 31
0.0
210
0.0
220
0.0
230
1.0
  0
TEXT
  8
11
  6
CONTINUOUS
 62
     7
  5
1BE
 10
908762.83
 20
7260509.106
 30
0.0
 40
8.0
  1
50'
 50
303.347664
  7
ROMANS
 72
     1
 11
908767.960517
 21
7260501.309675
 31
0.0
210
0.0
220
0.0
230
1.0
  0
TEXT
  8
11
  6
CONTINUOUS
 62
     7
  5
1BF
 10
908790.245
 20
7260467.448
 30
0.0
 40
8.0
  1
50'
 50
303.347664
  7
ROMANS
 72
     1
 11
908795.375517
 21
7260459.651675
 31
0.0
210
0.0
220
0.0
230
1.0
  0
TEXT
  8
11
  6
CONTINUOUS
 62
     7
  5
1C0
 10
908780.345
 20
7260408.79
 30
0.0
 40
8.0
  1
60.57'
 50
296.453803
  7
ROMANS
 72
     1
 11
908789.848341
 21
7260389.690697
 31
0.0
210
0.0
220
0.0
230
1.0
  0
TEXT
  8
11
  6
CONTINUOUS
 62
     7
  5
1C1
 10
908809.298
 20
7260350.603
 30
0.0
 40
8.0
  1
71.08'
 50
296.453686
  7
ROMANS
 72
     1
 11
908818.801303
 21
7260331.503677
 31
0.0
210
0.0
220
0.0
230
1.0
  0
TEXT
  8
11
  6
CONTINUOUS
 62
     7
  5
1C2
 10
908839.19
 20
7260290.527
 30
0.0
 40
8.0
  1
71.08'
 50
296.453686
  7
ROMANS
 72
     1
 11
908848.693303
 21
7260271.427677
 31
0.0
210
0.0
220
0.0
230
1.0
  0
TEXT
  8
11
  6
CONTINUOUS
 62
     7
  5
1C3
 10
909037.394
 20
7260575.527
 30
0.0
 40
8.0
  1
63.07'
 50
300.618636
  7
ROMANS
 72
     1
 11
909055.143964
 21
7260561.242894
 31
0.0
210
0.0
220
0.0
230
1.0
 73
     3
  0
TEXT
  8
11
  6
CONTINUOUS
 62
     7
  5
1C4
 10
909047.726
 20
7260585.558
 30
0.0
 40
8.0
  1
63.07'
 50
300.618636
  7
ROMANS
 72
     1
 11
909058.591352
 21
7260567.199323
 31
0.0
210
0.0
220
0.0
230
1.0
  0
TEXT
  8
11
  6
CONTINUOUS
 62
     7
  5
1C5
 10
909074.119
 20
7260513.475
 30
0.0
 40
8.0
  1
71'
 50
300.619075
  7
ROMANS
 72
     1
 11
909085.757138
 21
7260509.5179
 31
0.0
210
0.0
220
0.0
230
1.0
 73
     3
  0
TEXT
  8
11
  6
CONTINUOUS
 62
     7
  5
1C6
 10
909104.095
 20
7260462.827
 30
0.0
 40
8.0
  1
67.43'
 50
300.619356
  7
ROMANS
 72
     1
 11
909121.845143
 21
7260448.543117
 31
0.0
210
0.0
220
0.0
230
1.0
 73
     3
  0
TEXT
  8
11
  6
CONTINUOUS
 62
     7
  5
1C7
 10
909138.533
 20
7260404.639
 30
0.0
 40
8.0
  1
67.65'
 50
300.618886
  7
ROMANS
 72
     1
 11
909156.283026
 21
7260390.354972
 31
0.0
210
0.0
220
0.0
230
1.0
 73
     3
  0
TEXT
  8
11
  6
CONTINUOUS
 62
     7
  5
1C8
 10
909149.666
 20
7260413.316
 30
0.0
 40
8.0
  1
73.93'
 50
300.618886
  7
ROMANS
 72
     1
 11
909160.531433
 21
7260394.957371
 31
0.0
210
0.0
220
0.0
230
1.0
  0
TEXT
  8
11
  6
CONTINUOUS
 62
     7
  5
1C9
 10
909115.113
 20
7260471.696
 30
0.0
 40
8.0
  1
67.08'
 50
300.619356
  7
ROMANS
 72
     1
 11
909125.978583
 21
7260453.33746
 31
0.0
210
0.0
220
0.0
230
1.0
  0
TEXT
  8
11
  6
CONTINUOUS
 62
     7
  5
1CA
 10
909080.906
 20
7260529.495
 30
0.0
 40
8.0
  1
65.07'
 50
300.619075
  7
ROMANS
 72
     1
 11
909091.771493
 21
7260511.136407
 31
0.0
210
0.0
220
0.0
230
1.0
  0
TEXT
  8
11
  6
CONTINUOUS
 62
     7
  5
1CB
 10
909275.362
 20
7260573.984
 30
0.0
 40
8.0
  1
67.28'
 50
300.621967
  7
ROMANS
 72
     1
 11
909286.22842
 21
7260555.625955
 31
0.0
210
0.0
220
0.0
230
1.0
  0
TEXT
  8
11
  6
CONTINUOUS
 62
     7
  5
1CC
 10
909309.458
 20
7260516.378
 30
0.0
 40
8.0
  1
58.76'
 50
300.618733
  7
ROMANS
 72
     1
 11
909320.323893
 21
7260498.018481
 31
0.0
210
0.0
220
0.0
230
1.0
  0
TEXT
  8
11
  6
CONTINUOUS
 62
     7
  5
1CD
 10
909243.124
 20
7260483.162
 30
0.0
 40
8.0
  1
57.51'
 50
300.618414
  7
ROMANS
 72
     1
 11
909260.873908
 21
7260468.877825
 31
0.0
210
0.0
220
0.0
230
1.0
 73
     3
  0
TEXT
  8
11
  6
CONTINUOUS
 62
     7
  5
1CE
 10
909208.458
 20
7260541.735
 30
0.0
 40
8.0
  1
67.08'
 50
300.618711
  7
ROMANS
 72
     1
 11
909226.207982
 21
7260527.450918
 31
0.0
210
0.0
220
0.0
230
1.0
 73
     3
  0
TEXT
  8
11
  6
CONTINUOUS
 62
     7
  5
1CF
 10
909179.741
 20
7260590.257
 30
0.0
 40
8.0
  1
50.44'
 50
300.618925
  7
ROMANS
 72
     1
 11
909197.491036
 21
7260575.972984
 31
0.0
210
0.0
220
0.0
230
1.0
 73
     3
  0
TEXT
  8
11
  6
CONTINUOUS
 62
     7
  5
1D0
 10
908824.264
 20
7260437.367
 30
0.0
 40
8.0
  1
155.73'
 50
33.348828
  7
ROMANS
 72
     1
 11
908841.027768
 21
7260457.976148
 31
0.0
210
0.0
220
0.0
230
1.0
 73
     3
  0
TEXT
  8
11
  6
CONTINUOUS
 62
     7
  5
1D1
 10
908964.903
 20
7260529.921
 30
0.0
 40
8.0
  1
164'
 50
33.347781
  7
ROMANS
 72
     1
 11
908971.642954
 21
7260543.933206
 31
0.0
210
0.0
220
0.0
230
1.0
 73
     3
  0
TEXT
  8
11
  6
CONTINUOUS
 62
     7
  5
1D2
 10
909088.522
 20
7260611.272
 30
0.0
 40
8.0
  1
176.35'
 50
33.347903
  7
ROMANS
 72
     1
 11
909105.286101
 21
7260631.880877
 31
0.0
210
0.0
220
0.0
230
1.0
 73
     3
  0
TEXT
  8
11
  6
CONTINUOUS
 62
     7
  5
1D3
 10
909248.302
 20
7260716.419
 30
0.0
 40
8.0
  1
182.49'
 50
33.347931
  7
ROMANS
 72
     1
 11
909265.066926
 21
7260737.028435
 31
0.0
210
0.0
220
0.0
230
1.0
 73
     3
  0
TEXT
  8
11
  6
CONTINUOUS
 62
     7
  5
1D4
 10
909122.059
 20
7260753.05
 30
0.0
 40
8.0
  1
1071.87'
 50
33.347842
  7
ROMANS
 72
     1
 11
909142.165353
 21
7260775.858291
 31
0.0
210
0.0
220
0.0
230
1.0
 73
     3
  0
TEXT
  8
11
  6
CONTINUOUS
 62
     7
  5
1D5
 10
909138.015
 20
7260703.694
 30
0.0
 40
8.0
  1
1071.87'
 50
33.347842
  7
ROMANS
 72
     1
 11
909158.121353
 21
7260726.502291
 31
0.0
210
0.0
220
0.0
230
1.0
 73
     3
  0
TEXT
  8
11
  6
CONTINUOUS
 62
     7
  5
1D6
 10
909174.977
 20
7260684.924
 30
0.0
 40
8.0
  1
1436.82'
 50
33.347931
  7
ROMANS
 72
     1
 11
909199.481092
 21
7260701.04954
 31
0.0
210
0.0
220
0.0
230
1.0
  0
TEXT
  8
11
  6
CONTINUOUS
 62
     7
  5
1D7
 10
909343.961
 20
7260787.127
 30
0.0
 40
8.0
  1
46.99'
 50
289.1402
  7
ROMANS
 72
     1
 11
909350.955681
 21
7260766.973308
 31
0.0
210
0.0
220
0.0
230
1.0
  0
TEXT
  8
11
  6
CONTINUOUS
 62
     7
  5
1D8
 10
909360.097
 20
7260740.633
 30
0.0
 40
8.0
  1
51.14'
 50
289.140525
  7
ROMANS
 72
     1
 11
909367.091796
 21
7260720.479347
 31
0.0
210
0.0
220
0.0
230
1.0
  0
TEXT
  8
11
  6
CONTINUOUS
 62
     7
  5
1D9
 10
909377.554
 20
7260690.336
 30
0.0
 40
8.0
  1
56.62'
 50
289.140783
  7
ROMANS
 72
     1
 11
909384.548887
 21
7260670.182379
 31
0.0
210
0.0
220
0.0
230
1.0
  0
TEXT
  8
11
  6
CONTINUOUS
 62
     7
  5
1DA
 10
909397.996
 20
7260631.438
 30
0.0
 40
8.0
  1
62.16'
 50
289.140781
  7
ROMANS
 72
     1
 11
909404.990886
 21
7260611.284378
 31
0.0
210
0.0
220
0.0
230
1.0
  0
TEXT
  8
11
  6
CONTINUOUS
 62
     7
  5
1DB
 10
909420.783
 20
7260565.783
 30
0.0
 40
8.0
  1
80.25'
 50
289.140239
  7
ROMANS
 72
     1
 11
909427.777695
 21
7260545.629312
 31
0.0
210
0.0
220
0.0
230
1.0
  0
TEXT
  8
11
  6
CONTINUOUS
 62
     7
  5
1DC
 10
909598.323
 20
7260605.442
 30
0.0
 40
8.0
  1
66.33'
 50
278.112183
  7
ROMANS
 72
     1
 11
909601.333478
 21
7260584.321475
 31
0.0
210
0.0
220
0.0
230
1.0
  0
TEXT
  8
11
  6
CONTINUOUS
 62
     7
  5
1DD
 10
909588.386
 20
7260678.131
 30
0.0
 40
8.0
  1
68.76'
 50
277.662122
  7
ROMANS
 72
     1
 11
909591.230351
 21
7260656.98847
 31
0.0
210
0.0
220
0.0
230
1.0
  0
TEXT
  8
11
  6
CONTINUOUS
 62
     7
  5
1DE
 10
909579.333
 20
7260745.419
 30
0.0
 40
8.0
  1
64.63'
 50
277.662247
  7
ROMANS
 72
     1
 11
909582.177397
 21
7260724.276477
 31
0.0
210
0.0
220
0.0
230
1.0
  0
TEXT
  8
11
  6
CONTINUOUS
 62
     7
  5
1DF
 10
909727.467
 20
7260646.3
 30
0.0
 40
8.0
  1
200'
 50
88.223464
  7
ROMANS
 72
     1
 11
909719.884187
 21
7260659.874603
 31
0.0
210
0.0
220
0.0
230
1.0
 73
     3
  0
TEXT
  8
11
  6
CONTINUOUS
 62
     7
  5
1E0
 10
909334.841
 20
7260770.707
 30
0.0
 40
8.0
  1
76.58'
 50
289.1402
  7
ROMANS
 72
     1
 11
909349.393434
 21
7260753.176354
 31
0.0
210
0.0
220
0.0
230
1.0
 73
     3
  0
TEXT
  8
11
  6
CONTINUOUS
 62
     7
  5
1E1
 10
909359.341
 20
7260700.117
 30
0.0
 40
8.0
  1
70.22'
 50
289.140783
  7
ROMANS
 72
     1
 11
909373.893613
 21
7260682.586502
 31
0.0
210
0.0
220
0.0
230
1.0
 73
     3
  0
TEXT
  8
11
  6
CONTINUOUS
 62
     7
  5
1E2
 10
909382.226
 20
7260634.178
 30
0.0
 40
8.0
  1
70.11'
 50
289.140781
  7
ROMANS
 72
     1
 11
909396.778612
 21
7260616.647502
 31
0.0
210
0.0
220
0.0
230
1.0
 73
     3
  0
TEXT
  8
11
  6
CONTINUOUS
 62
     7
  5
1E3
 10
909406.432
 20
7260564.437
 30
0.0
 40
8.0
  1
80.25'
 50
289.140239
  7
ROMANS
 72
     1
 11
909420.984446
 21
7260546.906364
 31
0.0
210
0.0
220
0.0
230
1.0
 73
     3
  0
TEXT
  8
11
  6
CONTINUOUS
 62
     7
  5
1E4
 10
909497.847
 20
7260796.142
 30
0.0
 40
8.0
  1
39.60'
 50
277.660831
  7
ROMANS
 72
     1
 11
909508.619471
 21
7260776.065876
 31
0.0
210
0.0
220
0.0
230
1.0
 73
     3
  0
TEXT
  8
11
  6
CONTINUOUS
 62
     7
  5
1E5
 10
909506.671
 20
7260730.55
 30
0.0
 40
8.0
  1
64.09'
 50
277.665378
  7
ROMANS
 72
     1
 11
909517.445064
 21
7260710.474731
 31
0.0
210
0.0
220
0.0
230
1.0
 73
     3
  0
TEXT
  8
11
  6
CONTINUOUS
 62
     7
  5
1E6
 10
909514.763
 20
7260670.418
 30
0.0
 40
8.0
  1
68.56'
 50
277.661347
  7
ROMANS
 72
     1
 11
909525.535652
 21
7260650.341973
 31
0.0
210
0.0
220
0.0
230
1.0
 73
     3
  0
TEXT
  8
11
  6
CONTINUOUS
 62
     7
  5
1E7
 10
909524.044
 20
7260601.434
 30
0.0
 40
8.0
  1
66.37'
 50
277.662319
  7
ROMANS
 72
     1
 11
909534.816992
 21
7260581.358156
 31
0.0
210
0.0
220
0.0
230
1.0
 73
     3
  0
TEXT
  8
11
  6
CONTINUOUS
 62
     7
  5
1E8
 10
909501.731
 20
7260842.313
 30
0.0
 40
8.0
  1
5
 50
81.976564
  7
ROMANS
 72
     1
 11
909502.058171
 21
7260844.634055
 31
0.0
210
0.0
220
0.0
230
1.0
  0
TEXT
  8
11
  6
CONTINUOUS
 62
     7
  5
1E9
 10
909503.592
 20
7260851.037
 30
0.0
 40
8.0
  1
3
 50
69.010278
  7
ROMANS
 72
     1
 11
909504.427682
 21
7260853.215193
 31
0.0
210
0.0
220
0.0
230
1.0
  0
TEXT
  8
11
  6
CONTINUOUS
 62
     7
  5
1EA
 10
909507.248
 20
7260859.592
 30
0.0
 40
8.0
  1
.
 50
62.527136
  7
ROMANS
 72
     1
 11
909507.857876
 21
7260860.764917
 31
0.0
210
0.0
220
0.0
230
1.0
  0
TEXT
  8
11
  6
CONTINUOUS
 62
     7
  5
1EB
 10
909511.08
 20
7260866.134
 30
0.0
 40
8.0
  1
2
 50
49.560853
  7
ROMANS
 72
     1
 11
909512.593277
 21
7260867.909635
 31
0.0
210
0.0
220
0.0
230
1.0
  0
TEXT
  8
11
  6
CONTINUOUS
 62
     7
  5
1EC
 10
909516.528
 20
7260872.359
 30
0.0
 40
8.0
  1
2
 50
43.077711
  7
ROMANS
 72
     1
 11
909518.232089
 21
7260873.952415
 31
0.0
210
0.0
220
0.0
230
1.0
  0
TEXT
  8
11
  6
CONTINUOUS
 62
     7
  5
1ED
 10
909523.617
 20
7260878.33
 30
0.0
 40
8.0
  1
'
 50
36.594569
  7
ROMANS
 72
     1
 11
909524.687231
 21
7260879.124666
 31
0.0
210
0.0
220
0.0
230
1.0
  0
TEXT
  8
11
  6
CONTINUOUS
 62
     7
  5
1EE
 10
909533.646
 20
7260884.147
 30
0.0
 40
8.0
  1
5
 50
17.144961
  7
ROMANS
 72
     1
 11
909535.885837
 21
7260884.837988
 31
0.0
210
0.0
220
0.0
230
1.0
  0
TEXT
  8
11
  6
CONTINUOUS
 62
     7
  5
1EF
 10
909541.868
 20
7260886.628
 30
0.0
 40
8.0
  1
2
 50
10.661819
  7
ROMANS
 72
     1
 11
909544.160724
 21
7260887.059632
 31
0.0
210
0.0
220
0.0
230
1.0
  0
TEXT
  8
11
  6
CONTINUOUS
 62
     7
  5
1F0
 10
909551.078
 20
7260887.929
 30
0.0
 40
8.0
  1
.
 50
4.178678
  7
ROMANS
 72
     1
 11
909552.396486
 21
7260888.02533
 31
0.0
210
0.0
220
0.0
230
1.0
  0
TEXT
  8
11
  6
CONTINUOUS
 62
     7
  5
1F1
 10
909558.652
 20
7260887.947
 30
0.0
 40
8.0
  1
5
 50
351.212394
  7
ROMANS
 72
     1
 11
909560.968485
 21
7260887.588902
 31
0.0
210
0.0
220
0.0
230
1.0
  0
TEXT
  8
11
  6
CONTINUOUS
 62
     7
  5
1F2
 10
909566.488
 20
7260886.584
 30
0.0
 40
8.0
  1
0
 50
344.72925
  7
ROMANS
 72
     1
 11
909569.045398
 21
7260885.885778
 31
0.0
210
0.0
220
0.0
230
1.0
  0
TEXT
  8
11
  6
CONTINUOUS
 62
     7
  5
1F3
 10
909575.882
 20
7260883.481
 30
0.0
 40
8.0
  1
'
 50
332.510817
  7
ROMANS
 72
     1
 11
909577.064502
 21
7260882.865712
 31
0.0
210
0.0
220
0.0
230
1.0
  0
TEXT
  8
11
  6
CONTINUOUS
 62
     7
  5
1F4
 10
909589.351
 20
7260874.851
 30
0.0
 40
8.0
  1
5
 50
313.810533
  7
ROMANS
 72
     1
 11
909590.973695
 21
7260873.159492
 31
0.0
210
0.0
220
0.0
230
1.0
  0
TEXT
  8
11
  6
CONTINUOUS
 62
     7
  5
1F5
 10
909595.19
 20
7260868.557
 30
0.0
 40
8.0
  1
5
 50
307.327392
  7
ROMANS
 72
     1
 11
909596.611328
 21
7260866.693089
 31
0.0
210
0.0
220
0.0
230
1.0
  0
TEXT
  8
11
  6
CONTINUOUS
 62
     7
  5
1F6
 10
909600.689
 20
7260860.623
 30
0.0
 40
8.0
  1
.
 50
294.361108
  7
ROMANS
 72
     1
 11
909601.234307
 21
7260859.418706
 31
0.0
210
0.0
220
0.0
230
1.0
  0
TEXT
  8
11
  6
CONTINUOUS
 62
     7
  5
1F7
 10
909603.599
 20
7260854.203
 30
0.0
 40
8.0
  1
6
 50
287.877967
  7
ROMANS
 72
     1
 11
909604.372616
 21
7260851.804684
 31
0.0
210
0.0
220
0.0
230
1.0
  0
TEXT
  8
11
  6
CONTINUOUS
 62
     7
  5
1F8
 10
909605.928
 20
7260846.075
 30
0.0
 40
8.0
  1
4
 50
281.394822
  7
ROMANS
 72
     1
 11
909606.388928
 21
7260843.787986
 31
0.0
210
0.0
220
0.0
230
1.0
  0
TEXT
  8
11
  6
CONTINUOUS
 62
     7
  5
1F9
 10
909607.137
 20
7260836.542
 30
0.0
 40
8.0
  1
'
 50
268.428539
  7
ROMANS
 72
     1
 11
909607.100444
 21
7260835.209501
 31
0.0
210
0.0
220
0.0
230
1.0
  0
TEXT
  8
11
  6
CONTINUOUS
 62
     7
  5
1FA
 10
909585.025
 20
7260782.453
 30
0.0
 40
8.0
  1
5
 50
33.768975
  7
ROMANS
 72
     1
 11
909582.526769
 21
7260790.406187
 31
0.0
210
0.0
220
0.0
230
1.0
 73
     3
  0
TEXT
  8
11
  6
CONTINUOUS
 62
     7
  5
1FB
 10
909592.754
 20
7260787.953
 30
0.0
 40
8.0
  1
2
 50
40.252119
  7
ROMANS
 72
     1
 11
909589.365348
 21
7260795.566142
 31
0.0
210
0.0
220
0.0
230
1.0
 73
     3
  0
TEXT
  8
11
  6
CONTINUOUS
 62
     7
  5
1FC
 10
909600.952
 20
7260795.947
 30
0.0
 40
8.0
  1
.
 50
53.218403
  7
ROMANS
 72
     1
 11
909595.336179
 21
7260801.795952
 31
0.0
210
0.0
220
0.0
230
1.0
 73
     3
  0
TEXT
  8
11
  6
CONTINUOUS
 62
     7
  5
1FD
 10
909605.7
 20
7260802.554
 30
0.0
 40
8.0
  1
4
 50
59.701544
  7
ROMANS
 72
     1
 11
909599.969735
 21
7260808.604368
 31
0.0
210
0.0
220
0.0
230
1.0
 73
     3
  0
TEXT
  8
11
  6
CONTINUOUS
 62
     7
  5
1FE
 10
909609.839
 20
7260810.381
 30
0.0
 40
8.0
  1
0
 50
66.184686
  7
ROMANS
 72
     1
 11
909603.590633
 21
7260816.036591
 31
0.0
210
0.0
220
0.0
230
1.0
 73
     3
  0
TEXT
  8
11
  6
CONTINUOUS
 62
     7
  5
1FF
 10
909613.579
 20
7260821.493
 30
0.0
 40
8.0
  1
'
 50
79.150969
  7
ROMANS
 72
     1
 11
909605.972887
 21
7260824.307949
 31
0.0
210
0.0
220
0.0
230
1.0
 73
     3
  0
TEXT
  8
11
  6
CONTINUOUS
 62
     7
  5
200
 10
909407.057
 20
7260820.892
 30
0.0
 40
8.0
  1
203.90'
 50
33.347789
  7
ROMANS
 72
     1
 11
909423.821142
 21
7260841.500844
 31
0.0
210
0.0
220
0.0
230
1.0
 73
     3
  0
TEXT
  8
11
  6
CONTINUOUS
 62
     7
  5
201
 10
909604.533
 20
7260950.845
 30
0.0
 40
8.0
  1
261.78'
 50
33.347764
  7
ROMANS
 72
     1
 11
909621.297151
 21
7260971.453836
 31
0.0
210
0.0
220
0.0
230
1.0
 73
     3
  0
TEXT
  8
11
  6
CONTINUOUS
 62
     7
  5
202
 10
909737.525
 20
7260970.602
 30
0.0
 40
8.0
  1
104.37'
 50
88.223286
  7
ROMANS
 72
     1
 11
909730.314284
 21
7260996.170857
 31
0.0
210
0.0
220
0.0
230
1.0
 73
     3
  0
TEXT
  8
11
  6
CONTINUOUS
 62
     7
  5
203
 10
909733.12
 20
7260828.607
 30
0.0
 40
8.0
  1
195'
 50
88.223208
  7
ROMANS
 72
     1
 11
909725.537279
 21
7260842.182636
 31
0.0
210
0.0
220
0.0
230
1.0
 73
     3
  0
TEXT
  8
11
  6
CONTINUOUS
 62
     7
  5
204
 10
910004.565
 20
7261041.362
 30
0.0
 40
8.0
  1
272.62'
 50
88.2106
  7
ROMANS
 72
     1
 11
909997.359945
 21
7261066.932453
 31
0.0
210
0.0
220
0.0
230
1.0
 73
     3
  0
TEXT
  8
11
  6
CONTINUOUS
 62
     7
  5
205
 10
909999.739
 20
7260813.982
 30
0.0
 40
8.0
  1
195'
 50
88.223208
  7
ROMANS
 72
     1
 11
909992.156279
 21
7260827.557636
 31
0.0
210
0.0
220
0.0
230
1.0
 73
     3
  0
TEXT
  8
11
  6
CONTINUOUS
 62
     7
  5
206
 10
909846.283
 20
7261109.933
 30
0.0
 40
8.0
  1
331.82'
 50
33.347917
  7
ROMANS
 72
     1
 11
909863.047096
 21
7261130.541881
 31
0.0
210
0.0
220
0.0
230
1.0
 73
     3
  0
TEXT
  8
10
  6
CONTINUOUS
 62
   134
  5
207
 10
909087.581
 20
7260277.392
 30
0.0
 40
13.999
  1
T
 50
23.109628
  7
ROMANS
 72
     1
 11
909091.872579
 21
7260279.223366
 31
0.0
210
0.0
220
0.0
230
1.0
  0
TEXT
  8
10
  6
CONTINUOUS
 62
   134
  5
208
 10
909100.319
 20
7260282.91
 30
0.0
 40
13.999
  1
R
 50
24.972006
  7
ROMANS
 72
     1
 11
909104.317634
 21
7260284.772216
 31
0.0
210
0.0
220
0.0
230
1.0
  0
TEXT
  8
10
  6
CONTINUOUS
 62
   134
  5
209
 10
909112.709
 20
7260288.68
 30
0.0
 40
13.999
  1
A
 50
24.972006
  7
ROMANS
 72
     1
 11
909116.938795
 21
7260290.64987
 31
0.0
210
0.0
220
0.0
230
1.0
  0
TEXT
  8
10
  6
CONTINUOUS
 62
   134
  5
20A
 10
909125.354
 20
7260294.413
 30
0.0
 40
13.999
  1
C
 50
26.834386
  7
ROMANS
 72
     1
 11
909129.290002
 21
7260296.404183
 31
0.0
210
0.0
220
0.0
230
1.0
  0
TEXT
  8
10
  6
CONTINUOUS
 62
   134
  5
20B
 10
909137.551
 20
7260300.582
 30
0.0
 40
13.999
  1
T
 50
26.834386
  7
ROMANS
 72
     1
 11
909141.714542
 21
7260302.688294
 31
0.0
210
0.0
220
0.0
230
1.0
  0
TEXT
  8
10
  6
CONTINUOUS
 62
   134
  5
20C
 10
909147.913
 20
7260305.824
 30
0.0
 40
13.999
  1
 
 50
26.834386
  7
ROMANS
 72
     1
 11
909152.076542
 21
7260307.930294
 31
0.0
210
0.0
220
0.0
230
1.0
  0
TEXT
  8
10
  6
CONTINUOUS
 62
   134
  5
20D
 10
909160.097
 20
7260312.002
 30
0.0
 40
13.999
  1
 
 50
28.696764
  7
ROMANS
 72
     1
 11
909164.189891
 21
7260314.242492
 31
0.0
210
0.0
220
0.0
230
1.0
  0
TEXT
  8
10
  6
CONTINUOUS
 62
   134
  5
20E
 10
909174.276
 20
7260319.764
 30
0.0
 40
13.999
  1
A
 50
28.696764
  7
ROMANS
 72
     1
 11
909178.368891
 21
7260322.004492
 31
0.0
210
0.0
220
0.0
230
1.0
  0
TEXT
  8
10
  6
CONTINUOUS
 62
   134
  5
20F
 10
909467.518
 20
7260479.59
 30
0.0
 40
13.999
  1
T
 50
16.210478
  7
ROMANS
 72
     1
 11
909471.998492
 21
7260480.892592
 31
0.0
210
0.0
220
0.0
230
1.0
  0
TEXT
  8
10
  6
CONTINUOUS
 62
   134
  5
210
 10
909481.906
 20
7260483.503
 30
0.0
 40
13.999
  1
R
 50
16.210478
  7
ROMANS
 72
     1
 11
909486.14163
 21
7260484.734404
 31
0.0
210
0.0
220
0.0
230
1.0
  0
TEXT
  8
10
  6
CONTINUOUS
 62
   134
  5
211
 10
909495.291
 20
7260487.478
 30
0.0
 40
13.999
  1
A
 50
13.813664
  7
ROMANS
 72
     1
 11
909499.822047
 21
7260488.592078
 31
0.0
210
0.0
220
0.0
230
1.0
  0
TEXT
  8
10
  6
CONTINUOUS
 62
   134
  5
212
 10
909508.992
 20
7260490.848
 30
0.0
 40
13.999
  1
C
 50
13.813664
  7
ROMANS
 72
     1
 11
909513.275422
 21
7260491.901193
 31
0.0
210
0.0
220
0.0
230
1.0
  0
TEXT
  8
10
  6
CONTINUOUS
 62
   134
  5
213
 10
909522.541
 20
7260494.219
 30
0.0
 40
13.999
  1
T
 50
11.416853
  7
ROMANS
 72
     1
 11
909527.114674
 21
7260495.142614
 31
0.0
210
0.0
220
0.0
230
1.0
  0
TEXT
  8
10
  6
CONTINUOUS
 62
   134
  5
214
 10
909533.922
 20
7260496.517
 30
0.0
 40
13.999
  1
 
 50
11.416853
  7
ROMANS
 72
     1
 11
909538.495674
 21
7260497.440614
 31
0.0
210
0.0
220
0.0
230
1.0
  0
TEXT
  8
10
  6
CONTINUOUS
 62
   134
  5
215
 10
909547.808
 20
7260499.415
 30
0.0
 40
13.999
  1
 
 50
9.020039
  7
ROMANS
 72
     1
 11
909552.416298
 21
7260500.146535
 31
0.0
210
0.0
220
0.0
230
1.0
  0
TEXT
  8
10
  6
CONTINUOUS
 62
   134
  5
216
 10
909563.774
 20
7260501.949
 30
0.0
 40
13.999
  1
A
 50
9.020039
  7
ROMANS
 72
     1
 11
909568.382298
 21
7260502.680535
 31
0.0
210
0.0
220
0.0
230
1.0
  0
TEXT
  8
10
  6
CONTINUOUS
 62
   134
  5
217
 10
909416.65
 20
7260383.986
 30
0.0
 40
13.999
  1
T
 50
287.469536
  7
ROMANS
 72
     1
 11
909418.050727
 21
7260379.535211
 31
0.0
210
0.0
220
0.0
230
1.0
  0
TEXT
  8
10
  6
CONTINUOUS
 62
   134
  5
218
 10
909420.931
 20
7260370.096
 30
0.0
 40
13.999
  1
R
 50
283.968697
  7
ROMANS
 72
     1
 11
909421.995779
 21
7260365.815443
 31
0.0
210
0.0
220
0.0
230
1.0
  0
TEXT
  8
10
  6
CONTINUOUS
 62
   134
  5
219
 10
909424.529
 20
7260356.459
 30
0.0
 40
13.999
  1
A
 50
280.467856
  7
ROMANS
 72
     1
 11
909425.376737
 21
7260351.870656
 31
0.0
210
0.0
220
0.0
230
1.0
  0
TEXT
  8
10
  6
CONTINUOUS
 62
   134
  5
21A
 10
909427.09
 20
7260342.585
 30
0.0
 40
13.999
  1
C
 50
280.467856
  7
ROMANS
 72
     1
 11
909427.891408
 21
7260338.247412
 31
0.0
210
0.0
220
0.0
230
1.0
  0
TEXT
  8
10
  6
CONTINUOUS
 62
   134
  5
21B
 10
909429.277
 20
7260328.666
 30
0.0
 40
13.999
  1
T
 50
276.967014
  7
ROMANS
 72
     1
 11
909429.842976
 21
7260324.034453
 31
0.0
210
0.0
220
0.0
230
1.0
  0
TEXT
  8
10
  6
CONTINUOUS
 62
   134
  5
21C
 10
909430.768
 20
7260316.719
 30
0.0
 40
13.999
  1
 
 50
273.466172
  7
ROMANS
 72
     1
 11
909431.050103
 21
7260312.061536
 31
0.0
210
0.0
220
0.0
230
1.0
  0
TEXT
  8
10
  6
CONTINUOUS
 62
   134
  5
21D
 10
909431.936
 20
7260302.437
 30
0.0
 40
13.999
  1
 
 50
269.965331
  7
ROMANS
 72
     1
 11
909431.933177
 21
7260297.771001
 31
0.0
210
0.0
220
0.0
230
1.0
  0
TEXT
  8
10
  6
CONTINUOUS
 62
   134
  5
21E
 10
909431.926
 20
7260286.272
 30
0.0
 40
13.999
  1
A
 50
269.965331
  7
ROMANS
 72
     1
 11
909431.923177
 21
7260281.606001
 31
0.0
210
0.0
220
0.0
230
1.0
  0
TEXT
  8
10
  6
CONTINUOUS
 62
   134
  5
21F
 10
909235.774
 20
7260563.185
 30
0.0
 40
13.999
  1
TRACT  A
 50
300.618711
  7
ROMANS
 72
     1
 11
909263.105263
 21
7260517.004784
 31
0.0
210
0.0
220
0.0
230
1.0
  0
TEXT
  8
10
  6
CONTINUOUS
 62
   134
  5
220
 10
909541.624
 20
7260720.827
 30
0.0
 40
13.999
  1
TRACT  A
 50
277.661347
  7
ROMANS
 72
     1
 11
909548.77809
 21
7260667.644021
 31
0.0
210
0.0
220
0.0
230
1.0
  0
TEXT
  8
10
  6
CONTINUOUS
 62
   134
  5
221
 10
909583.21
 20
7260746.593
 30
0.0
 40
13.999
  1
TRACT  A
 50
277.662247
  7
ROMANS
 72
     1
 11
909590.364926
 21
7260693.410134
 31
0.0
210
0.0
220
0.0
230
1.0
  0
TEXT
  8
10
  6
CONTINUOUS
 62
   134
  5
222
 10
908957.284
 20
7260393.283
 30
0.0
 40
13.999
  1
TRACT  A
 50
312.435322
  7
ROMANS
 72
     1
 11
908993.492837
 21
7260353.678324
 31
0.0
210
0.0
220
0.0
230
1.0
  0
TEXT
  8
11
  6
CONTINUOUS
 62
     7
  5
223
 10
909488.014
 20
7260272.982
 30
0.0
 40
8.0
  1
7.52'
 50
358.223525
  7
ROMANS
 72
     1
 11
909505.338669
 21
7260272.444671
 31
0.0
210
0.0
220
0.0
230
1.0
  0
TEXT
  8
10
  6
CONTINUOUS
 62
   134
  5
224
 10
909586.398
 20
7260313.966
 30
0.0
 40
13.999
  1
2-A
 50
358.2298
  7
ROMANS
210
0.0
220
0.0
230
1.0
  0
TEXT
  8
10
  6
CONTINUOUS
 62
   134
  5
225
 10
909596.421
 20
7260203.527
 30
0.0
 40
13.999
  1
1-A
 50
358.2298
  7
ROMANS
210
0.0
220
0.0
230
1.0
  0
LINE
  8
6
  6
CONTINUOUS
 62
     7
  5
226
 10
910000.371
 20
7260717.938
 30
0.0
 11
909748.936
 21
7260725.686
 31
0.0
  0
TEXT
  8
11
  6
CONTINUOUS
 62
     7
  5
227
 10
909716.972
 20
7260548.172
 30
0.0
 40
8.0
  1
20'
 50
358.2298
  7
ROMANS
 72
     4
 11
909726.42411
 21
7260551.881786
 31
0.0
210
0.0
220
0.0
230
1.0
  0
TEXT
  8
11
  6
CONTINUOUS
 62
     7
  5
228
 10
909997.704
 20
7260720.916
 30
0.0
 40
8.0
  1
20'
 50
88.2298
  7
ROMANS
 72
     4
 11
909993.994214
 21
7260730.36811
 31
0.0
210
0.0
220
0.0
230
1.0
  0
LINE
  8
6
  6
CONTINUOUS
 62
     7
  5
229
 10
909738.631
 20
7260715.999
 30
0.0
 11
909733.361
 21
7260546.081
 31
0.0
  0
ARC
  8
6
  6
CONTINUOUS
 62
     7
  5
22A
 10
909980.227093
 20
7260553.47695
 30
0.0
 40
15.0
 50
268.234061
 51
358.210592
210
0.0
220
0.0
230
1.0
  0
LINE
  8
6
  6
CONTINUOUS
 62
     7
  5
22B
 10
909995.219
 20
7260553.011
 30
0.0
 11
910000.371
 21
7260717.938
 31
0.0
  0
TEXT
  8
10
  6
CONTINUOUS
 62
   134
  5
22C
 10
909978.574
 20
7260608.434
 30
0.0
 40
13.999
  1
34-F
 50
88.2298
  7
ROMANS
 72
     4
 11
909972.352146
 21
7260633.720266
 31
0.0
210
0.0
220
0.0
230
1.0
  0
TEXT
  8
10
  6
CONTINUOUS
 62
   134
  5
22D
 10
909930.817
 20
7260609.635
 30
0.0
 40
13.999
  1
34-E
 50
88.2298
  7
ROMANS
 72
     4
 11
909924.604136
 21
7260635.212127
 31
0.0
210
0.0
220
0.0
230
1.0
  0
TEXT
  8
10
  6
CONTINUOUS
 62
   134
  5
22E
 10
909889.781
 20
7260610.848
 30
0.0
 40
13.999
  1
34-D
 50
88.2298
  7
ROMANS
 72
     4
 11
909883.570638
 21
7260636.506089
 31
0.0
210
0.0
220
0.0
230
1.0
  0
TEXT
  8
10
  6
CONTINUOUS
 62
   134
  5
22F
 10
909847.255
 20
7260612.162
 30
0.0
 40
13.999
  1
34-C
 50
88.2298
  7
ROMANS
 72
     4
 11
909841.043279
 21
7260637.77611
 31
0.0
210
0.0
220
0.0
230
1.0
  0
TEXT
  8
10
  6
CONTINUOUS
 62
   134
  5
230
 10
909805.475
 20
7260613.454
 30
0.0
 40
13.999
  1
34-B
 50
88.2298
  7
ROMANS
 72
     4
 11
909799.263279
 21
7260639.06811
 31
0.0
210
0.0
220
0.0
230
1.0
  0
TEXT
  8
10
  6
CONTINUOUS
 62
   134
  5
231
 10
909764.434
 20
7260614.502
 30
0.0
 40
13.999
  1
34-A
 50
88.2298
  7
ROMANS
 72
     4
 11
909758.230125
 21
7260640.369988
 31
0.0
210
0.0
220
0.0
230
1.0
  0
TEXT
  8
22
  6
CONTINUOUS
 62
     3
  5
233
 10
909866.035
 20
7260710.224
 30
0.0
 40
6.0
  1
TPE-
 50
358.2298
  7
ROMANS
 72
     4
 11
909877.372304
 21
7260712.875046
 31
0.0
210
0.0
220
0.0
230
1.0
  0
TEXT
  8
22
  6
CONTINUOUS
 62
     3
  5
234
 10
909866.142
 20
7260702.217
 30
0.0
 40
6.0
  1
SPEC
 50
358.2298
  7
ROMANS
 72
     4
 11
909877.119476
 21
7260704.879166
 31
0.0
210
0.0
220
0.0
230
1.0
  0
POLYLINE
  8
21
  6
DASHDOT
 62
     7
  5
235
 66
     1
 10
0.0
 20
0.0
 30
0.0
 70
     1
  0
VERTEX
  8
21
  6
DASHDOT
 62
     7
  5
236
 10
909864.881
 20
7260722.113
 30
0.0
  0
VERTEX
  8
21
  6
DASHDOT
 62
     7
  5
237
 10
909870.878
 20
7260721.929
 30
0.0
  0
VERTEX
  8
21
  6
DASHDOT
 62
     7
  5
238
 10
909870.755
 20
7260717.931
 30
0.0
  0
VERTEX
  8
21
  6
DASHDOT
 62
     7
  5
239
 10
909864.758
 20
7260718.115
 30
0.0
  0
VERTEX
  8
21
  6
DASHDOT
 62
     7
  5
23A
 10
909864.881
 20
7260722.113
 30
0.0
  0
SEQEND
  8
21
  6
DASHDOT
 62
     7
  5
23B
  0
LINE
  8
7
  6
CONTINUOUS
 62
     7
  5
23C
 10
909780.921
 20
7260724.7
 30
0.0
 11
909775.341
 21
7260544.787
 31
0.0
  0
LINE
  8
7
  6
CONTINUOUS
 62
     7
  5
23D
 10
909822.901
 20
7260723.407
 30
0.0
 11
909817.321
 21
7260543.493
 31
0.0
  0
LINE
  8
7
  6
CONTINUOUS
 62
     7
  5
23E
 10
909864.881
 20
7260722.113
 30
0.0
 11
909859.301
 21
7260542.2
 31
0.0
  0
LINE
  8
7
  6
CONTINUOUS
 62
     7
  5
23F
 10
909906.861
 20
7260720.819
 30
0.0
 11
909901.281
 21
7260540.906
 31
0.0
  0
LINE
  8
7
  6
CONTINUOUS
 62
     7
  5
240
 10
909948.841
 20
7260719.526
 30
0.0
 11
909943.261
 21
7260539.612
 31
0.0
  0
TEXT
  8
11
  6
CONTINUOUS
 62
     7
  5
241
 10
909994.825
 20
7260612.491
 30
0.0
 40
8.0
  1
165.01'
 50
88.2298
  7
ROMANS
 72
     4
 11
909991.609468
 21
7260637.935474
 31
0.0
210
0.0
220
0.0
230
1.0
  0
TEXT
  8
11
  6
CONTINUOUS
 62
     7
  5
242
 10
909943.354
 20
7260540.704
 30
0.0
 40
8.0
  1
36.52'
 50
358.2298
  7
ROMANS
 72
     4
 11
909964.800383
 21
7260544.043095
 31
0.0
210
0.0
220
0.0
230
1.0
  0
TEXT
  8
11
  6
CONTINUOUS
 62
     7
  5
243
 10
909954.716
 20
7260710.02
 30
0.0
 40
8.0
  1
51.55'
 50
358.2298
  7
ROMANS
 72
     4
 11
909976.162383
 21
7260713.359095
 31
0.0
210
0.0
220
0.0
230
1.0
  0
TEXT
  8
11
  6
CONTINUOUS
 62
     7
  5
244
 10
909944.014
 20
7260618.884
 30
0.0
 40
8.0
  1
180'
 50
88.2298
  7
ROMANS
 72
     4
 11
909940.427777
 21
7260632.334201
 31
0.0
210
0.0
220
0.0
230
1.0
  0
TEXT
  8
11
  6
CONTINUOUS
 62
     7
  5
245
 10
909754.453
 20
7260715.607
 30
0.0
 40
8.0
  1
32'
 50
358.2298
  7
ROMANS
 72
     4
 11
909763.90511
 21
7260719.316786
 31
0.0
210
0.0
220
0.0
230
1.0
  0
TEXT
  8
11
  6
CONTINUOUS
 62
     7
  5
246
 10
909741.149
 20
7260715.794
 30
0.0
 40
8.0
  1
14.14'
 50
313.2298
  7
ROMANS
 72
     4
 11
909758.67498
 21
7260702.990214
 31
0.0
210
0.0
220
0.0
230
1.0
  0
TEXT
  8
11
  6
CONTINUOUS
 62
     7
  5
247
 10
909744.893
 20
7260625.038
 30
0.0
 40
8.0
  1
170'
 50
88.2298
  7
ROMANS
 72
     4
 11
909741.306777
 21
7260638.488201
 31
0.0
210
0.0
220
0.0
230
1.0
  0
TEXT
  8
11
  6
CONTINUOUS
 62
     7
  5
248
 10
909776.507
 20
7260624.061
 30
0.0
 40
8.0
  1
180'
 50
88.2298
  7
ROMANS
 72
     4
 11
909772.920777
 21
7260637.511201
 31
0.0
210
0.0
220
0.0
230
1.0
  0
TEXT
  8
11
  6
CONTINUOUS
 62
     7
  5
249
 10
909749.233
 20
7260546.703
 30
0.0
 40
8.0
  1
42'
 50
358.2298
  7
ROMANS
 72
     4
 11
909758.68511
 21
7260550.412786
 31
0.0
210
0.0
220
0.0
230
1.0
  0
TEXT
  8
11
  6
CONTINUOUS
 62
     7
  5
24A
 10
909789.622
 20
7260545.455
 30
0.0
 40
8.0
  1
42'
 50
358.2298
  7
ROMANS
 72
     4
 11
909799.07411
 21
7260549.164786
 31
0.0
210
0.0
220
0.0
230
1.0
  0
TEXT
  8
11
  6
CONTINUOUS
 62
     7
  5
24B
 10
909832.089
 20
7260544.142
 30
0.0
 40
8.0
  1
42'
 50
358.2298
  7
ROMANS
 72
     4
 11
909841.54111
 21
7260547.851786
 31
0.0
210
0.0
220
0.0
230
1.0
  0
TEXT
  8
11
  6
CONTINUOUS
 62
     7
  5
24C
 10
909874.556
 20
7260542.83
 30
0.0
 40
8.0
  1
42'
 50
358.2298
  7
ROMANS
 72
     4
 11
909884.00811
 21
7260546.539786
 31
0.0
210
0.0
220
0.0
230
1.0
  0
TEXT
  8
11
  6
CONTINUOUS
 62
     7
  5
24D
 10
909915.606
 20
7260541.561
 30
0.0
 40
8.0
  1
42'
 50
358.2298
  7
ROMANS
 72
     4
 11
909925.05811
 21
7260545.270786
 31
0.0
210
0.0
220
0.0
230
1.0
  0
CIRCLE
  8
8
  6
CONTINUOUS
 62
     7
  5
24F
 10
909995.218777
 20
7260553.011474
 30
0.0
 40
1.0
210
0.0
220
0.0
230
1.0
  0
CIRCLE
  8
8
  6
CONTINUOUS
 62
     7
  5
250
 10
909979.763726
 20
7260538.486963
 30
0.0
 40
1.0
210
0.0
220
0.0
230
1.0
  0
SOLID
  8
21
  6
DASHDOT
 62
     7
  5
251
 10
909713.371
 20
7260546.694
 30
0.0
 11
909714.143
 21
7260571.682
 31
0.0
 12
909878.292
 22
7260541.597
 32
0.0
 13
909879.065
 23
7260566.585
 33
0.0
  0
TEXT
  8
22
  6
CONTINUOUS
 62
     3
  5
252
 10
909713.105
 20
7260538.987
 30
0.0
 40
6.0
  1
25'GARBAGE COLLECTION EASEMENT(CLOSED)
 50
358.2298
  7
ROMANS
 72
     4
 11
909825.643983
 21
7260538.510342
 31
0.0
210
0.0
220
0.0
230
1.0
  0
LINE
  8
6
  6
CONTINUOUS
 62
     7
  5
253
 10
909977.894
 20
7260478.984
 30
0.0
 11
909731.517
 21
7260486.577
 31
0.0
  0
LINE
  8
6
  6
CONTINUOUS
 62
     7
  5
254
 10
909731.517
 20
7260486.577
 30
0.0
 11
909726.464
 21
7260323.655
 31
0.0
  0
LINE
  8
6
  6
CONTINUOUS
 62
     7
  5
255
 10
909726.464
 20
7260323.655
 30
0.0
 11
909736.149
 21
7260313.353
 31
0.0
  0
LINE
  8
6
  6
CONTINUOUS
 62
     7
  5
256
 10
909736.149
 20
7260313.353
 30
0.0
 11
909987.491
 21
7260305.606
 31
0.0
  0
LINE
  8
6
  6
CONTINUOUS
 62
     7
  5
257
 10
909987.491
 20
7260305.606
 30
0.0
 11
909992.424
 21
7260463.523
 31
0.0
  0
LINE
  8
6
  6
CONTINUOUS
 62
     7
  5
258
 10
909705.539
 20
7260294.29
 30
0.0
 11
909986.866
 21
7260285.621
 31
0.0
  0
LINE
  8
6
  6
CONTINUOUS
 62
     7
  5
259
 10
909986.866
 20
7260285.621
 30
0.0
 11
909984.681
 21
7260215.655
 31
0.0
  0
LINE
  8
6
  6
CONTINUOUS
 62
     7
  5
25A
 10
909996.373
 20
7260215.295
 30
0.0
 11
909703.374
 21
7260224.32
 31
0.0
  0
ARC
  8
6
  6
CONTINUOUS
 62
     7
  5
25B
 10
909977.43138
 20
7260463.991459
 30
0.0
 40
15.0
 50
358.2107
 51
88.233622
210
0.0
220
0.0
230
1.0
  0
LINE
  8
7
  6
CONTINUOUS
 62
     7
  5
25C
 10
909793.99
 20
7260484.736
 30
0.0
 11
909788.588
 21
7260311.82
 31
0.0
  0
LINE
  8
7
  6
CONTINUOUS
 62
     7
  5
25D
 10
909856.459
 20
7260482.784
 30
0.0
 11
909851.057
 21
7260309.869
 31
0.0
  0
LINE
  8
7
  6
CONTINUOUS
 62
     7
  5
25E
 10
909918.929
 20
7260480.833
 30
0.0
 11
909913.527
 21
7260307.917
 31
0.0
  0
TEXT
  8
11
  6
CONTINUOUS
 62
     7
  5
260
 10
909750.28
 20
7260476.527
 30
0.0
 40
8.0
  1
62.5'
 50
358.2298
  7
txt
 72
     4
 11
909765.860184
 21
7260480.047394
 31
0.0
210
0.0
220
0.0
230
1.0
  0
TEXT
  8
11
  6
CONTINUOUS
 62
     7
  5
261
 10
909816.553
 20
7260474.479
 30
0.0
 40
8.0
  1
62.5'
 50
358.2298
  7
txt
 72
     4
 11
909832.133184
 21
7260477.999394
 31
0.0
210
0.0
220
0.0
230
1.0
  0
TEXT
  8
11
  6
CONTINUOUS
 62
     7
  5
262
 10
909876.916
 20
7260472.614
 30
0.0
 40
8.0
  1
62.5'
 50
358.2298
  7
txt
 72
     4
 11
909892.496184
 21
7260476.134394
 31
0.0
210
0.0
220
0.0
230
1.0
  0
TEXT
  8
11
  6
CONTINUOUS
 62
     7
  5
263
 10
909827.051
 20
7260281.448
 30
0.0
 40
8.0
  1
281.46'
 50
358.2298
  7
txt
 72
     4
 11
909849.399952
 21
7260284.759201
 31
0.0
210
0.0
220
0.0
230
1.0
  0
TEXT
  8
11
  6
CONTINUOUS
 62
     7
  5
264
 10
909816.416
 20
7260223.033
 30
0.0
 40
8.0
  1
281.44'
 50
358.2298
  7
txt
 72
     4
 11
909839.142771
 21
7260226.332524
 31
0.0
210
0.0
220
0.0
230
1.0
  0
TEXT
  8
11
  6
CONTINUOUS
 62
     7
  5
265
 10
909938.536
 20
7260470.709
 30
0.0
 40
8.0
  1
58.99'
 50
358.2298
  7
txt
 72
     4
 11
909957.924365
 21
7260474.1117
 31
0.0
210
0.0
220
0.0
230
1.0
  0
TEXT
  8
11
  6
CONTINUOUS
 62
     7
  5
266
 10
909987.763
 20
7260366.771
 30
0.0
 40
8.0
  1
157.99'
 50
88.2298
  7
txt
 72
     4
 11
909984.441049
 21
7260388.772118
 31
0.0
210
0.0
220
0.0
230
1.0
  0
TEXT
  8
11
  6
CONTINUOUS
 62
     7
  5
267
 10
909983.966
 20
7260243.912
 30
0.0
 40
8.0
  1
70'
 50
88.2298
  7
txt
 72
     4
 11
909980.265605
 21
7260253.667964
 31
0.0
210
0.0
220
0.0
230
1.0
  0
TEXT
  8
11
  6
CONTINUOUS
 62
     7
  5
268
 10
909714.575
 20
7260249.701
 30
0.0
 40
8.0
  1
70'
 50
88.2298
  7
txt
 72
     4
 11
909710.874605
 21
7260259.456964
 31
0.0
210
0.0
220
0.0
230
1.0
  0
TEXT
  8
11
  6
CONTINUOUS
 62
     7
  5
269
 10
909739.674
 20
7260391.907
 30
0.0
 40
8.0
  1
163'
 50
88.2298
  7
txt
 72
     4
 11
909736.047557
 21
7260404.055822
 31
0.0
210
0.0
220
0.0
230
1.0
  0
TEXT
  8
11
  6
CONTINUOUS
 62
     7
  5
26A
 10
909802.629
 20
7260391.853
 30
0.0
 40
8.0
  1
173'
 50
88.2298
  7
txt
 72
     4
 11
909799.009384
 21
7260404.222716
 31
0.0
210
0.0
220
0.0
230
1.0
  0
TEXT
  8
11
  6
CONTINUOUS
 62
     7
  5
26B
 10
909926.705
 20
7260387.173
 30
0.0
 40
8.0
  1
173'
 50
88.2298
  7
txt
 72
     4
 11
909923.085384
 21
7260399.542716
 31
0.0
210
0.0
220
0.0
230
1.0
  0
TEXT
  8
11
  6
CONTINUOUS
 62
     7
  5
26C
 10
909746.174
 20
7260315.219
 30
0.0
 40
8.0
  1
52.46'
 50
358.2298
  7
txt
 72
     4
 11
909765.941184
 21
7260318.609992
 31
0.0
210
0.0
220
0.0
230
1.0
  0
TEXT
  8
11
  6
CONTINUOUS
 62
     7
  5
26D
 10
910012.343
 20
7260468.851
 30
0.0
 40
8.0
  1
55'
 50
358.2298
  7
txt
 72
     4
 11
910022.099964
 21
7260472.551365
 31
0.0
210
0.0
220
0.0
230
1.0
  0
TEXT
  8
11
  6
CONTINUOUS
 62
     7
  5
26E
 10
910004.501
 20
7260215.107
 30
0.0
 40
8.0
  1
55'
 50
358.2298
  7
txt
 72
     4
 11
910014.257964
 21
7260218.807365
 31
0.0
210
0.0
220
0.0
230
1.0
  0
TEXT
  8
11
  6
CONTINUOUS
 62
     7
  5
26F
 10
909735.859
 20
7260317.223
 30
0.0
 40
8.0
  1
14.14'
 50
43.2298
  7
txt
 72
     4
 11
909745.648516
 21
7260331.91544
 31
0.0
210
0.0
220
0.0
230
1.0
  0
TEXT
  8
11
  6
CONTINUOUS
 62
     7
  5
270
 10
909970.51
 20
7260447.252
 30
0.0
 40
8.0
  1
R=15'
 50
43.2298
  7
txt
 72
     4
 11
909979.060875
 21
7260460.780066
 31
0.0
210
0.0
220
0.0
230
1.0
  0
TEXT
  8
19
  6
CONTINUOUS
 62
     1
  5
273
 10
910036.498
 20
7260604.624
 30
0.0
 40
24.0
  1
UPLAND AVE
 50
88.2298
  7
ROMANC
 72
     4
 11
910028.671528
 21
7260739.850302
 31
0.0
210
0.0
220
0.0
230
1.0
  0
TEXT
  8
11
  6
CONTINUOUS
 62
     7
  5
274
 10
909744.281
 20
7260294.878
 30
0.0
 40
8.0
  1
20'
 50
88.2298
  7
txt
 72
     4
 11
909740.579647
 21
7260304.602979
 31
0.0
210
0.0
220
0.0
230
1.0
  0
TEXT
  8
11
  6
CONTINUOUS
 62
     7
  5
275
 10
909984.915
 20
7260288.286
 30
0.0
 40
8.0
  1
20'
 50
88.2298
  7
txt
 72
     4
 11
909981.213647
 21
7260298.010979
 31
0.0
210
0.0
220
0.0
230
1.0
  0
TEXT
  8
11
  6
CONTINUOUS
 62
     7
  5
276
 10
909713.871
 20
7260475.963
 30
0.0
 40
8.0
  1
20'
 50
358.2298
  7
txt
 72
     4
 11
909723.595979
 21
7260479.664353
 31
0.0
210
0.0
220
0.0
230
1.0
  0
SOLID
  8
21
  6
DASHDOT
 62
     7
  5
277
 10
909851.057
 20
7260309.869
 30
0.0
 11
909857.054
 21
7260309.683
 31
0.0
 12
909851.181
 22
7260313.867
 32
0.0
 13
909857.178
 23
7260313.681
 33
0.0
  0
TEXT
  8
22
  6
CONTINUOUS
 62
     3
  5
278
 10
909728.888
 20
7260272.589
 30
0.0
 40
6.0
  1
20' UNDERGROUND UTILITY, GARBAGE
 50
358.2298
  7
txt
 11
909728.980673
 21
7260275.587568
 31
0.0
210
0.0
220
0.0
230
1.0
 73
     2
  0
TEXT
  8
22
  6
CONTINUOUS
 62
     3
  5
279
 10
909728.641
 20
7260264.593
 30
0.0
 40
6.0
  1
COLLECTION, AND PRIVATE ACCESS
 50
358.2298
  7
txt
 11
909728.733673
 21
7260267.591568
 31
0.0
210
0.0
220
0.0
230
1.0
 73
     2
  0
TEXT
  8
22
  6
CONTINUOUS
 62
     3
  5
27A
 10
909728.394
 20
7260256.596
 30
0.0
 40
6.0
  1
EASEMENT
 50
358.2298
  7
txt
 11
909728.486673
 21
7260259.594568
 31
0.0
210
0.0
220
0.0
230
1.0
 73
     2
  0
POLYLINE
  8
21
  6
DASHDOT
 62
     7
  5
27B
 66
     1
 10
0.0
 20
0.0
 30
0.0
  0
VERTEX
  8
21
  6
DASHDOT
 62
     7
  5
27C
 10
909725.53
 20
7260293.675
 30
0.0
  0
VERTEX
  8
21
  6
DASHDOT
 62
     7
  5
27D
 10
909723.364
 20
7260223.704
 30
0.0
  0
VERTEX
  8
21
  6
DASHDOT
 62
     7
  5
27E
 10
909703.374
 20
7260224.32
 30
0.0
  0
VERTEX
  8
21
  6
DASHDOT
 62
     7
  5
27F
 10
909705.539
 20
7260294.29
 30
0.0
  0
VERTEX
  8
21
  6
DASHDOT
 62
     7
  5
280
 10
909725.53
 20
7260293.675
 30
0.0
  0
SEQEND
  8
21
  6
DASHDOT
 62
     7
  5
281
  0
TEXT
  8
10
  6
CONTINUOUS
 62
   134
  5
282
 10
909752.707
 20
7260394.636
 30
0.0
 40
13.999
  1
39
 50
358.2298
  7
txt
 72
     4
 11
909764.271818
 21
7260401.281924
 31
0.0
210
0.0
220
0.0
230
1.0
  0
TEXT
  8
10
  6
CONTINUOUS
 62
   134
  5
283
 10
909814.681
 20
7260396.103
 30
0.0
 40
13.999
  1
40
 50
358.2298
  7
txt
 72
     4
 11
909826.850529
 21
7260402.730235
 31
0.0
210
0.0
220
0.0
230
1.0
  0
TEXT
  8
10
  6
CONTINUOUS
 62
   134
  5
284
 10
909877.89
 20
7260394.149
 30
0.0
 40
13.999
  1
41
 50
358.2298
  7
txt
 72
     4
 11
909887.635686
 21
7260400.851145
 31
0.0
210
0.0
220
0.0
230
1.0
  0
TEXT
  8
10
  6
CONTINUOUS
 62
   134
  5
285
 10
909942.951
 20
7260392.138
 30
0.0
 40
13.999
  1
42
 50
358.2298
  7
txt
 72
     4
 11
909955.175503
 21
7260398.763536
 31
0.0
210
0.0
220
0.0
230
1.0
  0
TEXT
  8
10
  6
CONTINUOUS
 62
   134
  5
286
 10
909840.166
 20
7260238.106
 30
0.0
 40
13.999
  1
43
 50
358.2298
  7
txt
 72
     4
 11
909852.390503
 21
7260244.731536
 31
0.0
210
0.0
220
0.0
230
1.0
  0
LINE
  8
6
  6
CONTINUOUS
 62
     7
  5
287
 10
909713.371
 20
7260546.694
 30
0.0
 11
909688.373
 21
7260547.465
 31
0.0
  0
LINE
  8
6
  6
CONTINUOUS
 62
     7
  5
288
 10
909733.361
 20
7260546.081
 30
0.0
 11
909979.764
 21
7260538.487
 31
0.0
  0
LINE
  8
6
  6
CONTINUOUS
 62
     7
  5
289
 10
909738.631
 20
7260715.999
 30
0.0
 11
909748.936
 21
7260725.686
 31
0.0
  0
LINE
  8
6
  6
CONTINUOUS
 62
     7
  5
28A
 10
904907.703
 20
7264024.125
 30
0.0
 11
910113.401
 21
7263856.816
 31
0.0
  0
LINE
  8
6
  6
CONTINUOUS
 62
     7
  5
28B
 10
910113.401
 20
7263856.816
 30
0.0
 11
910030.345
 21
7261272.378
 31
0.0
  0
LINE
  8
6
  6
CONTINUOUS
 62
     7
  5
28C
 10
909996.373
 20
7260215.295
 30
0.0
 11
909946.442
 21
7258661.589
 31
0.0
  0
LINE
  8
6
  6
CONTINUOUS
 62
     7
  5
28D
 10
904907.703
 20
7264024.125
 30
0.0
 11
904744.004
 21
7258825.431
 31
0.0
  0
LINE
  8
6
  6
CONTINUOUS
 62
     7
  5
28E
 10
904744.004
 20
7258825.431
 30
0.0
 11
909946.442
 21
7258661.589
 31
0.0
  0
TEXT
  8
15
  6
CONTINUOUS
 62
    30
  5
290
 10
909158.272
 20
7260389.423
 30
0.0
 40
50.0
  1
WINGHAVEN
 50
33.2298
  7
ROMANC
 72
     4
 11
909355.325537
 21
7260548.404815
 31
0.0
210
0.0
220
0.0
230
1.0
  0
TEXT
  8
15
  6
CONTINUOUS
 62
    30
  5
291
 10
909254.818
 20
7260378.554
 30
0.0
 40
50.0
  1
ESTATES
 50
33.2298
  7
ROMANC
 72
     4
 11
909389.303714
 21
7260496.546086
 31
0.0
210
0.0
220
0.0
230
1.0
  0
POLYLINE
  8
1
  6
HIDDEN
 62
   253
  5
293
 66
     1
 10
0.0
 20
0.0
 30
0.0
 70
     1
  0
VERTEX
  8
1
  6
HIDDEN
 62
   253
  5
294
 10
904709.658
 20
7258806.436
 30
0.0
  0
VERTEX
  8
1
  6
HIDDEN
 62
   253
  5
295
 10
909978.354
 20
7258641.426
 30
0.0
  0
VERTEX
  8
1
  6
HIDDEN
 62
   253
  5
296
 10
910147.867
 20
7263912.206
 30
0.0
  0
VERTEX
  8
1
  6
HIDDEN
 62
   253
  5
297
 10
904880.502
 20
7264079.379
 30
0.0
  0
SEQEND
  8
1
  6
HIDDEN
 62
   253
  5
298
  0
TEXT
  8
13
  6
CONTINUOUS
 62
    14
  5
29A
 10
909748.031
 20
7260559.824
 30
0.0
 40
8.0
  1
V6524 P45
 50
358.2298
  7
ROMANS
 72
     4
 11
909782.482173
 21
7260562.761174
 31
0.0
210
0.0
220
0.0
230
1.0
  0
LINE
  8
58
  6
DIVIDE
 62
   216
  5
29C
 10
909329.901
 20
7258650.991
 30
0.0
 11
909494.715
 21
7263926.615
 31
0.0
  0
TEXT
  8
22
  6
CONTINUOUS
 62
     3
  5
29D
 10
909859.881
 20
7260319.181
 30
0.0
 40
6.0
  1
TPE-
 50
358.2298
  7
ROMANS
 72
     4
 11
909871.218304
 21
7260321.832046
 31
0.0
210
0.0
220
0.0
230
1.0
  0
TEXT
  8
22
  6
CONTINUOUS
 62
     3
  5
29E
 10
909859.988
 20
7260311.173
 30
0.0
 40
6.0
  1
SPEC
 50
358.2298
  7
ROMANS
 72
     4
 11
909870.965476
 21
7260313.835166
 31
0.0
210
0.0
220
0.0
230
1.0
  0
ENDSEC
  0
EOF
