  0
SECTION
  2
HEADER
  9
$ACADVER
  1
AC1009
  9
$INSBASE
 10
0.0
 20
0.0
 30
0.0
  9
$EXTMIN
 10
914729.541
 20
7242393.1
 30
0.0
  9
$EXTMAX
 10
920216.062
 20
7247893.552
 30
0.0
  9
$LIMMIN
 10
0.0
 20
0.0
  9
$LIMMAX
 10
12.0
 20
9.0
  9
$ORTHOMODE
 70
     0
  9
$REGENMODE
 70
     1
  9
$FILLMODE
 70
     1
  9
$QTEXTMODE
 70
     0
  9
$MIRRTEXT
 70
     1
  9
$DRAGMODE
 70
     2
  9
$LTSCALE
 40
1.0
  9
$OSMODE
 70
     0
  9
$ATTMODE
 70
     1
  9
$TEXTSIZE
 40
0.2
  9
$TRACEWID
 40
0.05
  9
$TEXTSTYLE
  7
STANDARD
  9
$CLAYER
  8
0
  9
$CELTYPE
  6
CONTINUOUS
  9
$CECOLOR
 62
   256
  9
$DIMSCALE
 40
1.0
  9
$DIMASZ
 40
0.18
  9
$DIMEXO
 40
0.0625
  9
$DIMDLI
 40
0.38
  9
$DIMRND
 40
0.0
  9
$DIMDLE
 40
0.0
  9
$DIMEXE
 40
0.18
  9
$DIMTP
 40
0.0
  9
$DIMTM
 40
0.0
  9
$DIMTXT
 40
0.18
  9
$DIMCEN
 40
0.09
  9
$DIMTSZ
 40
0.0
  9
$DIMTOL
 70
     0
  9
$DIMLIM
 70
     0
  9
$DIMTIH
 70
     1
  9
$DIMTOH
 70
     1
  9
$DIMSE1
 70
     0
  9
$DIMSE2
 70
     0
  9
$DIMTAD
 70
     0
  9
$DIMZIN
 70
     0
  9
$DIMBLK
  1

  9
$DIMASO
 70
     1
  9
$DIMSHO
 70
     1
  9
$DIMPOST
  1

  9
$DIMAPOST
  1

  9
$DIMALT
 70
     0
  9
$DIMALTD
 70
     2
  9
$DIMALTF
 40
25.4
  9
$DIMLFAC
 40
1.0
  9
$DIMTOFL
 70
     0
  9
$DIMTVP
 40
0.0
  9
$DIMTIX
 70
     0
  9
$DIMSOXD
 70
     0
  9
$DIMSAH
 70
     0
  9
$DIMBLK1
  1

  9
$DIMBLK2
  1

  9
$DIMSTYLE
  2
STANDARD
  9
$DIMCLRD
 70
     0
  9
$DIMCLRE
 70
     0
  9
$DIMCLRT
 70
     0
  9
$DIMTFAC
 40
1.0
  9
$DIMGAP
 40
0.09
  9
$LUNITS
 70
     2
  9
$LUPREC
 70
     4
  9
$AXISMODE
 70
     0
  9
$AXISUNIT
 10
0.0
 20
0.0
  9
$SKETCHINC
 40
0.1
  9
$FILLETRAD
 40
0.0
  9
$AUNITS
 70
     0
  9
$AUPREC
 70
     0
  9
$MENU
  1
acad
  9
$ELEVATION
 40
0.0
  9
$PELEVATION
 40
0.0
  9
$THICKNESS
 40
0.0
  9
$LIMCHECK
 70
     0
  9
$BLIPMODE
 70
     1
  9
$CHAMFERA
 40
0.0
  9
$CHAMFERB
 40
0.0
  9
$SKPOLY
 70
     0
  9
$TDCREATE
 40
2453013.903842593
  9
$TDUPDATE
 40
2453013.903842593
  9
$TDINDWG
 40
0.0000000000
  9
$TDUSRTIMER
 40
0.0000000000
  9
$USRTIMER
 70
     1
  9
$ANGBASE
 50
0.0
  9
$ANGDIR
 70
     0
  9
$PDMODE
 70
     0
  9
$PDSIZE
 40
0.0
  9
$PLINEWID
 40
0.0
  9
$COORDS
 70
     0
  9
$SPLFRAME
 70
     0
  9
$SPLINETYPE
 70
     6
  9
$SPLINESEGS
 70
    10
  9
$ATTDIA
 70
     0
  9
$ATTREQ
 70
     1
  9
$HANDLING
 70
     1
  9
$HANDSEED
  5
9F
  9
$SURFTAB1
 70
     6
  9
$SURFTAB2
 70
     6
  9
$SURFTYPE
 70
     6
  9
$SURFU
 70
     6
  9
$SURFV
 70
     6
  9
$UCSNAME
  2

  9
$UCSORG
 10
0.0
 20
0.0
 30
0.0
  9
$UCSXDIR
 10
1.0
 20
0.0
 30
0.0
  9
$UCSYDIR
 10
0.0
 20
1.0
 30
0.0
  9
$PUCSNAME
  2

  9
$PUCSORG
 10
0.0
 20
0.0
 30
0.0
  9
$PUCSXDIR
 10
1.0
 20
0.0
 30
0.0
  9
$PUCSYDIR
 10
0.0
 20
1.0
 30
0.0
  9
$USERI1
 70
     0
  9
$USERI2
 70
     0
  9
$USERI3
 70
     0
  9
$USERI4
 70
     0
  9
$USERI5
 70
     0
  9
$USERR1
 40
0.0
  9
$USERR2
 40
0.0
  9
$USERR3
 40
0.0
  9
$USERR4
 40
0.0
  9
$USERR5
 40
0.0
  9
$WORLDVIEW
 70
     1
  9
$SHADEDGE
 70
     3
  9
$SHADEDIF
 70
    70
  9
$TILEMODE
 70
     1
  9
$MAXACTVP
 70
    16
  9
$PINSBASE
 10
0.0
 20
0.0
 30
0.0
  9
$PLIMCHECK
 70
     0
  9
$PEXTMIN
 10
-1.000000E+20
 20
-1.000000E+20
 30
-1.000000E+20
  9
$PEXTMAX
 10
-1.000000E+20
 20
-1.000000E+20
 30
-1.000000E+20
  9
$PLIMMIN
 10
0.0
 20
0.0
  9
$PLIMMAX
 10
12.0
 20
9.0
  9
$UNITMODE
 70
     0
  9
$VISRETAIN
 70
     0
  9
$PLINEGEN
 70
     1
  9
$PSLTSCALE
 70
     0
  9
$TREEDEPTH
 70
  3020
  9
$DWGCODEPAGE
  3
ansi_1252
  0
ENDSEC
  0
SECTION
  2
TABLES
  0
TABLE
  2
VPORT
 70
     1
  0
VPORT
  2
*ACTIVE
 70
     0
 10
0.0
 20
0.0
 11
1.0
 21
1.0
 12
0.0
 22
0.0
 13
0.0
 23
0.0
 14
0.0
 24
0.0
 15
0.0
 25
0.0
 16
0.0
 26
0.0
 36
1.0
 17
917197.332991
 27
7245046.898643
 37
0.0
 40
5497.709
 41
1.220222
 42
50.0
 43
0.004
 44
0.0
 50
1.710462
 51
0.0
 71
     0
 72
   100
 73
     1
 74
     0
 75
     0
 76
     0
 77
     0
 78
     0
  0
ENDTAB
  0
TABLE
  2
LTYPE
 70
     7
  0
LTYPE
  2
CONTINUOUS
 70
     0
  3
Solid line
 72
    65
 73
     0
 40
0.0
  0
LTYPE
  2
DOT
 70
    64
  3
. . . . . . . . . . . . . . . . . . . . . . . . . . . . . . . . .
 72
    65
 73
     2
 40
0.25
 49
0.0
 49
-0.25
  0
LTYPE
  2
HIDDEN
 70
    64
  3
__ __ __ __ __ __ __ __ __ __ __ __ __ __ __ __ __ __ __ __ __ 
 72
    65
 73
     2
 40
0.375
 49
0.25
 49
-0.125
  0
LTYPE
  2
DASHED
 70
    64
  3
__ __ __ __ __ __ __ __ __ __ __ __ __ __ __ __ __ __ __ __ __
 72
    65
 73
     2
 40
0.75
 49
0.5
 49
-0.25
  0
LTYPE
  2
DASHDOT
 70
    64
  3
__ . __ . __ . __ . __ . __ . __ . __ . __ . __ . __ . __ . _
 72
    65
 73
     4
 40
1.0
 49
0.5
 49
-0.25
 49
0.0
 49
-0.25
  0
LTYPE
  2
DIVIDE
 70
    64
  3
____ . . ____ . . ____ . . ____ . . ____ . . ____ . . ____ . .
 72
    65
 73
     6
 40
1.25
 49
0.5
 49
-0.25
 49
0.0
 49
-0.25
 49
0.0
 49
-0.25
  0
LTYPE
  2
CENTER
 70
    64
  3
____ _ ____ _ ____ _ ____ _ ____ _ ____ _ ____ _ ____ _ ____ _
 72
    65
 73
     4
 40
2.0
 49
1.25
 49
-0.25
 49
0.25
 49
-0.25
  0
ENDTAB
  0
TABLE
  2
LAYER
 70
    11
  0
LAYER
  2
0
 70
     0
 62
     7
  6
CONTINUOUS
  0
LAYER
  2
CONSTRUCTION_CLASS
 70
     0
 62
     7
  6
CONTINUOUS
  0
LAYER
  2
PATTERN_CLASS
 70
     0
 62
     7
  6
CONTINUOUS
  0
LAYER
  2
6
 70
    64
 62
     7
  6
CONTINUOUS
  0
LAYER
  2
11
 70
    64
 62
     7
  6
CONTINUOUS
  0
LAYER
  2
1
 70
    64
 62
     7
  6
CONTINUOUS
  0
LAYER
  2
19
 70
    64
 62
     7
  6
CONTINUOUS
  0
LAYER
  2
13
 70
    64
 62
     7
  6
CONTINUOUS
  0
LAYER
  2
21
 70
    64
 62
     7
  6
CONTINUOUS
  0
LAYER
  2
10
 70
    64
 62
     7
  6
CONTINUOUS
  0
LAYER
  2
22
 70
    64
 62
     7
  6
CONTINUOUS
  0
ENDTAB
  0
TABLE
  2
STYLE
 70
     4
  0
STYLE
  2
STANDARD
 70
     0
 40
0.0
 41
1.0
 50
0.0
 71
     0
 42
0.0
  3
txt
  4

  0
STYLE
  2
txt
 70
     0
 40
0.2
 41
1.0
 50
0.0
 71
     0
 42
0.2
  3
TXT
  4

  0
STYLE
  2
ROMANS
 70
     0
 40
0.2
 41
1.0
 50
0.0
 71
     0
 42
0.2
  3
ROMANS
  4

  0
STYLE
  2
ROMANC
 70
     0
 40
0.2
 41
1.0
 50
0.0
 71
     0
 42
0.2
  3
ROMANC
  4

  0
ENDTAB
  0
TABLE
  2
VIEW
 70
     0
  0
ENDTAB
  0
TABLE
  2
UCS
 70
     0
  0
ENDTAB
  0
TABLE
  2
APPID
 70
     1
  0
APPID
  2
ACAD
 70
     0
  0
ENDTAB
  0
TABLE
  2
DIMSTYLE
 70
     1
  0
DIMSTYLE
  2
STANDARD
 70
     0
  3

  4

  5

  6

  7

 40
1.0
 41
0.18
 42
0.0625
 43
0.38
 44
0.18
 45
0.0
 46
0.0
 47
0.0
 48
0.0
140
0.18
141
0.09
142
0.0
143
25.4
144
1.0
145
0.0
146
1.0
147
0.09
 71
     0
 72
     0
 73
     1
 74
     1
 75
     0
 76
     0
 77
     0
 78
     0
170
     0
171
     2
172
     0
173
     0
174
     0
175
     0
176
     0
177
     0
178
     0
  0
ENDTAB
  0
ENDSEC
  0
SECTION
  2
BLOCKS
  0
ENDSEC
  0
SECTION
  2
ENTITIES
  0
LINE
  8
6
  6
CONTINUOUS
 62
     7
  5
29
 10
914992.825
 20
7247867.7
 30
0.0
 11
914818.908
 21
7242587.016
 31
0.0
  0
TEXT
  8
11
  6
CONTINUOUS
 62
     7
  5
2C
 10
914993.566
 20
7247496.791
 30
0.0
 40
8.0
  1
660'
 50
88.162
  7
txt
 72
     4
 11
914989.992296
 21
7247510.139489
 31
0.0
210
0.0
220
0.0
230
1.0
  0
TEXT
  8
11
  6
CONTINUOUS
 62
     7
  5
2D
 10
920209.697
 20
7247608.053
 30
0.0
 40
8.0
  1
660'
 50
88.162
  7
txt
 72
     4
 11
920206.123296
 21
7247621.401489
 31
0.0
210
0.0
220
0.0
230
1.0
  0
TEXT
  8
11
  6
CONTINUOUS
 62
     7
  5
2E
 10
914856.753
 20
7242551.566
 30
0.0
 40
8.0
  1
50'
 50
88.162
  7
txt
 72
     4
 11
914853.063157
 21
7242561.295352
 31
0.0
210
0.0
220
0.0
230
1.0
  0
TEXT
  8
11
  6
CONTINUOUS
 62
     7
  5
2F
 10
919975.914
 20
7242410.611
 30
0.0
 40
8.0
  1
50'
 50
88.162
  7
txt
 72
     4
 11
919972.224157
 21
7242420.340352
 31
0.0
210
0.0
220
0.0
230
1.0
  0
TEXT
  8
11
  6
CONTINUOUS
 62
     7
  5
30
 10
917572.563
 20
7242458.755
 30
0.0
 40
8.0
  1
50'
 50
88.162
  7
txt
 72
     4
 11
917568.873157
 21
7242468.484352
 31
0.0
210
0.0
220
0.0
230
1.0
  0
TEXT
  8
11
  6
CONTINUOUS
 62
     7
  5
31
 10
914916.743
 20
7245102.839
 30
0.0
 40
8.0
  1
4570'
 50
88.162
  7
txt
 72
     4
 11
914913.316803
 21
7245120.784123
 31
0.0
210
0.0
220
0.0
230
1.0
  0
TEXT
  8
11
  6
CONTINUOUS
 62
     7
  5
33
 10
920124.493
 20
7244939.792
 30
0.0
 40
8.0
  1
4570'
 50
88.162
  7
ROMANS
 72
     4
 11
920121.050991
 21
7244957.244377
 31
0.0
210
0.0
220
0.0
230
1.0
  0
TEXT
  8
11
  6
CONTINUOUS
 62
     7
  5
34
 10
914954.905
 20
7247823.44
 30
0.0
 40
8.0
  1
50'
 50
358.162
  7
txt
 72
     4
 11
914964.634352
 21
7247827.129843
 31
0.0
210
0.0
220
0.0
230
1.0
  0
TEXT
  8
11
  6
CONTINUOUS
 62
     7
  5
35
 10
914879.545
 20
7245488.958
 30
0.0
 40
8.0
  1
50'
 50
358.162
  7
txt
 72
     4
 11
914889.274352
 21
7245492.647843
 31
0.0
210
0.0
220
0.0
230
1.0
  0
TEXT
  8
11
  6
CONTINUOUS
 62
     7
  5
36
 10
914790.176
 20
7242625.609
 30
0.0
 40
8.0
  1
50'
 50
358.162
  7
txt
 72
     4
 11
914799.905352
 21
7242629.298843
 31
0.0
210
0.0
220
0.0
230
1.0
  0
TEXT
  8
11
  6
CONTINUOUS
 62
     7
  5
37
 10
917735.404
 20
7242475.623
 30
0.0
 40
8.0
  1
5230'
 50
358.162
  7
txt
 72
     4
 11
917753.129236
 21
7242479.056253
 31
0.0
210
0.0
220
0.0
230
1.0
  0
TEXT
  8
11
  6
CONTINUOUS
 62
     7
  5
38
 10
917679.155
 20
7247766.323
 30
0.0
 40
8.0
  1
5230'
 50
358.162
  7
txt
 72
     4
 11
917696.880236
 21
7247769.756253
 31
0.0
210
0.0
220
0.0
230
1.0
  0
POLYLINE
  8
1
  6
HIDDEN
 62
   253
  5
3A
 66
     1
 10
0.0
 20
0.0
 30
0.0
 70
     1
  0
VERTEX
  8
1
  6
HIDDEN
 62
   253
  5
3B
 10
914729.541
 20
7242591.799
 30
0.0
  0
VERTEX
  8
1
  6
HIDDEN
 62
   253
  5
3C
 10
920018.032
 20
7242393.1
 30
0.0
  0
VERTEX
  8
1
  6
HIDDEN
 62
   253
  5
3D
 10
920215.026
 20
7247706.701
 30
0.0
  0
VERTEX
  8
1
  6
HIDDEN
 62
   253
  5
3E
 10
914943.627
 20
7247893.552
 30
0.0
  0
SEQEND
  8
1
  6
HIDDEN
 62
   253
  5
3F
  0
TEXT
  8
19
  6
CONTINUOUS
 62
     1
  5
42
 10
914882.799
 20
7245122.823
 30
0.0
 40
24.0
  1
MILWAUKEE AVE
 50
88.162
  7
ROMANC
 11
914858.811348
 21
7245123.592768
 31
0.0
210
0.0
220
0.0
230
1.0
 73
     3
  0
TEXT
  8
19
  6
CONTINUOUS
 62
     1
  5
43
 10
920083.614
 20
7244004.422
 30
0.0
 40
24.0
  1
FRANKFORD AVE
 50
88.162
  7
ROMANC
 11
920059.626348
 21
7244005.191768
 31
0.0
210
0.0
220
0.0
230
1.0
 73
     3
  0
TEXT
  8
19
  6
CONTINUOUS
 62
     1
  5
44
 10
914946.429
 20
7247362.231
 30
0.0
 40
24.0
  1
MILWAUKEE AVE
 50
88.162
  7
ROMANC
 11
914922.441348
 21
7247363.000768
 31
0.0
210
0.0
220
0.0
230
1.0
 73
     3
  0
TEXT
  8
19
  6
CONTINUOUS
 62
     1
  5
45
 10
914815.741
 20
7242931.338
 30
0.0
 40
24.0
  1
MILWAUKEE AVE
 50
88.162
  7
ROMANC
 11
914791.753348
 21
7242932.107768
 31
0.0
210
0.0
220
0.0
230
1.0
 73
     3
  0
TEXT
  8
19
  6
CONTINUOUS
 62
     1
  5
46
 10
920148.933
 20
7245358.453
 30
0.0
 40
24.0
  1
FRANKFORD AVE
 50
88.162
  7
ROMANC
 11
920124.945348
 21
7245359.222768
 31
0.0
210
0.0
220
0.0
230
1.0
 73
     3
  0
TEXT
  8
19
  6
CONTINUOUS
 62
     1
  5
47
 10
915214.152
 20
7247837.81
 30
0.0
 40
24.0
  1
98TH ST
 50
358.162
  7
ROMANC
 11
915214.921768
 21
7247861.797652
 31
0.0
210
0.0
220
0.0
230
1.0
 73
     3
  0
TEXT
  8
19
  6
CONTINUOUS
 62
     1
  5
48
 10
919933.317
 20
7247688.879
 30
0.0
 40
24.0
  1
98TH ST
 50
358.162
  7
ROMANC
 11
919934.086768
 21
7247712.866652
 31
0.0
210
0.0
220
0.0
230
1.0
 73
     3
  0
TEXT
  8
19
  6
CONTINUOUS
 62
     1
  5
49
 10
916149.616
 20
7242502.161
 30
0.0
 40
24.0
  1
114TH ST
 50
358.162
  7
ROMANC
 11
916150.385768
 21
7242526.148652
 31
0.0
210
0.0
220
0.0
230
1.0
 73
     3
  0
TEXT
  8
19
  6
CONTINUOUS
 62
     1
  5
4A
 10
918714.843
 20
7242430.476
 30
0.0
 40
24.0
  1
114TH ST
 50
358.162
  7
ROMANC
 11
918715.612768
 21
7242454.463652
 31
0.0
210
0.0
220
0.0
230
1.0
 73
     3
  0
TEXT
  8
19
  6
CONTINUOUS
 62
     1
  5
4B
 10
917487.0
 20
7247760.159
 30
0.0
 40
24.0
  1
98TH ST
 50
358.162
  7
ROMANC
 11
917487.769768
 21
7247784.146652
 31
0.0
210
0.0
220
0.0
230
1.0
 73
     3
  0
TEXT
  8
13
  6
CONTINUOUS
 62
    14
  5
4D
 10
916292.713
 20
7247785.669
 30
0.0
 40
8.0
  1
V6278 P224
 50
358.2677
  7
ROMANS
 72
     4
 11
916331.1494
 21
7247788.508376
 31
0.0
210
0.0
220
0.0
230
1.0
  0
POLYLINE
  8
21
  6
DASHDOT
 62
     7
  5
4F
 66
     1
 10
0.0
 20
0.0
 30
0.0
 70
     1
  0
VERTEX
  8
21
  6
DASHDOT
 62
     7
  5
50
 10
917576.966
 20
7247760.508
 30
0.0
  0
VERTEX
  8
21
  6
DASHDOT
 62
     7
  5
51
 10
914938.466
 20
7247849.525
 30
0.0
  0
VERTEX
  8
21
  6
DASHDOT
 62
     7
  5
52
 10
914938.169
 20
7247839.529
 30
0.0
  0
VERTEX
  8
21
  6
DASHDOT
 62
     7
  5
53
 10
917576.668
 20
7247750.512
 30
0.0
  0
SEQEND
  8
21
  6
DASHDOT
 62
     7
  5
54
  0
TEXT
  8
13
  6
CONTINUOUS
 62
    14
  5
55
 10
918503.53
 20
7247720.735
 30
0.0
 40
8.0
  1
V6278 P221
 50
358.2677
  7
ROMANS
 72
     4
 11
918540.966857
 21
7247723.604605
 31
0.0
210
0.0
220
0.0
230
1.0
  0
TEXT
  8
13
  6
CONTINUOUS
 62
    14
  5
56
 10
918495.943
 20
7247734.877
 30
0.0
 40
8.0
  1
V5737 P329
 50
358.2677
  7
ROMANS
 72
     4
 11
918534.3794
 21
7247737.716376
 31
0.0
210
0.0
220
0.0
230
1.0
  0
POLYLINE
  8
21
  6
DASHDOT
 62
     7
  5
57
 66
     1
 10
0.0
 20
0.0
 30
0.0
 70
     1
  0
VERTEX
  8
21
  6
DASHDOT
 62
     7
  5
58
 10
919366.543
 20
7247720.142
 30
0.0
  0
VERTEX
  8
21
  6
DASHDOT
 62
     7
  5
59
 10
917577.562
 20
7247780.499
 30
0.0
  0
VERTEX
  8
21
  6
DASHDOT
 62
     7
  5
5A
 10
917576.966
 20
7247760.508
 30
0.0
  0
VERTEX
  8
21
  6
DASHDOT
 62
     7
  5
5B
 10
919365.947
 20
7247700.151
 30
0.0
  0
VERTEX
  8
21
  6
DASHDOT
 62
     7
  5
5C
 10
919366.543
 20
7247720.142
 30
0.0
  0
SEQEND
  8
21
  6
DASHDOT
 62
     7
  5
5D
  0
POLYLINE
  8
21
  6
DASHDOT
 62
     7
  5
5E
 66
     1
 10
0.0
 20
0.0
 30
0.0
 70
     1
  0
VERTEX
  8
21
  6
DASHDOT
 62
     7
  5
5F
 10
919365.947
 20
7247700.151
 30
0.0
  0
VERTEX
  8
21
  6
DASHDOT
 62
     7
  5
60
 10
917576.966
 20
7247760.507
 30
0.0
  0
VERTEX
  8
21
  6
DASHDOT
 62
     7
  5
61
 10
917576.668
 20
7247750.512
 30
0.0
  0
VERTEX
  8
21
  6
DASHDOT
 62
     7
  5
62
 10
919365.651
 20
7247690.156
 30
0.0
  0
SEQEND
  8
21
  6
DASHDOT
 62
     7
  5
63
  0
POLYLINE
  8
21
  6
DASHDOT
 62
     7
  5
64
 66
     1
 10
0.0
 20
0.0
 30
0.0
 70
     1
  0
VERTEX
  8
21
  6
DASHDOT
 62
     7
  5
65
 10
920160.199
 20
7247663.351
 30
0.0
  0
VERTEX
  8
21
  6
DASHDOT
 62
     7
  5
66
 10
919365.653
 20
7247690.158
 30
0.0
  0
VERTEX
  8
21
  6
DASHDOT
 62
     7
  5
67
 10
919363.419
 20
7247615.19
 30
0.0
  0
VERTEX
  8
21
  6
DASHDOT
 62
     7
  5
68
 10
920157.968
 20
7247588.384
 30
0.0
  0
SEQEND
  8
21
  6
DASHDOT
 62
     7
  5
69
  0
POLYLINE
  8
21
  6
DASHDOT
 62
     7
  5
6A
 66
     1
 10
0.0
 20
0.0
 30
0.0
 70
     1
  0
VERTEX
  8
21
  6
DASHDOT
 62
     7
  5
6B
 10
920160.496
 20
7247673.346
 30
0.0
  0
VERTEX
  8
21
  6
DASHDOT
 62
     7
  5
6C
 10
919365.948
 20
7247700.153
 30
0.0
  0
VERTEX
  8
21
  6
DASHDOT
 62
     7
  5
6D
 10
919365.652
 20
7247690.158
 30
0.0
  0
VERTEX
  8
21
  6
DASHDOT
 62
     7
  5
6E
 10
920160.199
 20
7247663.351
 30
0.0
  0
SEQEND
  8
21
  6
DASHDOT
 62
     7
  5
6F
  0
POLYLINE
  8
21
  6
DASHDOT
 62
     7
  5
70
 66
     1
 10
0.0
 20
0.0
 30
0.0
 70
     1
  0
VERTEX
  8
21
  6
DASHDOT
 62
     7
  5
71
 10
920161.091
 20
7247693.337
 30
0.0
  0
VERTEX
  8
21
  6
DASHDOT
 62
     7
  5
72
 10
919366.543
 20
7247720.142
 30
0.0
  0
VERTEX
  8
21
  6
DASHDOT
 62
     7
  5
73
 10
919365.947
 20
7247700.151
 30
0.0
  0
VERTEX
  8
21
  6
DASHDOT
 62
     7
  5
74
 10
920160.496
 20
7247673.346
 30
0.0
  0
VERTEX
  8
21
  6
DASHDOT
 62
     7
  5
75
 10
920161.091
 20
7247693.337
 30
0.0
  0
SEQEND
  8
21
  6
DASHDOT
 62
     7
  5
76
  0
TEXT
  8
13
  6
CONTINUOUS
 62
    14
  5
77
 10
919796.336
 20
7247673.027
 30
0.0
 40
8.0
  1
V6258 P040
 50
358.2677
  7
ROMANS
 72
     4
 11
919835.090255
 21
7247675.856763
 31
0.0
210
0.0
220
0.0
230
1.0
  0
TEXT
  8
13
  6
CONTINUOUS
 62
    14
  5
78
 10
919759.756
 20
7247695.874
 30
0.0
 40
8.0
  1
V5737 P332 T1
 50
358.2677
  7
ROMANS
 72
     4
 11
919809.187373
 21
7247698.380849
 31
0.0
210
0.0
220
0.0
230
1.0
  0
TEXT
  8
13
  6
CONTINUOUS
 62
    14
  5
79
 10
919799.444
 20
7247643.952
 30
0.0
 40
8.0
  1
V5737 P332 T2
 50
358.2677
  7
ROMANS
 72
     4
 11
919849.874916
 21
7247646.428619
 31
0.0
210
0.0
220
0.0
230
1.0
  0
POLYLINE
  8
21
  6
DASHDOT
 62
     7
  5
7A
 66
     1
 10
0.0
 20
0.0
 30
0.0
  0
VERTEX
  8
21
  6
DASHDOT
 62
     7
  5
7B
 10
920161.431
 20
7247708.367
 30
0.0
  0
VERTEX
  8
21
  6
DASHDOT
 62
     7
  5
7C
 10
920136.798
 20
7246940.762
 30
0.0
  0
VERTEX
  8
21
  6
DASHDOT
 62
     7
  5
7D
 10
920106.814
 20
7246941.724
 30
0.0
  0
VERTEX
  8
21
  6
DASHDOT
 62
     7
  5
7E
 10
920131.446
 20
7247709.329
 30
0.0
  0
VERTEX
  8
21
  6
DASHDOT
 62
     7
  5
7F
 10
920161.431
 20
7247708.367
 30
0.0
  0
SEQEND
  8
21
  6
DASHDOT
 62
     7
  5
80
  0
TEXT
  8
13
  6
CONTINUOUS
 62
    14
  5
81
 10
920127.397
 20
7247011.591
 30
0.0
 40
8.0
  1
V6674 P170
 50
88.162
  7
txt
 72
     4
 11
920124.607176
 21
7247049.366915
 31
0.0
210
0.0
220
0.0
230
1.0
  0
LINE
  8
6
  6
CONTINUOUS
 62
     7
  5
82
 10
919998.095
 20
7242438.663
 30
0.0
 11
920161.091
 21
7247693.337
 31
0.0
  0
LINE
  8
6
  6
CONTINUOUS
 62
     7
  5
83
 10
914992.807
 20
7247867.701
 30
0.0
 11
920161.091
 21
7247693.337
 31
0.0
  0
LINE
  8
6
  6
CONTINUOUS
 62
     7
  5
84
 10
914818.908
 20
7242587.016
 30
0.0
 11
919998.095
 21
7242438.663
 31
0.0
  0
TEXT
  8
10
  6
CONTINUOUS
 62
   134
  5
86
 10
917348.351
 20
7245022.87
 30
0.0
 40
13.999
  1
UNSUBDIVIDED
 50
358.162
  7
ROMANS
 11
917348.799999
 21
7245036.861798
 31
0.0
210
0.0
220
0.0
230
1.0
 73
     3
  0
TEXT
  8
22
  6
CONTINUOUS
 62
     3
  5
88
 10
916083.504
 20
7247784.017
 30
0.0
 40
6.0
  1
10'WATERLINE EASEMENT
 50
358.2677
  7
ROMANS
 72
     4
 11
916145.566354
 21
7247785.141386
 31
0.0
210
0.0
220
0.0
230
1.0
  0
TEXT
  8
22
  6
CONTINUOUS
 62
     3
  5
89
 10
918225.474
 20
7247729.202
 30
0.0
 40
6.0
  1
10'WATER LINE EASEMENT
 50
358.2677
  7
ROMANS
 72
     4
 11
918290.534983
 21
7247730.235696
 31
0.0
210
0.0
220
0.0
230
1.0
  0
TEXT
  8
22
  6
CONTINUOUS
 62
     3
  5
8A
 10
918213.152
 20
7247746.076
 30
0.0
 40
6.0
  1
20'SANITARY SEWER LINE EASEMENT
 50
358.2677
  7
ROMANS
 72
     4
 11
918305.200643
 21
7247746.293494
 31
0.0
210
0.0
220
0.0
230
1.0
  0
TEXT
  8
22
  6
CONTINUOUS
 62
     3
  5
8B
 10
919538.02
 20
7247701.689
 30
0.0
 40
6.0
  1
20'SANITARY SEWER LINE EASEMENT
 50
358.2677
  7
ROMANS
 72
     4
 11
919630.068643
 21
7247701.906494
 31
0.0
210
0.0
220
0.0
230
1.0
  0
TEXT
  8
22
  6
CONTINUOUS
 62
     3
  5
8C
 10
919547.055
 20
7247685.782
 30
0.0
 40
6.0
  1
10'WATER LINE EASEMENT
 50
358.2677
  7
ROMANS
 72
     4
 11
919612.115983
 21
7247686.815696
 31
0.0
210
0.0
220
0.0
230
1.0
  0
TEXT
  8
22
  6
CONTINUOUS
 62
     3
  5
8D
 10
919579.011
 20
7247633.01
 30
0.0
 40
6.0
  1
75'TEMPORARY WORKING EASEMENT
 50
358.2677
  7
ROMANS
 72
     4
 11
919665.062385
 21
7247633.408872
 31
0.0
210
0.0
220
0.0
230
1.0
  0
TEXT
  8
22
  6
CONTINUOUS
 62
     3
  5
8E
 10
920120.05
 20
7247104.708
 30
0.0
 40
6.0
  1
30' SSE
 50
88.162
  7
txt
 72
     4
 11
920117.57428
 21
7247121.093836
 31
0.0
210
0.0
220
0.0
230
1.0
  0
TEXT
  8
22
  6
CONTINUOUS
 62
     3
  5
8F
 10
920137.554
 20
7247035.74
 30
0.0
 40
6.0
  1
768'
 50
88.162
  7
txt
 72
     4
 11
920134.879808
 21
7247045.941019
 31
0.0
210
0.0
220
0.0
230
1.0
  0
TEXT
  8
22
  6
CONTINUOUS
 62
     3
  5
90
 10
920108.007
 20
7247041.023
 30
0.0
 40
6.0
  1
768'
 50
88.162
  7
txt
 72
     4
 11
920105.332808
 21
7247051.224019
 31
0.0
210
0.0
220
0.0
230
1.0
  0
POLYLINE
  8
21
  6
DASHDOT
 62
     7
  5
91
 66
     1
 10
0.0
 20
0.0
 30
0.0
 70
     1
  0
VERTEX
  8
21
  6
DASHDOT
 62
     7
  5
92
 10
920136.798
 20
7246940.762
 30
0.0
  0
VERTEX
  8
21
  6
DASHDOT
 62
     7
  5
93
 10
920129.425
 20
7246693.872
 30
0.0
  0
VERTEX
  8
21
  6
DASHDOT
 62
     7
  5
94
 10
920099.438
 20
7246694.768
 30
0.0
  0
VERTEX
  8
21
  6
DASHDOT
 62
     7
  5
95
 10
920106.815
 20
7246941.658
 30
0.0
  0
SEQEND
  8
21
  6
DASHDOT
 62
     7
  5
96
  0
TEXT
  8
13
  6
CONTINUOUS
 62
    14
  5
97
 10
920118.889
 20
7246726.55
 30
0.0
 40
8.0
  1
V6917 P145
 50
88.162
  7
txt
 72
     4
 11
920116.04866
 21
7246762.751726
 31
0.0
210
0.0
220
0.0
230
1.0
  0
TEXT
  8
22
  6
CONTINUOUS
 62
     3
  5
98
 10
920122.237
 20
7246836.015
 30
0.0
 40
6.0
  1
30' SSE
 50
86.740039
  7
txt
 72
     4
 11
920120.168663
 21
7246852.457226
 31
0.0
210
0.0
220
0.0
230
1.0
  0
SOLID
  8
21
  6
DASHDOT
 62
     7
  5
99
 10
920216.062
 20
7247691.695
 30
0.0
 11
920196.362
 21
7247031.989
 31
0.0
 12
920161.091
 22
7247693.337
 32
0.0
 13
920141.387
 23
7247033.631
 33
0.0
  0
TEXT
  8
19
  6
CONTINUOUS
 62
     1
  5
9A
 10
920187.55
 20
7247244.977
 30
0.0
 40
24.0
  1
FRANKFORD AVE
 50
88.162
  7
ROMANC
 11
920163.562348
 21
7247245.746768
 31
0.0
210
0.0
220
0.0
230
1.0
 73
     3
  0
TEXT
  8
13
  6
CONTINUOUS
 62
    14
  5
9B
 10
920172.267
 20
7247138.493
 30
0.0
 40
8.0
  1
V2741 P183
 50
86.740039
  7
txt
 72
     4
 11
920170.265047
 21
7247173.685793
 31
0.0
210
0.0
220
0.0
230
1.0
  0
ENDSEC
  0
EOF
