  0
SECTION
  2
HEADER
  9
$ACADVER
  1
AC1009
  9
$INSBASE
 10
0.0
 20
0.0
 30
0.0
  9
$EXTMIN
 10
946443.43
 20
7241454.455
 30
0.0
  9
$EXTMAX
 10
951887.797
 20
7246898.822
 30
0.0
  9
$LIMMIN
 10
0.0
 20
0.0
  9
$LIMMAX
 10
12.0
 20
9.0
  9
$ORTHOMODE
 70
     0
  9
$REGENMODE
 70
     1
  9
$FILLMODE
 70
     1
  9
$QTEXTMODE
 70
     0
  9
$MIRRTEXT
 70
     1
  9
$DRAGMODE
 70
     2
  9
$LTSCALE
 40
1.0
  9
$OSMODE
 70
     0
  9
$ATTMODE
 70
     1
  9
$TEXTSIZE
 40
0.2
  9
$TRACEWID
 40
0.05
  9
$TEXTSTYLE
  7
STANDARD
  9
$CLAYER
  8
0
  9
$CELTYPE
  6
CONTINUOUS
  9
$CECOLOR
 62
   256
  9
$DIMSCALE
 40
1.0
  9
$DIMASZ
 40
0.18
  9
$DIMEXO
 40
0.0625
  9
$DIMDLI
 40
0.38
  9
$DIMRND
 40
0.0
  9
$DIMDLE
 40
0.0
  9
$DIMEXE
 40
0.18
  9
$DIMTP
 40
0.0
  9
$DIMTM
 40
0.0
  9
$DIMTXT
 40
0.18
  9
$DIMCEN
 40
0.09
  9
$DIMTSZ
 40
0.0
  9
$DIMTOL
 70
     0
  9
$DIMLIM
 70
     0
  9
$DIMTIH
 70
     1
  9
$DIMTOH
 70
     1
  9
$DIMSE1
 70
     0
  9
$DIMSE2
 70
     0
  9
$DIMTAD
 70
     0
  9
$DIMZIN
 70
     0
  9
$DIMBLK
  1

  9
$DIMASO
 70
     1
  9
$DIMSHO
 70
     1
  9
$DIMPOST
  1

  9
$DIMAPOST
  1

  9
$DIMALT
 70
     0
  9
$DIMALTD
 70
     2
  9
$DIMALTF
 40
25.4
  9
$DIMLFAC
 40
1.0
  9
$DIMTOFL
 70
     0
  9
$DIMTVP
 40
0.0
  9
$DIMTIX
 70
     0
  9
$DIMSOXD
 70
     0
  9
$DIMSAH
 70
     0
  9
$DIMBLK1
  1

  9
$DIMBLK2
  1

  9
$DIMSTYLE
  2
STANDARD
  9
$DIMCLRD
 70
     0
  9
$DIMCLRE
 70
     0
  9
$DIMCLRT
 70
     0
  9
$DIMTFAC
 40
1.0
  9
$DIMGAP
 40
0.09
  9
$LUNITS
 70
     2
  9
$LUPREC
 70
     4
  9
$AXISMODE
 70
     0
  9
$AXISUNIT
 10
0.0
 20
0.0
  9
$SKETCHINC
 40
0.1
  9
$FILLETRAD
 40
0.0
  9
$AUNITS
 70
     0
  9
$AUPREC
 70
     0
  9
$MENU
  1
acad
  9
$ELEVATION
 40
0.0
  9
$PELEVATION
 40
0.0
  9
$THICKNESS
 40
0.0
  9
$LIMCHECK
 70
     0
  9
$BLIPMODE
 70
     1
  9
$CHAMFERA
 40
0.0
  9
$CHAMFERB
 40
0.0
  9
$SKPOLY
 70
     0
  9
$TDCREATE
 40
2453013.903587963
  9
$TDUPDATE
 40
2453013.903587963
  9
$TDINDWG
 40
0.0000000000
  9
$TDUSRTIMER
 40
0.0000000000
  9
$USRTIMER
 70
     1
  9
$ANGBASE
 50
0.0
  9
$ANGDIR
 70
     0
  9
$PDMODE
 70
     0
  9
$PDSIZE
 40
0.0
  9
$PLINEWID
 40
0.0
  9
$COORDS
 70
     0
  9
$SPLFRAME
 70
     0
  9
$SPLINETYPE
 70
     6
  9
$SPLINESEGS
 70
    10
  9
$ATTDIA
 70
     0
  9
$ATTREQ
 70
     1
  9
$HANDLING
 70
     1
  9
$HANDSEED
  5
87
  9
$SURFTAB1
 70
     6
  9
$SURFTAB2
 70
     6
  9
$SURFTYPE
 70
     6
  9
$SURFU
 70
     6
  9
$SURFV
 70
     6
  9
$UCSNAME
  2

  9
$UCSORG
 10
0.0
 20
0.0
 30
0.0
  9
$UCSXDIR
 10
1.0
 20
0.0
 30
0.0
  9
$UCSYDIR
 10
0.0
 20
1.0
 30
0.0
  9
$PUCSNAME
  2

  9
$PUCSORG
 10
0.0
 20
0.0
 30
0.0
  9
$PUCSXDIR
 10
1.0
 20
0.0
 30
0.0
  9
$PUCSYDIR
 10
0.0
 20
1.0
 30
0.0
  9
$USERI1
 70
     0
  9
$USERI2
 70
     0
  9
$USERI3
 70
     0
  9
$USERI4
 70
     0
  9
$USERI5
 70
     0
  9
$USERR1
 40
0.0
  9
$USERR2
 40
0.0
  9
$USERR3
 40
0.0
  9
$USERR4
 40
0.0
  9
$USERR5
 40
0.0
  9
$WORLDVIEW
 70
     1
  9
$SHADEDGE
 70
     3
  9
$SHADEDIF
 70
    70
  9
$TILEMODE
 70
     1
  9
$MAXACTVP
 70
    16
  9
$PINSBASE
 10
0.0
 20
0.0
 30
0.0
  9
$PLIMCHECK
 70
     0
  9
$PEXTMIN
 10
-1.000000E+20
 20
-1.000000E+20
 30
-1.000000E+20
  9
$PEXTMAX
 10
-1.000000E+20
 20
-1.000000E+20
 30
-1.000000E+20
  9
$PLIMMIN
 10
0.0
 20
0.0
  9
$PLIMMAX
 10
12.0
 20
9.0
  9
$UNITMODE
 70
     0
  9
$VISRETAIN
 70
     0
  9
$PLINEGEN
 70
     1
  9
$PSLTSCALE
 70
     0
  9
$TREEDEPTH
 70
  3020
  9
$DWGCODEPAGE
  3
ansi_1252
  0
ENDSEC
  0
SECTION
  2
TABLES
  0
TABLE
  2
VPORT
 70
     1
  0
VPORT
  2
*ACTIVE
 70
     0
 10
0.0
 20
0.0
 11
1.0
 21
1.0
 12
0.0
 22
0.0
 13
0.0
 23
0.0
 14
0.0
 24
0.0
 15
0.0
 25
0.0
 16
0.0
 26
0.0
 36
1.0
 17
948848.262015
 27
7244027.54978
 37
0.0
 40
5262.372
 41
1.225627
 42
50.0
 43
0.004
 44
0.0
 50
1.812596
 51
0.0
 71
     0
 72
   100
 73
     1
 74
     0
 75
     0
 76
     0
 77
     0
 78
     0
  0
ENDTAB
  0
TABLE
  2
LTYPE
 70
     7
  0
LTYPE
  2
CONTINUOUS
 70
     0
  3
Solid line
 72
    65
 73
     0
 40
0.0
  0
LTYPE
  2
DOT
 70
    64
  3
. . . . . . . . . . . . . . . . . . . . . . . . . . . . . . . . .
 72
    65
 73
     2
 40
0.25
 49
0.0
 49
-0.25
  0
LTYPE
  2
HIDDEN
 70
    64
  3
__ __ __ __ __ __ __ __ __ __ __ __ __ __ __ __ __ __ __ __ __ 
 72
    65
 73
     2
 40
0.375
 49
0.25
 49
-0.125
  0
LTYPE
  2
DASHED
 70
    64
  3
__ __ __ __ __ __ __ __ __ __ __ __ __ __ __ __ __ __ __ __ __
 72
    65
 73
     2
 40
0.75
 49
0.5
 49
-0.25
  0
LTYPE
  2
DASHDOT
 70
    64
  3
__ . __ . __ . __ . __ . __ . __ . __ . __ . __ . __ . __ . _
 72
    65
 73
     4
 40
1.0
 49
0.5
 49
-0.25
 49
0.0
 49
-0.25
  0
LTYPE
  2
DIVIDE
 70
    64
  3
____ . . ____ . . ____ . . ____ . . ____ . . ____ . . ____ . .
 72
    65
 73
     6
 40
1.25
 49
0.5
 49
-0.25
 49
0.0
 49
-0.25
 49
0.0
 49
-0.25
  0
LTYPE
  2
CENTER
 70
    64
  3
____ _ ____ _ ____ _ ____ _ ____ _ ____ _ ____ _ ____ _ ____ _
 72
    65
 73
     4
 40
2.0
 49
1.25
 49
-0.25
 49
0.25
 49
-0.25
  0
ENDTAB
  0
TABLE
  2
LAYER
 70
     9
  0
LAYER
  2
0
 70
     0
 62
     7
  6
CONTINUOUS
  0
LAYER
  2
CONSTRUCTION_CLASS
 70
     1
 62
     7
  6
CONTINUOUS
  0
LAYER
  2
PATTERN_CLASS
 70
     0
 62
     7
  6
CONTINUOUS
  0
LAYER
  2
6
 70
    64
 62
     7
  6
CONTINUOUS
  0
LAYER
  2
11
 70
    64
 62
     7
  6
CONTINUOUS
  0
LAYER
  2
1
 70
    64
 62
     7
  6
CONTINUOUS
  0
LAYER
  2
19
 70
    64
 62
     7
  6
CONTINUOUS
  0
LAYER
  2
10
 70
    64
 62
     7
  6
CONTINUOUS
  0
LAYER
  2
58
 70
    64
 62
     7
  6
CONTINUOUS
  0
ENDTAB
  0
TABLE
  2
STYLE
 70
     3
  0
STYLE
  2
STANDARD
 70
     0
 40
0.0
 41
1.0
 50
0.0
 71
     0
 42
0.0
  3
txt
  4

  0
STYLE
  2
ROMANS
 70
     0
 40
0.2
 41
1.0
 50
0.0
 71
     0
 42
0.2
  3
ROMANS
  4

  0
STYLE
  2
ROMANC
 70
     0
 40
0.2
 41
1.0
 50
0.0
 71
     0
 42
0.2
  3
ROMANC
  4

  0
ENDTAB
  0
TABLE
  2
VIEW
 70
     0
  0
ENDTAB
  0
TABLE
  2
UCS
 70
     0
  0
ENDTAB
  0
TABLE
  2
APPID
 70
     1
  0
APPID
  2
ACAD
 70
     0
  0
ENDTAB
  0
TABLE
  2
DIMSTYLE
 70
     1
  0
DIMSTYLE
  2
STANDARD
 70
     0
  3

  4

  5

  6

  7

 40
1.0
 41
0.18
 42
0.0625
 43
0.38
 44
0.18
 45
0.0
 46
0.0
 47
0.0
 48
0.0
140
0.18
141
0.09
142
0.0
143
25.4
144
1.0
145
0.0
146
1.0
147
0.09
 71
     0
 72
     0
 73
     1
 74
     1
 75
     0
 76
     0
 77
     0
 78
     0
170
     0
171
     2
172
     0
173
     0
174
     0
175
     0
176
     0
177
     0
178
     0
  0
ENDTAB
  0
ENDSEC
  0
SECTION
  2
BLOCKS
  0
ENDSEC
  0
SECTION
  2
ENTITIES
  0
LINE
  8
6
  6
CONTINUOUS
 62
     7
  5
29
 10
946445.011
 20
7241671.439
 30
0.0
 11
948738.873
 21
7241598.846
 31
0.0
  0
LINE
  8
6
  6
CONTINUOUS
 62
     7
  5
2A
 10
948738.873
 20
7241598.846
 30
0.0
 11
948792.026
 21
7241648.738
 31
0.0
  0
LINE
  8
6
  6
CONTINUOUS
 62
     7
  5
2B
 10
946608.857
 20
7246848.847
 30
0.0
 11
948772.774
 21
7246780.367
 31
0.0
  0
LINE
  8
6
  6
CONTINUOUS
 62
     7
  5
2C
 10
948772.774
 20
7246780.367
 30
0.0
 11
948772.458
 21
7246770.372
 31
0.0
  0
LINE
  8
6
  6
CONTINUOUS
 62
     7
  5
2D
 10
948772.458
 20
7246770.372
 30
0.0
 11
948902.393
 21
7246766.26
 31
0.0
  0
LINE
  8
6
  6
CONTINUOUS
 62
     7
  5
2E
 10
948902.393
 20
7246766.26
 30
0.0
 11
948952.285
 21
7246713.107
 31
0.0
  0
LINE
  8
6
  6
CONTINUOUS
 62
     7
  5
2F
 10
948920.736
 20
7244184.388
 30
0.0
 11
948977.038
 21
7245963.497
 31
0.0
  0
LINE
  8
6
  6
CONTINUOUS
 62
     7
  5
30
 10
948977.038
 20
7245963.497
 30
0.0
 11
948952.285
 21
7246713.107
 31
0.0
  0
LINE
  8
6
  6
CONTINUOUS
 62
     7
  5
31
 10
948920.736
 20
7244184.388
 30
0.0
 11
948864.122
 21
7242395.433
 31
0.0
  0
LINE
  8
6
  6
CONTINUOUS
 62
     7
  5
32
 10
948792.026
 20
7241648.738
 30
0.0
 11
948864.122
 21
7242395.433
 31
0.0
  0
LINE
  8
6
  6
CONTINUOUS
 62
     7
  5
33
 10
949281.202
 20
7246248.391
 30
0.0
 11
949149.821
 21
7242096.857
 31
0.0
  0
LINE
  8
6
  6
CONTINUOUS
 62
     7
  5
34
 10
951722.369
 20
7241504.43
 30
0.0
 11
949218.623
 21
7241583.664
 31
0.0
  0
LINE
  8
6
  6
CONTINUOUS
 62
     7
  5
35
 10
949218.623
 20
7241583.664
 30
0.0
 11
949168.593
 21
7241636.963
 31
0.0
  0
LINE
  8
6
  6
CONTINUOUS
 62
     7
  5
36
 10
949168.593
 20
7241636.963
 30
0.0
 11
949149.821
 21
7242096.857
 31
0.0
  0
LINE
  8
6
  6
CONTINUOUS
 62
     7
  5
37
 10
951886.216
 20
7246681.838
 30
0.0
 11
949518.821
 21
7246756.757
 31
0.0
  0
LINE
  8
6
  6
CONTINUOUS
 62
     7
  5
38
 10
949518.821
 20
7246756.757
 30
0.0
 11
949518.504
 21
7246746.762
 31
0.0
  0
LINE
  8
6
  6
CONTINUOUS
 62
     7
  5
39
 10
949518.504
 20
7246746.762
 30
0.0
 11
949388.569
 21
7246750.874
 31
0.0
  0
LINE
  8
6
  6
CONTINUOUS
 62
     7
  5
3A
 10
949388.569
 20
7246750.874
 30
0.0
 11
949335.27
 21
7246700.845
 31
0.0
  0
LINE
  8
6
  6
CONTINUOUS
 62
     7
  5
3B
 10
949335.27
 20
7246700.845
 30
0.0
 11
949281.202
 21
7246248.391
 31
0.0
  0
TEXT
  8
11
  6
CONTINUOUS
 62
     7
  5
3E
 10
949098.74
 20
7245893.043
 30
0.0
 40
8.0
  1
295'
 50
358.1874
  7
ROMANS
 72
     4
 11
949112.192851
 21
7245896.619268
 31
0.0
210
0.0
220
0.0
230
1.0
  0
TEXT
  8
11
  6
CONTINUOUS
 62
     7
  5
3F
 10
948991.662
 20
7242509.484
 30
0.0
 40
8.0
  1
295'
 50
358.1874
  7
ROMANS
 72
     4
 11
949005.114851
 21
7242513.060268
 31
0.0
210
0.0
220
0.0
230
1.0
  0
TEXT
  8
11
  6
CONTINUOUS
 62
     7
  5
40
 10
949025.271
 20
7243571.478
 30
0.0
 40
8.0
  1
295'
 50
358.1874
  7
ROMANS
 72
     4
 11
949038.723851
 21
7243575.054268
 31
0.0
210
0.0
220
0.0
230
1.0
  0
TEXT
  8
11
  6
CONTINUOUS
 62
     7
  5
41
 10
949059.139
 20
7244641.703
 30
0.0
 40
8.0
  1
295'
 50
358.1874
  7
ROMANS
 72
     4
 11
949072.591851
 21
7244645.279268
 31
0.0
210
0.0
220
0.0
230
1.0
  0
TEXT
  8
11
  6
CONTINUOUS
 62
     7
  5
42
 10
946672.615
 20
7246862.801
 30
0.0
 40
8.0
  1
50'
 50
88.1874
  7
ROMANS
 72
     4
 11
946668.91221
 21
7246872.255852
 31
0.0
210
0.0
220
0.0
230
1.0
  0
TEXT
  8
11
  6
CONTINUOUS
 62
     7
  5
43
 10
948704.585
 20
7246798.497
 30
0.0
 40
8.0
  1
50'
 50
88.1874
  7
ROMANS
 72
     4
 11
948700.88221
 21
7246807.951852
 31
0.0
210
0.0
220
0.0
230
1.0
  0
TEXT
  8
11
  6
CONTINUOUS
 62
     7
  5
44
 10
949572.491
 20
7246771.031
 30
0.0
 40
8.0
  1
50'
 50
88.1874
  7
ROMANS
 72
     4
 11
949568.78821
 21
7246780.485852
 31
0.0
210
0.0
220
0.0
230
1.0
  0
TEXT
  8
11
  6
CONTINUOUS
 62
     7
  5
45
 10
948108.156
 20
7246817.372
 30
0.0
 40
8.0
  1
50'
 50
88.1874
  7
ROMANS
 72
     4
 11
948104.45321
 21
7246826.826852
 31
0.0
210
0.0
220
0.0
230
1.0
  0
TEXT
  8
11
  6
CONTINUOUS
 62
     7
  5
46
 10
947223.797
 20
7246845.358
 30
0.0
 40
8.0
  1
50'
 50
88.1874
  7
ROMANS
 72
     4
 11
947220.09421
 21
7246854.812852
 31
0.0
210
0.0
220
0.0
230
1.0
  0
TEXT
  8
11
  6
CONTINUOUS
 62
     7
  5
47
 10
951820.142
 20
7246699.901
 30
0.0
 40
8.0
  1
50'
 50
88.1874
  7
ROMANS
 72
     4
 11
951816.43921
 21
7246709.355852
 31
0.0
210
0.0
220
0.0
230
1.0
  0
TEXT
  8
11
  6
CONTINUOUS
 62
     7
  5
48
 10
951082.017
 20
7246723.26
 30
0.0
 40
8.0
  1
50'
 50
88.1874
  7
ROMANS
 72
     4
 11
951078.31421
 21
7246732.714852
 31
0.0
210
0.0
220
0.0
230
1.0
  0
TEXT
  8
11
  6
CONTINUOUS
 62
     7
  5
49
 10
950334.816
 20
7246746.906
 30
0.0
 40
8.0
  1
50'
 50
88.1874
  7
ROMANS
 72
     4
 11
950331.11321
 21
7246756.360852
 31
0.0
210
0.0
220
0.0
230
1.0
  0
TEXT
  8
11
  6
CONTINUOUS
 62
     7
  5
4A
 10
949452.862
 20
7246772.099
 30
0.0
 40
8.0
  1
60'
 50
88.1874
  7
ROMANS
 72
     4
 11
949449.15921
 21
7246781.553852
 31
0.0
210
0.0
220
0.0
230
1.0
  0
TEXT
  8
11
  6
CONTINUOUS
 62
     7
  5
4B
 10
948844.815
 20
7246791.342
 30
0.0
 40
8.0
  1
60'
 50
88.1874
  7
ROMANS
 72
     4
 11
948841.11221
 21
7246800.796852
 31
0.0
210
0.0
220
0.0
230
1.0
  0
TEXT
  8
11
  6
CONTINUOUS
 62
     7
  5
4C
 10
949355.818
 20
7246705.045
 30
0.0
 40
8.0
  1
73.1'
 50
43.1874
  7
ROMANS
 72
     1
 11
949362.980728
 21
7246722.740429
 31
0.0
210
0.0
220
0.0
230
1.0
 73
     3
  0
TEXT
  8
11
  6
CONTINUOUS
 62
     7
  5
4D
 10
949437.462
 20
7246738.321
 30
0.0
 40
8.0
  1
130'
 50
358.1874
  7
ROMANS
 72
     1
 11
949451.041373
 21
7246745.895267
 31
0.0
210
0.0
220
0.0
230
1.0
 73
     3
  0
TEXT
  8
11
  6
CONTINUOUS
 62
     7
  5
4E
 10
948827.524
 20
7246757.624
 30
0.0
 40
8.0
  1
130'
 50
358.1874
  7
ROMANS
 72
     1
 11
948841.103373
 21
7246765.198267
 31
0.0
210
0.0
220
0.0
230
1.0
 73
     3
  0
TEXT
  8
11
  6
CONTINUOUS
 62
     7
  5
4F
 10
949532.375
 20
7246733.947
 30
0.0
 40
8.0
  1
10'
 50
88.1874
  7
ROMANS
 72
     4
 11
949528.67221
 21
7246743.401852
 31
0.0
210
0.0
220
0.0
230
1.0
  0
TEXT
  8
11
  6
CONTINUOUS
 62
     7
  5
50
 10
948766.962
 20
7246758.17
 30
0.0
 40
8.0
  1
10'
 50
88.1874
  7
ROMANS
 72
     4
 11
948763.25921
 21
7246767.624852
 31
0.0
210
0.0
220
0.0
230
1.0
  0
TEXT
  8
11
  6
CONTINUOUS
 62
     7
  5
51
 10
948905.585
 20
7246746.786
 30
0.0
 40
8.0
  1
72.9'
 50
313.1874
  7
ROMANS
 72
     1
 11
948923.280429
 21
7246739.623272
 31
0.0
210
0.0
220
0.0
230
1.0
 73
     3
  0
TEXT
  8
11
  6
CONTINUOUS
 62
     7
  5
52
 10
950620.859
 20
7246710.876
 30
0.0
 40
8.0
  1
2368.58'
 50
358.1874
  7
ROMANS
 72
     1
 11
950650.430367
 21
7246717.944178
 31
0.0
210
0.0
220
0.0
230
1.0
 73
     3
  0
TEXT
  8
11
  6
CONTINUOUS
 62
     7
  5
53
 10
947621.937
 20
7246805.781
 30
0.0
 40
8.0
  1
2165'
 50
358.1874
  7
ROMANS
 72
     1
 11
947639.514372
 21
7246813.228745
 31
0.0
210
0.0
220
0.0
230
1.0
 73
     3
  0
TEXT
  8
11
  6
CONTINUOUS
 62
     7
  5
54
 10
949317.033
 20
7246455.525
 30
0.0
 40
8.0
  1
451.2'
 50
83.18545
  7
ROMANS
 72
     1
 11
949311.620808
 21
7246477.65654
 31
0.0
210
0.0
220
0.0
230
1.0
 73
     3
  0
TEXT
  8
11
  6
CONTINUOUS
 62
     7
  5
55
 10
948952.982
 20
7246358.673
 30
0.0
 40
8.0
  1
751.9'
 50
271.891347
  7
ROMANS
 72
     1
 11
948961.681721
 21
7246337.615656
 31
0.0
210
0.0
220
0.0
230
1.0
 73
     3
  0
TEXT
  8
11
  6
CONTINUOUS
 62
     7
  5
56
 10
950405.104
 20
7241549.118
 30
0.0
 40
8.0
  1
2505'
 50
358.1874
  7
ROMANS
 72
     1
 11
950422.428327
 21
7241548.569747
 31
0.0
210
0.0
220
0.0
230
1.0
  0
TEXT
  8
11
  6
CONTINUOUS
 62
     7
  5
57
 10
949254.409
 20
7241549.262
 30
0.0
 40
8.0
  1
50'
 50
88.1874
  7
ROMANS
 72
     4
 11
949250.70621
 21
7241558.716852
 31
0.0
210
0.0
220
0.0
230
1.0
  0
TEXT
  8
11
  6
CONTINUOUS
 62
     7
  5
58
 10
951672.996
 20
7241472.722
 30
0.0
 40
8.0
  1
50'
 50
88.1874
  7
ROMANS
 72
     4
 11
951669.29321
 21
7241482.176852
 31
0.0
210
0.0
220
0.0
230
1.0
  0
TEXT
  8
11
  6
CONTINUOUS
 62
     7
  5
59
 10
950880.944
 20
7241497.788
 30
0.0
 40
8.0
  1
50'
 50
88.1874
  7
ROMANS
 72
     4
 11
950877.24121
 21
7241507.242852
 31
0.0
210
0.0
220
0.0
230
1.0
  0
TEXT
  8
11
  6
CONTINUOUS
 62
     7
  5
5A
 10
950037.975
 20
7241524.465
 30
0.0
 40
8.0
  1
50'
 50
88.1874
  7
ROMANS
 72
     4
 11
950034.27221
 21
7241533.919852
 31
0.0
210
0.0
220
0.0
230
1.0
  0
TEXT
  8
11
  6
CONTINUOUS
 62
     7
  5
5B
 10
948697.144
 20
7241566.897
 30
0.0
 40
8.0
  1
50'
 50
88.1874
  7
ROMANS
 72
     4
 11
948693.44121
 21
7241576.351852
 31
0.0
210
0.0
220
0.0
230
1.0
  0
TEXT
  8
11
  6
CONTINUOUS
 62
     7
  5
5C
 10
947903.532
 20
7241592.012
 30
0.0
 40
8.0
  1
50'
 50
88.1874
  7
ROMANS
 72
     4
 11
947899.82921
 21
7241601.466852
 31
0.0
210
0.0
220
0.0
230
1.0
  0
TEXT
  8
11
  6
CONTINUOUS
 62
     7
  5
5D
 10
947115.038
 20
7241616.965
 30
0.0
 40
8.0
  1
50'
 50
88.1874
  7
ROMANS
 72
     4
 11
947111.33521
 21
7241626.419852
 31
0.0
210
0.0
220
0.0
230
1.0
  0
TEXT
  8
11
  6
CONTINUOUS
 62
     7
  5
5E
 10
946490.388
 20
7241636.733
 30
0.0
 40
8.0
  1
50'
 50
88.1874
  7
ROMANS
 72
     4
 11
946486.68521
 21
7241646.187852
 31
0.0
210
0.0
220
0.0
230
1.0
  0
TEXT
  8
11
  6
CONTINUOUS
 62
     7
  5
5F
 10
949230.905
 20
7244126.974
 30
0.0
 40
8.0
  1
4153.6'
 50
88.1874
  7
ROMANS
 72
     4
 11
949227.708298
 21
7244152.420846
 31
0.0
210
0.0
220
0.0
230
1.0
  0
TEXT
  8
11
  6
CONTINUOUS
 62
     7
  5
60
 10
949187.192
 20
7241629.823
 30
0.0
 40
8.0
  1
73.1'
 50
313.1874
  7
ROMANS
 72
     1
 11
949199.054476
 21
7241617.185178
 31
0.0
210
0.0
220
0.0
230
1.0
  0
TEXT
  8
11
  6
CONTINUOUS
 62
     7
  5
61
 10
948749.94
 20
7241622.103
 30
0.0
 40
8.0
  1
72.9'
 50
43.1874
  7
ROMANS
 72
     1
 11
948762.577822
 21
7241633.965476
 31
0.0
210
0.0
220
0.0
230
1.0
  0
TEXT
  8
11
  6
CONTINUOUS
 62
     7
  5
62
 10
949172.574
 20
7241907.2
 30
0.0
 40
8.0
  1
460.28'
 50
272.337494
  7
ROMANS
 72
     1
 11
949173.607223
 21
7241881.888079
 31
0.0
210
0.0
220
0.0
230
1.0
  0
TEXT
  8
11
  6
CONTINUOUS
 62
     7
  5
63
 10
948823.474
 20
7242005.671
 30
0.0
 40
8.0
  1
751.6'
 50
84.484956
  7
ROMANS
 72
     1
 11
948825.524349
 21
7242026.906245
 31
0.0
210
0.0
220
0.0
230
1.0
  0
TEXT
  8
11
  6
CONTINUOUS
 62
     7
  5
64
 10
948910.122
 20
7244133.156
 30
0.0
 40
8.0
  1
3569.85'
 50
88.1874
  7
ROMANS
 72
     4
 11
948907.051821
 21
7244162.600845
 31
0.0
210
0.0
220
0.0
230
1.0
  0
TEXT
  8
11
  6
CONTINUOUS
 62
     7
  5
65
 10
946553.672
 20
7244219.64
 30
0.0
 40
8.0
  1
5180'
 50
88.1874
  7
ROMANS
 72
     4
 11
946550.222254
 21
7244237.090849
 31
0.0
210
0.0
220
0.0
230
1.0
  0
TEXT
  8
11
  6
CONTINUOUS
 62
     7
  5
66
 10
951780.375
 20
7244054.234
 30
0.0
 40
8.0
  1
5180'
 50
88.1874
  7
ROMANS
 72
     4
 11
951776.925254
 21
7244071.684849
 31
0.0
210
0.0
220
0.0
230
1.0
  0
TEXT
  8
11
  6
CONTINUOUS
 62
     7
  5
67
 10
946742.536
 20
7246504.335
 30
0.0
 40
8.0
  1
650'
 50
88.1874
  7
ROMANS
 72
     4
 11
946738.959732
 21
7246517.787851
 31
0.0
210
0.0
220
0.0
230
1.0
  0
TEXT
  8
11
  6
CONTINUOUS
 62
     7
  5
68
 10
946656.39
 20
7246244.189
 30
0.0
 40
8.0
  1
150'
 50
358.1874
  7
ROMANS
 72
     4
 11
946669.842851
 21
7246247.765268
 31
0.0
210
0.0
220
0.0
230
1.0
  0
POLYLINE
  8
1
  6
HIDDEN
 62
   253
  5
6A
 66
     1
 10
0.0
 20
0.0
 30
0.0
 70
     1
  0
VERTEX
  8
1
  6
HIDDEN
 62
   253
  5
6B
 10
946443.43
 20
7241621.464
 30
0.0
  0
VERTEX
  8
1
  6
HIDDEN
 62
   253
  5
6C
 10
951720.788
 20
7241454.455
 30
0.0
  0
VERTEX
  8
1
  6
HIDDEN
 62
   253
  5
6D
 10
951887.797
 20
7246731.813
 30
0.0
  0
VERTEX
  8
1
  6
HIDDEN
 62
   253
  5
6E
 10
946610.439
 20
7246898.822
 30
0.0
  0
SEQEND
  8
1
  6
HIDDEN
 62
   253
  5
6F
  0
TEXT
  8
19
  6
CONTINUOUS
 62
     1
  5
72
 10
946480.519
 20
7241755.249
 30
0.0
 40
24.0
  1
AVE Q
 50
88.1874
  7
ROMANC
 72
     4
 11
946470.533292
 21
7241819.088797
 31
0.0
210
0.0
220
0.0
230
1.0
  0
TEXT
  8
19
  6
CONTINUOUS
 62
     1
  5
73
 10
946635.683
 20
7246669.991
 30
0.0
 40
24.0
  1
AVE Q
 50
88.1874
  7
ROMANC
 72
     4
 11
946625.697292
 21
7246733.830797
 31
0.0
210
0.0
220
0.0
230
1.0
  0
TEXT
  8
19
  6
CONTINUOUS
 62
     1
  5
74
 10
946562.119
 20
7244355.214
 30
0.0
 40
24.0
  1
AVE Q
 50
88.1874
  7
ROMANC
 72
     4
 11
946552.133292
 21
7244419.053797
 31
0.0
210
0.0
220
0.0
230
1.0
  0
TEXT
  8
19
  6
CONTINUOUS
 62
     1
  5
75
 10
951716.622
 20
7241597.81
 30
0.0
 40
24.0
  1
ASH AVE (AVE A)
 50
88.1874
  7
ROMANC
 72
     4
 11
951710.599095
 21
7241786.871109
 31
0.0
210
0.0
220
0.0
230
1.0
  0
TEXT
  8
19
  6
CONTINUOUS
 62
     1
  5
76
 10
951861.619
 20
7246215.229
 30
0.0
 40
24.0
  1
ASH AVE (AVE. A)
 50
88.1874
  7
ROMANC
 72
     4
 11
951855.566204
 21
7246403.345581
 31
0.0
210
0.0
220
0.0
230
1.0
  0
TEXT
  8
19
  6
CONTINUOUS
 62
     1
  5
77
 10
951792.696
 20
7244179.922
 30
0.0
 40
24.0
  1
ASH AVE (AVE. A)
 50
88.1874
  7
ROMANC
 72
     4
 11
951786.643204
 21
7244368.038581
 31
0.0
210
0.0
220
0.0
230
1.0
  0
TEXT
  8
19
  6
CONTINUOUS
 62
     1
  5
78
 10
947577.625
 20
7246833.101
 30
0.0
 40
24.0
  1
98TH ST
 50
358.1874
  7
ROMANC
 72
     4
 11
947665.452788
 21
7246842.327574
 31
0.0
210
0.0
220
0.0
230
1.0
  0
TEXT
  8
19
  6
CONTINUOUS
 62
     1
  5
79
 10
950703.731
 20
7246734.171
 30
0.0
 40
24.0
  1
98TH ST
 50
358.1874
  7
ROMANC
 72
     4
 11
950791.558788
 21
7246743.397574
 31
0.0
210
0.0
220
0.0
230
1.0
  0
TEXT
  8
19
  6
CONTINUOUS
 62
     1
  5
7A
 10
949134.506
 20
7246140.291
 30
0.0
 40
24.0
  1
INTERSTATE 27
 50
88.1874
  7
ROMANC
 72
     4
 11
949127.538733
 21
7246299.511048
 31
0.0
210
0.0
220
0.0
230
1.0
  0
TEXT
  8
19
  6
CONTINUOUS
 62
     1
  5
7B
 10
949000.46
 20
7241904.544
 30
0.0
 40
24.0
  1
INTERSTATE 27
 50
88.1874
  7
ROMANC
 72
     4
 11
948993.492733
 21
7242063.764048
 31
0.0
210
0.0
220
0.0
230
1.0
  0
TEXT
  8
19
  6
CONTINUOUS
 62
     1
  5
7C
 10
950414.847
 20
7241509.883
 30
0.0
 40
24.0
  1
114TH ST
 50
358.1874
  7
ROMANC
 72
     4
 11
950509.945149
 21
7241518.879494
 31
0.0
210
0.0
220
0.0
230
1.0
  0
TEXT
  8
19
  6
CONTINUOUS
 62
     1
  5
7D
 10
947385.612
 20
7241605.747
 30
0.0
 40
24.0
  1
114TH ST
 50
358.1874
  7
ROMANC
 72
     4
 11
947480.710149
 21
7241614.743494
 31
0.0
210
0.0
220
0.0
230
1.0
  0
TEXT
  8
10
  6
CONTINUOUS
 62
   134
  5
7F
 10
947613.597
 20
7244242.618
 30
0.0
 40
13.999
  1
UNSUBDIVIDED
 50
358.1874
  7
ROMANS
210
0.0
220
0.0
230
1.0
  0
TEXT
  8
10
  6
CONTINUOUS
 62
   134
  5
80
 10
950449.7
 20
7244166.358
 30
0.0
 40
13.999
  1
UNSUBDIVIDED
 50
358.1874
  7
ROMANS
210
0.0
220
0.0
230
1.0
  0
LINE
  8
58
  6
DIVIDE
 62
   216
  5
82
 10
946739.488
 20
7246234.408
 30
0.0
 11
946760.364
 21
7246894.077
 31
0.0
  0
LINE
  8
58
  6
DIVIDE
 62
   216
  5
83
 10
946589.563
 20
7246239.152
 30
0.0
 11
946739.488
 21
7246234.408
 31
0.0
  0
ENDSEC
  0
EOF
