  0
SECTION
  2
HEADER
  9
$ACADVER
  1
AC1009
  9
$INSBASE
 10
0.0
 20
0.0
 30
0.0
  9
$EXTMIN
 10
968645.066
 20
7277840.928
 30
0.0
  9
$EXTMAX
 10
974138.871
 20
7283296.328
 30
0.0
  9
$LIMMIN
 10
0.0
 20
0.0
  9
$LIMMAX
 10
12.0
 20
9.0
  9
$ORTHOMODE
 70
     0
  9
$REGENMODE
 70
     1
  9
$FILLMODE
 70
     1
  9
$QTEXTMODE
 70
     0
  9
$MIRRTEXT
 70
     1
  9
$DRAGMODE
 70
     2
  9
$LTSCALE
 40
1.0
  9
$OSMODE
 70
     0
  9
$ATTMODE
 70
     1
  9
$TEXTSIZE
 40
0.2
  9
$TRACEWID
 40
0.05
  9
$TEXTSTYLE
  7
STANDARD
  9
$CLAYER
  8
0
  9
$CELTYPE
  6
CONTINUOUS
  9
$CECOLOR
 62
   256
  9
$DIMSCALE
 40
1.0
  9
$DIMASZ
 40
0.18
  9
$DIMEXO
 40
0.0625
  9
$DIMDLI
 40
0.38
  9
$DIMRND
 40
0.0
  9
$DIMDLE
 40
0.0
  9
$DIMEXE
 40
0.18
  9
$DIMTP
 40
0.0
  9
$DIMTM
 40
0.0
  9
$DIMTXT
 40
0.18
  9
$DIMCEN
 40
0.09
  9
$DIMTSZ
 40
0.0
  9
$DIMTOL
 70
     0
  9
$DIMLIM
 70
     0
  9
$DIMTIH
 70
     1
  9
$DIMTOH
 70
     1
  9
$DIMSE1
 70
     0
  9
$DIMSE2
 70
     0
  9
$DIMTAD
 70
     0
  9
$DIMZIN
 70
     0
  9
$DIMBLK
  1

  9
$DIMASO
 70
     1
  9
$DIMSHO
 70
     1
  9
$DIMPOST
  1

  9
$DIMAPOST
  1

  9
$DIMALT
 70
     0
  9
$DIMALTD
 70
     2
  9
$DIMALTF
 40
25.4
  9
$DIMLFAC
 40
1.0
  9
$DIMTOFL
 70
     0
  9
$DIMTVP
 40
0.0
  9
$DIMTIX
 70
     0
  9
$DIMSOXD
 70
     0
  9
$DIMSAH
 70
     0
  9
$DIMBLK1
  1

  9
$DIMBLK2
  1

  9
$DIMSTYLE
  2
STANDARD
  9
$DIMCLRD
 70
     0
  9
$DIMCLRE
 70
     0
  9
$DIMCLRT
 70
     0
  9
$DIMTFAC
 40
1.0
  9
$DIMGAP
 40
0.09
  9
$LUNITS
 70
     2
  9
$LUPREC
 70
     4
  9
$AXISMODE
 70
     0
  9
$AXISUNIT
 10
0.0
 20
0.0
  9
$SKETCHINC
 40
0.1
  9
$FILLETRAD
 40
0.0
  9
$AUNITS
 70
     0
  9
$AUPREC
 70
     0
  9
$MENU
  1
acad
  9
$ELEVATION
 40
0.0
  9
$PELEVATION
 40
0.0
  9
$THICKNESS
 40
0.0
  9
$LIMCHECK
 70
     0
  9
$BLIPMODE
 70
     1
  9
$CHAMFERA
 40
0.0
  9
$CHAMFERB
 40
0.0
  9
$SKPOLY
 70
     0
  9
$TDCREATE
 40
2453013.903391204
  9
$TDUPDATE
 40
2453013.903391204
  9
$TDINDWG
 40
0.0000000000
  9
$TDUSRTIMER
 40
0.0000000000
  9
$USRTIMER
 70
     1
  9
$ANGBASE
 50
0.0
  9
$ANGDIR
 70
     0
  9
$PDMODE
 70
     0
  9
$PDSIZE
 40
0.0
  9
$PLINEWID
 40
0.0
  9
$COORDS
 70
     0
  9
$SPLFRAME
 70
     0
  9
$SPLINETYPE
 70
     6
  9
$SPLINESEGS
 70
    10
  9
$ATTDIA
 70
     0
  9
$ATTREQ
 70
     1
  9
$HANDLING
 70
     1
  9
$HANDSEED
  5
321
  9
$SURFTAB1
 70
     6
  9
$SURFTAB2
 70
     6
  9
$SURFTYPE
 70
     6
  9
$SURFU
 70
     6
  9
$SURFV
 70
     6
  9
$UCSNAME
  2

  9
$UCSORG
 10
0.0
 20
0.0
 30
0.0
  9
$UCSXDIR
 10
1.0
 20
0.0
 30
0.0
  9
$UCSYDIR
 10
0.0
 20
1.0
 30
0.0
  9
$PUCSNAME
  2

  9
$PUCSORG
 10
0.0
 20
0.0
 30
0.0
  9
$PUCSXDIR
 10
1.0
 20
0.0
 30
0.0
  9
$PUCSYDIR
 10
0.0
 20
1.0
 30
0.0
  9
$USERI1
 70
     0
  9
$USERI2
 70
     0
  9
$USERI3
 70
     0
  9
$USERI4
 70
     0
  9
$USERI5
 70
     0
  9
$USERR1
 40
0.0
  9
$USERR2
 40
0.0
  9
$USERR3
 40
0.0
  9
$USERR4
 40
0.0
  9
$USERR5
 40
0.0
  9
$WORLDVIEW
 70
     1
  9
$SHADEDGE
 70
     3
  9
$SHADEDIF
 70
    70
  9
$TILEMODE
 70
     1
  9
$MAXACTVP
 70
    16
  9
$PINSBASE
 10
0.0
 20
0.0
 30
0.0
  9
$PLIMCHECK
 70
     0
  9
$PEXTMIN
 10
-1.000000E+20
 20
-1.000000E+20
 30
-1.000000E+20
  9
$PEXTMAX
 10
-1.000000E+20
 20
-1.000000E+20
 30
-1.000000E+20
  9
$PLIMMIN
 10
0.0
 20
0.0
  9
$PLIMMAX
 10
12.0
 20
9.0
  9
$UNITMODE
 70
     0
  9
$VISRETAIN
 70
     0
  9
$PLINEGEN
 70
     1
  9
$PSLTSCALE
 70
     0
  9
$TREEDEPTH
 70
  3020
  9
$DWGCODEPAGE
  3
ansi_1252
  0
ENDSEC
  0
SECTION
  2
TABLES
  0
TABLE
  2
VPORT
 70
     1
  0
VPORT
  2
*ACTIVE
 70
     0
 10
0.0
 20
0.0
 11
1.0
 21
1.0
 12
0.0
 22
0.0
 13
0.0
 23
0.0
 14
0.0
 24
0.0
 15
0.0
 25
0.0
 16
0.0
 26
0.0
 36
1.0
 17
971137.14881
 27
7280455.1975
 37
0.0
 40
5364.923
 41
1.220527
 42
50.0
 43
0.004
 44
0.0
 50
0.0
 51
0.0
 71
     0
 72
   100
 73
     1
 74
     0
 75
     0
 76
     0
 77
     0
 78
     0
  0
ENDTAB
  0
TABLE
  2
LTYPE
 70
     7
  0
LTYPE
  2
CONTINUOUS
 70
     0
  3
Solid line
 72
    65
 73
     0
 40
0.0
  0
LTYPE
  2
DOT
 70
    64
  3
. . . . . . . . . . . . . . . . . . . . . . . . . . . . . . . . .
 72
    65
 73
     2
 40
0.25
 49
0.0
 49
-0.25
  0
LTYPE
  2
HIDDEN
 70
    64
  3
__ __ __ __ __ __ __ __ __ __ __ __ __ __ __ __ __ __ __ __ __ 
 72
    65
 73
     2
 40
0.375
 49
0.25
 49
-0.125
  0
LTYPE
  2
DASHED
 70
    64
  3
__ __ __ __ __ __ __ __ __ __ __ __ __ __ __ __ __ __ __ __ __
 72
    65
 73
     2
 40
0.75
 49
0.5
 49
-0.25
  0
LTYPE
  2
DASHDOT
 70
    64
  3
__ . __ . __ . __ . __ . __ . __ . __ . __ . __ . __ . __ . _
 72
    65
 73
     4
 40
1.0
 49
0.5
 49
-0.25
 49
0.0
 49
-0.25
  0
LTYPE
  2
DIVIDE
 70
    64
  3
____ . . ____ . . ____ . . ____ . . ____ . . ____ . . ____ . .
 72
    65
 73
     6
 40
1.25
 49
0.5
 49
-0.25
 49
0.0
 49
-0.25
 49
0.0
 49
-0.25
  0
LTYPE
  2
CENTER
 70
    64
  3
____ _ ____ _ ____ _ ____ _ ____ _ ____ _ ____ _ ____ _ ____ _
 72
    65
 73
     4
 40
2.0
 49
1.25
 49
-0.25
 49
0.25
 49
-0.25
  0
ENDTAB
  0
TABLE
  2
LAYER
 70
    13
  0
LAYER
  2
0
 70
     0
 62
     7
  6
CONTINUOUS
  0
LAYER
  2
CONSTRUCTION_CLASS
 70
     1
 62
     7
  6
CONTINUOUS
  0
LAYER
  2
PATTERN_CLASS
 70
     0
 62
     7
  6
CONTINUOUS
  0
LAYER
  2
7
 70
    64
 62
     7
  6
CONTINUOUS
  0
LAYER
  2
10
 70
    64
 62
     7
  6
CONTINUOUS
  0
LAYER
  2
6
 70
    64
 62
     7
  6
CONTINUOUS
  0
LAYER
  2
15
 70
    64
 62
     7
  6
CONTINUOUS
  0
LAYER
  2
11
 70
    64
 62
     7
  6
CONTINUOUS
  0
LAYER
  2
DEFPOINTS
 70
    64
 62
     7
  6
CONTINUOUS
  0
LAYER
  2
1
 70
    64
 62
     7
  6
CONTINUOUS
  0
LAYER
  2
19
 70
    64
 62
     7
  6
CONTINUOUS
  0
LAYER
  2
8
 70
    64
 62
     7
  6
CONTINUOUS
  0
LAYER
  2
58
 70
    64
 62
     7
  6
CONTINUOUS
  0
ENDTAB
  0
TABLE
  2
STYLE
 70
     4
  0
STYLE
  2
STANDARD
 70
     0
 40
0.0
 41
1.0
 50
0.0
 71
     0
 42
0.0
  3
txt
  4

  0
STYLE
  2
ROMANS
 70
     0
 40
0.2
 41
1.0
 50
0.0
 71
     0
 42
0.2
  3
ROMANS
  4

  0
STYLE
  2
ROMANC
 70
     0
 40
0.2
 41
1.0
 50
0.0
 71
     0
 42
0.2
  3
ROMANC
  4

  0
STYLE
  2
txt
 70
     0
 40
0.2
 41
1.0
 50
0.0
 71
     0
 42
0.2
  3
TXT
  4

  0
ENDTAB
  0
TABLE
  2
VIEW
 70
     0
  0
ENDTAB
  0
TABLE
  2
UCS
 70
     0
  0
ENDTAB
  0
TABLE
  2
APPID
 70
     1
  0
APPID
  2
ACAD
 70
     0
  0
ENDTAB
  0
TABLE
  2
DIMSTYLE
 70
     2
  0
DIMSTYLE
  2
STANDARD
 70
     0
  3

  4

  5

  6

  7

 40
1.0
 41
0.18
 42
0.0625
 43
0.38
 44
0.18
 45
0.0
 46
0.0
 47
0.0
 48
0.0
140
0.18
141
0.09
142
0.0
143
25.4
144
1.0
145
0.0
146
1.0
147
0.09
 71
     0
 72
     0
 73
     1
 74
     1
 75
     0
 76
     0
 77
     0
 78
     0
170
     0
171
     2
172
     0
173
     0
174
     0
175
     0
176
     0
177
     0
178
     0
  0
DIMSTYLE
  2
MSADIM
 70
     0
  3

  4

  5

  6

  7

 40
1.0
 41
8.0
 42
4.0
 43
0.0
 44
4.0
 45
0.0
 46
0.0
 47
0.0
 48
0.0
140
8.0
141
4.0
142
0.0
143
25.4
144
1.0
145
4.0
146
1.0
147
4.0
 71
     0
 72
     0
 73
     1
 74
     1
 75
     1
 76
     1
 77
     0
 78
     2
170
     0
171
     2
172
     0
173
     0
174
     0
175
     0
176
     0
177
     0
178
     0
  0
ENDTAB
  0
ENDSEC
  0
SECTION
  2
BLOCKS
  0
BLOCK
  8
11
  6
CONTINUOUS
 62
     7
  5
267
  2
*D0
 70
     1
 10
0.0
 20
0.0
 30
0.0
  3
*N0
  0
TEXT
  8
11
  6
CONTINUOUS
 62
     7
  5
268
 10
973906.825
 20
7277909.57
 30
0.0
 40
8.0
  1
N47%%d22'52"E
 50
42.618767
  7
ROMANS
 72
     1
 11
973932.682766
 21
7277944.234477
 31
0.0
210
0.0
220
0.0
230
1.0
 73
     3
  0
TEXT
  8
11
  6
CONTINUOUS
 62
     7
  5
269
 10
973908.624
 20
7277932.968
 30
0.0
 40
8.0
  1
313.95'
 50
42.618767
  7
ROMANS
 72
     1
 11
973927.26593
 21
7277950.121406
 31
0.0
210
0.0
220
0.0
230
1.0
  0
ENDBLK
  8
11
  6
CONTINUOUS
 62
     7
  5
26A
  0
BLOCK
  8
11
  6
CONTINUOUS
 62
     7
  5
26D
  2
*D1
 70
     1
 10
0.0
 20
0.0
 30
0.0
  3
*N1
  0
TEXT
  8
11
  6
CONTINUOUS
 62
     7
  5
26E
 10
973972.784
 20
7277843.871
 30
0.0
 40
8.0
  1
N47%%d22'52"E
 50
42.618856
  7
ROMANS
 72
     1
 11
973998.641712
 21
7277878.535517
 31
0.0
210
0.0
220
0.0
230
1.0
 73
     3
  0
TEXT
  8
11
  6
CONTINUOUS
 62
     7
  5
26F
 10
973974.583
 20
7277867.269
 30
0.0
 40
8.0
  1
113.83'
 50
42.618856
  7
ROMANS
 72
     1
 11
973993.224903
 21
7277884.422435
 31
0.0
210
0.0
220
0.0
230
1.0
  0
ENDBLK
  8
11
  6
CONTINUOUS
 62
     7
  5
270
  0
BLOCK
  8
11
  6
CONTINUOUS
 62
     7
  5
273
  2
*D2
 70
     1
 10
0.0
 20
0.0
 30
0.0
  3
*N2
  0
TEXT
  8
11
  6
CONTINUOUS
 62
     7
  5
274
 10
969012.865
 20
7283088.63
 30
0.0
 40
8.0
  1
S58%%d25'16"W
 50
31.5788
  7
ROMANS
 72
     1
 11
969045.192365
 21
7283117.891988
 31
0.0
210
0.0
220
0.0
230
1.0
 73
     3
  0
TEXT
  8
11
  6
CONTINUOUS
 62
     7
  5
275
 10
969019.422
 20
7283111.441
 30
0.0
 40
8.0
  1
496.57'
 50
31.5788
  7
ROMANS
 72
     1
 11
969041.003709
 21
7283124.70715
 31
0.0
210
0.0
220
0.0
230
1.0
  0
ENDBLK
  8
11
  6
CONTINUOUS
 62
     7
  5
276
  0
ENDSEC
  0
SECTION
  2
ENTITIES
  0
LINE
  8
7
  6
CONTINUOUS
 62
     7
  5
29
 10
968859.948
 20
7278027.702
 30
0.0
 11
968863.093
 21
7278157.664
 31
0.0
  0
LINE
  8
7
  6
CONTINUOUS
 62
     7
  5
2A
 10
968919.93
 20
7278026.251
 30
0.0
 11
968923.075
 21
7278156.212
 31
0.0
  0
LINE
  8
7
  6
CONTINUOUS
 62
     7
  5
2B
 10
968979.912
 20
7278024.799
 30
0.0
 11
968983.058
 21
7278154.761
 31
0.0
  0
LINE
  8
7
  6
CONTINUOUS
 62
     7
  5
2C
 10
969039.894
 20
7278023.347
 30
0.0
 11
969043.041
 21
7278153.309
 31
0.0
  0
LINE
  8
7
  6
CONTINUOUS
 62
     7
  5
2D
 10
969099.878
 20
7278021.895
 30
0.0
 11
969103.023
 21
7278151.857
 31
0.0
  0
LINE
  8
7
  6
CONTINUOUS
 62
     7
  5
2E
 10
969159.86
 20
7278020.444
 30
0.0
 11
969163.005
 21
7278150.406
 31
0.0
  0
LINE
  8
7
  6
CONTINUOUS
 62
     7
  5
2F
 10
969219.842
 20
7278018.991
 30
0.0
 11
969222.987
 21
7278148.953
 31
0.0
  0
LINE
  8
7
  6
CONTINUOUS
 62
     7
  5
30
 10
969279.825
 20
7278017.54
 30
0.0
 11
969282.97
 21
7278147.502
 31
0.0
  0
TEXT
  8
10
  6
CONTINUOUS
 62
   134
  5
33
 10
969310.25
 20
7278081.891
 30
0.0
 40
13.999
  1
18
 50
358.6135
  7
ROMANS
 11
969310.588729
 21
7278095.885901
 31
0.0
210
0.0
220
0.0
230
1.0
 73
     3
  0
TEXT
  8
10
  6
CONTINUOUS
 62
   134
  5
34
 10
969238.562
 20
7278083.626
 30
0.0
 40
13.999
  1
17
 50
358.6135
  7
ROMANS
 11
969238.900729
 21
7278097.620901
 31
0.0
210
0.0
220
0.0
230
1.0
 73
     3
  0
TEXT
  8
10
  6
CONTINUOUS
 62
   134
  5
35
 10
969178.193
 20
7278085.088
 30
0.0
 40
13.999
  1
16
 50
358.6135
  7
ROMANS
 11
969178.531729
 21
7278099.082901
 31
0.0
210
0.0
220
0.0
230
1.0
 73
     3
  0
TEXT
  8
10
  6
CONTINUOUS
 62
   134
  5
36
 10
969119.711
 20
7278086.503
 30
0.0
 40
13.999
  1
15
 50
358.6135
  7
ROMANS
 11
969120.049729
 21
7278100.497901
 31
0.0
210
0.0
220
0.0
230
1.0
 73
     3
  0
TEXT
  8
10
  6
CONTINUOUS
 62
   134
  5
37
 10
969055.569
 20
7278088.055
 30
0.0
 40
13.999
  1
14
 50
358.6135
  7
ROMANS
 11
969055.907729
 21
7278102.049901
 31
0.0
210
0.0
220
0.0
230
1.0
 73
     3
  0
TEXT
  8
10
  6
CONTINUOUS
 62
   134
  5
38
 10
969002.746
 20
7278089.334
 30
0.0
 40
13.999
  1
13
 50
358.6135
  7
ROMANS
 11
969003.084729
 21
7278103.328901
 31
0.0
210
0.0
220
0.0
230
1.0
 73
     3
  0
TEXT
  8
10
  6
CONTINUOUS
 62
   134
  5
39
 10
968938.604
 20
7278090.886
 30
0.0
 40
13.999
  1
12
 50
358.6135
  7
ROMANS
 11
968938.942729
 21
7278104.880901
 31
0.0
210
0.0
220
0.0
230
1.0
 73
     3
  0
TEXT
  8
10
  6
CONTINUOUS
 62
   134
  5
3A
 10
968878.236
 20
7278092.347
 30
0.0
 40
13.999
  1
11
 50
358.6135
  7
ROMANS
 11
968878.574729
 21
7278106.341901
 31
0.0
210
0.0
220
0.0
230
1.0
 73
     3
  0
TEXT
  8
10
  6
CONTINUOUS
 62
   134
  5
3B
 10
968814.094
 20
7278093.9
 30
0.0
 40
13.999
  1
10
 50
358.6135
  7
ROMANS
 11
968814.432729
 21
7278107.894901
 31
0.0
210
0.0
220
0.0
230
1.0
 73
     3
  0
LINE
  8
7
  6
CONTINUOUS
 62
     7
  5
3C
 10
968863.456
 20
7278172.659
 30
0.0
 11
968866.601
 21
7278302.621
 31
0.0
  0
LINE
  8
7
  6
CONTINUOUS
 62
     7
  5
3D
 10
968923.438
 20
7278171.208
 30
0.0
 11
968926.584
 21
7278301.17
 31
0.0
  0
LINE
  8
7
  6
CONTINUOUS
 62
     7
  5
3E
 10
968983.421
 20
7278169.757
 30
0.0
 11
968986.567
 21
7278299.718
 31
0.0
  0
LINE
  8
7
  6
CONTINUOUS
 62
     7
  5
3F
 10
969043.403
 20
7278168.304
 30
0.0
 11
969046.549
 21
7278298.266
 31
0.0
  0
LINE
  8
7
  6
CONTINUOUS
 62
     7
  5
40
 10
969103.386
 20
7278166.853
 30
0.0
 11
969106.531
 21
7278296.815
 31
0.0
  0
LINE
  8
7
  6
CONTINUOUS
 62
     7
  5
41
 10
969163.369
 20
7278165.401
 30
0.0
 11
969166.514
 21
7278295.363
 31
0.0
  0
LINE
  8
7
  6
CONTINUOUS
 62
     7
  5
42
 10
969223.351
 20
7278163.949
 30
0.0
 11
969226.496
 21
7278293.911
 31
0.0
  0
LINE
  8
7
  6
CONTINUOUS
 62
     7
  5
43
 10
969283.333
 20
7278162.497
 30
0.0
 11
969286.478
 21
7278292.459
 31
0.0
  0
TEXT
  8
10
  6
CONTINUOUS
 62
   134
  5
44
 10
969313.759
 20
7278226.849
 30
0.0
 40
13.999
  1
 1
 50
358.6135
  7
ROMANS
 11
969314.097729
 21
7278240.843901
 31
0.0
210
0.0
220
0.0
230
1.0
 73
     3
  0
TEXT
  8
10
  6
CONTINUOUS
 62
   134
  5
45
 10
969242.071
 20
7278228.584
 30
0.0
 40
13.999
  1
2 
 50
358.6135
  7
ROMANS
 11
969242.409729
 21
7278242.578901
 31
0.0
210
0.0
220
0.0
230
1.0
 73
     3
  0
TEXT
  8
10
  6
CONTINUOUS
 62
   134
  5
46
 10
969181.701
 20
7278230.045
 30
0.0
 40
13.999
  1
3 
 50
358.6135
  7
ROMANS
 11
969182.039729
 21
7278244.039901
 31
0.0
210
0.0
220
0.0
230
1.0
 73
     3
  0
TEXT
  8
10
  6
CONTINUOUS
 62
   134
  5
47
 10
969123.22
 20
7278231.46
 30
0.0
 40
13.999
  1
4 
 50
358.6135
  7
ROMANS
 11
969123.558729
 21
7278245.454901
 31
0.0
210
0.0
220
0.0
230
1.0
 73
     3
  0
TEXT
  8
10
  6
CONTINUOUS
 62
   134
  5
48
 10
969059.077
 20
7278233.013
 30
0.0
 40
13.999
  1
5 
 50
358.6135
  7
ROMANS
 11
969059.415729
 21
7278247.007901
 31
0.0
210
0.0
220
0.0
230
1.0
 73
     3
  0
TEXT
  8
10
  6
CONTINUOUS
 62
   134
  5
49
 10
969006.255
 20
7278234.291
 30
0.0
 40
13.999
  1
6 
 50
358.6135
  7
ROMANS
 11
969006.593729
 21
7278248.285901
 31
0.0
210
0.0
220
0.0
230
1.0
 73
     3
  0
TEXT
  8
10
  6
CONTINUOUS
 62
   134
  5
4A
 10
968942.112
 20
7278235.844
 30
0.0
 40
13.999
  1
7 
 50
358.6135
  7
ROMANS
 11
968942.450729
 21
7278249.838901
 31
0.0
210
0.0
220
0.0
230
1.0
 73
     3
  0
TEXT
  8
10
  6
CONTINUOUS
 62
   134
  5
4B
 10
968881.744
 20
7278237.305
 30
0.0
 40
13.999
  1
8 
 50
358.6135
  7
ROMANS
 11
968882.082729
 21
7278251.299901
 31
0.0
210
0.0
220
0.0
230
1.0
 73
     3
  0
TEXT
  8
10
  6
CONTINUOUS
 62
   134
  5
4C
 10
968817.603
 20
7278238.858
 30
0.0
 40
13.999
  1
9 
 50
358.6135
  7
ROMANS
 11
968817.941729
 21
7278252.852901
 31
0.0
210
0.0
220
0.0
230
1.0
 73
     3
  0
LINE
  8
7
  6
CONTINUOUS
 62
     7
  5
4D
 10
968867.811
 20
7278352.607
 30
0.0
 11
968870.957
 21
7278482.569
 31
0.0
  0
LINE
  8
7
  6
CONTINUOUS
 62
     7
  5
4E
 10
968927.794
 20
7278351.155
 30
0.0
 11
968930.94
 21
7278481.117
 31
0.0
  0
LINE
  8
7
  6
CONTINUOUS
 62
     7
  5
4F
 10
968987.776
 20
7278349.703
 30
0.0
 11
968990.922
 21
7278479.665
 31
0.0
  0
LINE
  8
7
  6
CONTINUOUS
 62
     7
  5
50
 10
969047.758
 20
7278348.252
 30
0.0
 11
969050.904
 21
7278478.214
 31
0.0
  0
LINE
  8
7
  6
CONTINUOUS
 62
     7
  5
51
 10
969107.742
 20
7278346.8
 30
0.0
 11
969110.887
 21
7278476.761
 31
0.0
  0
LINE
  8
7
  6
CONTINUOUS
 62
     7
  5
52
 10
969167.724
 20
7278345.348
 30
0.0
 11
969170.869
 21
7278475.31
 31
0.0
  0
LINE
  8
7
  6
CONTINUOUS
 62
     7
  5
53
 10
969227.706
 20
7278343.897
 30
0.0
 11
969230.851
 21
7278473.859
 31
0.0
  0
LINE
  8
7
  6
CONTINUOUS
 62
     7
  5
54
 10
969287.688
 20
7278342.444
 30
0.0
 11
969290.835
 21
7278472.406
 31
0.0
  0
TEXT
  8
10
  6
CONTINUOUS
 62
   134
  5
55
 10
969318.114
 20
7278406.796
 30
0.0
 40
13.999
  1
18
 50
358.6135
  7
ROMANS
 11
969318.452729
 21
7278420.790901
 31
0.0
210
0.0
220
0.0
230
1.0
 73
     3
  0
TEXT
  8
10
  6
CONTINUOUS
 62
   134
  5
56
 10
969246.426
 20
7278408.532
 30
0.0
 40
13.999
  1
17
 50
358.6135
  7
ROMANS
 11
969246.764729
 21
7278422.526901
 31
0.0
210
0.0
220
0.0
230
1.0
 73
     3
  0
TEXT
  8
10
  6
CONTINUOUS
 62
   134
  5
57
 10
969186.057
 20
7278409.992
 30
0.0
 40
13.999
  1
16
 50
358.6135
  7
ROMANS
 11
969186.395729
 21
7278423.986901
 31
0.0
210
0.0
220
0.0
230
1.0
 73
     3
  0
TEXT
  8
10
  6
CONTINUOUS
 62
   134
  5
58
 10
969127.575
 20
7278411.408
 30
0.0
 40
13.999
  1
15
 50
358.6135
  7
ROMANS
 11
969127.913729
 21
7278425.402901
 31
0.0
210
0.0
220
0.0
230
1.0
 73
     3
  0
TEXT
  8
10
  6
CONTINUOUS
 62
   134
  5
59
 10
969063.433
 20
7278412.961
 30
0.0
 40
13.999
  1
14
 50
358.6135
  7
ROMANS
 11
969063.771729
 21
7278426.955901
 31
0.0
210
0.0
220
0.0
230
1.0
 73
     3
  0
TEXT
  8
10
  6
CONTINUOUS
 62
   134
  5
5A
 10
969010.61
 20
7278414.239
 30
0.0
 40
13.999
  1
13
 50
358.6135
  7
ROMANS
 11
969010.948729
 21
7278428.233901
 31
0.0
210
0.0
220
0.0
230
1.0
 73
     3
  0
TEXT
  8
10
  6
CONTINUOUS
 62
   134
  5
5B
 10
968946.468
 20
7278415.792
 30
0.0
 40
13.999
  1
12
 50
358.6135
  7
ROMANS
 11
968946.806729
 21
7278429.786901
 31
0.0
210
0.0
220
0.0
230
1.0
 73
     3
  0
TEXT
  8
10
  6
CONTINUOUS
 62
   134
  5
5C
 10
968886.1
 20
7278417.253
 30
0.0
 40
13.999
  1
11
 50
358.6135
  7
ROMANS
 11
968886.438729
 21
7278431.247901
 31
0.0
210
0.0
220
0.0
230
1.0
 73
     3
  0
TEXT
  8
10
  6
CONTINUOUS
 62
   134
  5
5D
 10
968821.958
 20
7278418.805
 30
0.0
 40
13.999
  1
10
 50
358.6135
  7
ROMANS
 11
968822.296729
 21
7278432.799901
 31
0.0
210
0.0
220
0.0
230
1.0
 73
     3
  0
LINE
  8
7
  6
CONTINUOUS
 62
     7
  5
5E
 10
968871.32
 20
7278497.565
 30
0.0
 11
968874.465
 21
7278627.527
 31
0.0
  0
LINE
  8
7
  6
CONTINUOUS
 62
     7
  5
5F
 10
968931.302
 20
7278496.113
 30
0.0
 11
968934.448
 21
7278626.075
 31
0.0
  0
LINE
  8
7
  6
CONTINUOUS
 62
     7
  5
60
 10
968991.285
 20
7278494.661
 30
0.0
 11
968994.431
 21
7278624.623
 31
0.0
  0
LINE
  8
7
  6
CONTINUOUS
 62
     7
  5
61
 10
969051.267
 20
7278493.209
 30
0.0
 11
969054.413
 21
7278623.171
 31
0.0
  0
LINE
  8
7
  6
CONTINUOUS
 62
     7
  5
62
 10
969111.25
 20
7278491.757
 30
0.0
 11
969114.395
 21
7278621.719
 31
0.0
  0
LINE
  8
7
  6
CONTINUOUS
 62
     7
  5
63
 10
969171.232
 20
7278490.306
 30
0.0
 11
969174.377
 21
7278620.267
 31
0.0
  0
LINE
  8
7
  6
CONTINUOUS
 62
     7
  5
64
 10
969231.215
 20
7278488.854
 30
0.0
 11
969234.36
 21
7278618.816
 31
0.0
  0
LINE
  8
7
  6
CONTINUOUS
 62
     7
  5
65
 10
969291.197
 20
7278487.402
 30
0.0
 11
969294.343
 21
7278617.364
 31
0.0
  0
TEXT
  8
10
  6
CONTINUOUS
 62
   134
  5
66
 10
969321.623
 20
7278551.754
 30
0.0
 40
13.999
  1
 1
 50
358.6135
  7
ROMANS
 11
969321.961729
 21
7278565.748901
 31
0.0
210
0.0
220
0.0
230
1.0
 73
     3
  0
TEXT
  8
10
  6
CONTINUOUS
 62
   134
  5
67
 10
969249.935
 20
7278553.489
 30
0.0
 40
13.999
  1
2 
 50
358.6135
  7
ROMANS
 11
969250.273729
 21
7278567.483901
 31
0.0
210
0.0
220
0.0
230
1.0
 73
     3
  0
TEXT
  8
10
  6
CONTINUOUS
 62
   134
  5
68
 10
969189.565
 20
7278554.95
 30
0.0
 40
13.999
  1
3 
 50
358.6135
  7
ROMANS
 11
969189.903729
 21
7278568.944901
 31
0.0
210
0.0
220
0.0
230
1.0
 73
     3
  0
TEXT
  8
10
  6
CONTINUOUS
 62
   134
  5
69
 10
969131.083
 20
7278556.365
 30
0.0
 40
13.999
  1
4 
 50
358.6135
  7
ROMANS
 11
969131.421729
 21
7278570.359901
 31
0.0
210
0.0
220
0.0
230
1.0
 73
     3
  0
TEXT
  8
10
  6
CONTINUOUS
 62
   134
  5
6A
 10
969066.941
 20
7278557.918
 30
0.0
 40
13.999
  1
5 
 50
358.6135
  7
ROMANS
 11
969067.279729
 21
7278571.912901
 31
0.0
210
0.0
220
0.0
230
1.0
 73
     3
  0
TEXT
  8
10
  6
CONTINUOUS
 62
   134
  5
6B
 10
969014.119
 20
7278559.196
 30
0.0
 40
13.999
  1
6 
 50
358.6135
  7
ROMANS
 11
969014.457729
 21
7278573.190901
 31
0.0
210
0.0
220
0.0
230
1.0
 73
     3
  0
TEXT
  8
10
  6
CONTINUOUS
 62
   134
  5
6C
 10
968949.977
 20
7278560.749
 30
0.0
 40
13.999
  1
7 
 50
358.6135
  7
ROMANS
 11
968950.315729
 21
7278574.743901
 31
0.0
210
0.0
220
0.0
230
1.0
 73
     3
  0
TEXT
  8
10
  6
CONTINUOUS
 62
   134
  5
6D
 10
968889.609
 20
7278562.21
 30
0.0
 40
13.999
  1
8 
 50
358.6135
  7
ROMANS
 11
968889.947729
 21
7278576.204901
 31
0.0
210
0.0
220
0.0
230
1.0
 73
     3
  0
TEXT
  8
10
  6
CONTINUOUS
 62
   134
  5
6E
 10
968825.467
 20
7278563.763
 30
0.0
 40
13.999
  1
9 
 50
358.6135
  7
ROMANS
 11
968825.805729
 21
7278577.757901
 31
0.0
210
0.0
220
0.0
230
1.0
 73
     3
  0
POLYLINE
  8
6
  6
CONTINUOUS
 62
     7
  5
70
 66
     1
 10
0.0
 20
0.0
 30
0.0
  0
VERTEX
  8
6
  6
CONTINUOUS
 62
     7
  5
71
 10
969417.284
 20
7278014.213
 30
0.0
  0
VERTEX
  8
6
  6
CONTINUOUS
 62
     7
  5
72
 10
969433.012
 20
7278664.022
 30
0.0
  0
VERTEX
  8
6
  6
CONTINUOUS
 62
     7
  5
73
 10
968798.198
 20
7278679.387
 30
0.0
  0
SEQEND
  8
6
  6
CONTINUOUS
 62
     7
  5
74
  0
LINE
  8
7
  6
CONTINUOUS
 62
     7
  5
75
 10
969088.929
 20
7279508.102
 30
0.0
 11
969084.526
 21
7279326.245
 31
0.0
  0
LINE
  8
7
  6
CONTINUOUS
 62
     7
  5
76
 10
969093.814
 20
7279709.982
 30
0.0
 11
969089.412
 21
7279528.096
 31
0.0
  0
LINE
  8
7
  6
CONTINUOUS
 62
     7
  5
77
 10
969346.353
 20
7279501.871
 30
0.0
 11
969341.952
 21
7279320.015
 31
0.0
  0
LINE
  8
7
  6
CONTINUOUS
 62
     7
  5
78
 10
969603.777
 20
7279495.641
 30
0.0
 11
969599.376
 21
7279313.783
 31
0.0
  0
LINE
  8
7
  6
CONTINUOUS
 62
     7
  5
79
 10
969861.202
 20
7279489.41
 30
0.0
 11
969856.801
 21
7279307.553
 31
0.0
  0
LINE
  8
7
  6
CONTINUOUS
 62
     7
  5
7A
 10
969351.239
 20
7279703.752
 30
0.0
 11
969346.837
 21
7279521.866
 31
0.0
  0
LINE
  8
7
  6
CONTINUOUS
 62
     7
  5
7B
 10
969608.664
 20
7279697.522
 30
0.0
 11
969604.262
 21
7279515.634
 31
0.0
  0
LINE
  8
7
  6
CONTINUOUS
 62
     7
  5
7C
 10
969866.089
 20
7279691.291
 30
0.0
 11
969861.686
 21
7279509.404
 31
0.0
  0
TEXT
  8
10
  6
CONTINUOUS
 62
   134
  5
7D
 10
969983.127
 20
7279593.901
 30
0.0
 40
13.999
  1
46
 50
358.6135
  7
ROMANS
 11
969983.465729
 21
7279607.895901
 31
0.0
210
0.0
220
0.0
230
1.0
 73
     3
  0
TEXT
  8
10
  6
CONTINUOUS
 62
   134
  5
7E
 10
969721.217
 20
7279600.24
 30
0.0
 40
13.999
  1
47
 50
358.6135
  7
ROMANS
 11
969721.555729
 21
7279614.234901
 31
0.0
210
0.0
220
0.0
230
1.0
 73
     3
  0
TEXT
  8
10
  6
CONTINUOUS
 62
   134
  5
7F
 10
969465.305
 20
7279606.434
 30
0.0
 40
13.999
  1
48
 50
358.6135
  7
ROMANS
 11
969465.643729
 21
7279620.428901
 31
0.0
210
0.0
220
0.0
230
1.0
 73
     3
  0
TEXT
  8
10
  6
CONTINUOUS
 62
   134
  5
80
 10
969211.393
 20
7279612.58
 30
0.0
 40
13.999
  1
49
 50
358.6135
  7
ROMANS
 11
969211.731729
 21
7279626.574901
 31
0.0
210
0.0
220
0.0
230
1.0
 73
     3
  0
TEXT
  8
10
  6
CONTINUOUS
 62
   134
  5
81
 10
968941.485
 20
7279619.113
 30
0.0
 40
13.999
  1
50
 50
358.6135
  7
ROMANS
 11
968941.823729
 21
7279633.107901
 31
0.0
210
0.0
220
0.0
230
1.0
 73
     3
  0
TEXT
  8
10
  6
CONTINUOUS
 62
   134
  5
82
 10
968936.594
 20
7279417.019
 30
0.0
 40
13.999
  1
51
 50
358.6135
  7
ROMANS
 11
968936.932729
 21
7279431.013901
 31
0.0
210
0.0
220
0.0
230
1.0
 73
     3
  0
TEXT
  8
10
  6
CONTINUOUS
 62
   134
  5
83
 10
969208.5
 20
7279410.438
 30
0.0
 40
13.999
  1
52
 50
358.6135
  7
ROMANS
 11
969208.838729
 21
7279424.432901
 31
0.0
210
0.0
220
0.0
230
1.0
 73
     3
  0
TEXT
  8
10
  6
CONTINUOUS
 62
   134
  5
84
 10
969460.413
 20
7279404.34
 30
0.0
 40
13.999
  1
53
 50
358.6135
  7
ROMANS
 11
969460.751729
 21
7279418.334901
 31
0.0
210
0.0
220
0.0
230
1.0
 73
     3
  0
TEXT
  8
10
  6
CONTINUOUS
 62
   134
  5
85
 10
969720.324
 20
7279398.05
 30
0.0
 40
13.999
  1
54
 50
358.6135
  7
ROMANS
 11
969720.662729
 21
7279412.044901
 31
0.0
210
0.0
220
0.0
230
1.0
 73
     3
  0
TEXT
  8
10
  6
CONTINUOUS
 62
   134
  5
86
 10
969980.235
 20
7279391.759
 30
0.0
 40
13.999
  1
55
 50
358.6135
  7
ROMANS
 11
969980.573729
 21
7279405.753901
 31
0.0
210
0.0
220
0.0
230
1.0
 73
     3
  0
LINE
  8
7
  6
CONTINUOUS
 62
     7
  5
87
 10
969099.572
 20
7279947.853
 30
0.0
 11
969095.169
 21
7279765.966
 31
0.0
  0
LINE
  8
7
  6
CONTINUOUS
 62
     7
  5
88
 10
969356.997
 20
7279941.623
 30
0.0
 11
969352.594
 21
7279759.735
 31
0.0
  0
LINE
  8
7
  6
CONTINUOUS
 62
     7
  5
89
 10
969614.421
 20
7279935.391
 30
0.0
 11
969610.019
 21
7279753.505
 31
0.0
  0
LINE
  8
7
  6
CONTINUOUS
 62
     7
  5
8A
 10
969871.846
 20
7279929.161
 30
0.0
 11
969867.444
 21
7279747.274
 31
0.0
  0
TEXT
  8
10
  6
CONTINUOUS
 62
   134
  5
8B
 10
969988.884
 20
7279831.771
 30
0.0
 40
13.999
  1
35
 50
358.6135
  7
ROMANS
 11
969989.222729
 21
7279845.765901
 31
0.0
210
0.0
220
0.0
230
1.0
 73
     3
  0
TEXT
  8
10
  6
CONTINUOUS
 62
   134
  5
8C
 10
969726.974
 20
7279838.111
 30
0.0
 40
13.999
  1
34
 50
358.6135
  7
ROMANS
 11
969727.312729
 21
7279852.105901
 31
0.0
210
0.0
220
0.0
230
1.0
 73
     3
  0
TEXT
  8
10
  6
CONTINUOUS
 62
   134
  5
8D
 10
969471.062
 20
7279844.305
 30
0.0
 40
13.999
  1
33
 50
358.6135
  7
ROMANS
 11
969471.400729
 21
7279858.299901
 31
0.0
210
0.0
220
0.0
230
1.0
 73
     3
  0
TEXT
  8
10
  6
CONTINUOUS
 62
   134
  5
8E
 10
969217.15
 20
7279850.451
 30
0.0
 40
13.999
  1
32
 50
358.6135
  7
ROMANS
 11
969217.488729
 21
7279864.445901
 31
0.0
210
0.0
220
0.0
230
1.0
 73
     3
  0
TEXT
  8
10
  6
CONTINUOUS
 62
   134
  5
8F
 10
968947.242
 20
7279856.983
 30
0.0
 40
13.999
  1
31
 50
358.6135
  7
ROMANS
 11
968947.580729
 21
7279870.977901
 31
0.0
210
0.0
220
0.0
230
1.0
 73
     3
  0
ARC
  8
6
  6
CONTINUOUS
 62
     7
  5
90
 10
970099.593041
 20
7279316.681302
 30
0.0
 40
15.0
 50
268.6135
 51
358.6135
210
0.0
220
0.0
230
1.0
  0
POLYLINE
  8
6
  6
CONTINUOUS
 62
     7
  5
91
 66
     1
 10
0.0
 20
0.0
 30
0.0
  0
VERTEX
  8
6
  6
CONTINUOUS
 62
     7
  5
92
 10
970114.588
 20
7279316.318
 30
0.0
  0
VERTEX
  8
6
  6
CONTINUOUS
 62
     7
  5
93
 10
970118.627
 20
7279483.179
 30
0.0
  0
VERTEX
  8
6
  6
CONTINUOUS
 62
     7
  5
94
 10
968831.503
 20
7279514.332
 30
0.0
  0
VERTEX
  8
6
  6
CONTINUOUS
 62
     7
  5
95
 10
968827.465
 20
7279347.472
 30
0.0
  0
SEQEND
  8
6
  6
CONTINUOUS
 62
     7
  5
96
  0
ARC
  8
6
  6
CONTINUOUS
 62
     7
  5
97
 10
968842.461214
 20
7279347.108562
 30
0.0
 40
15.0
 50
178.6135
 51
268.6135
210
0.0
220
0.0
230
1.0
  0
ARC
  8
6
  6
CONTINUOUS
 62
     7
  5
98
 10
968851.023191
 20
7279700.854962
 30
0.0
 40
15.0
 50
88.6135
 51
178.6135
210
0.0
220
0.0
230
1.0
  0
ARC
  8
6
  6
CONTINUOUS
 62
     7
  5
99
 10
968853.104101
 20
7279786.829782
 30
0.0
 40
15.0
 50
178.6135
 51
268.6135
210
0.0
220
0.0
230
1.0
  0
LINE
  8
6
  6
CONTINUOUS
 62
     7
  5
9A
 10
968852.741
 20
7279771.834
 30
0.0
 11
970109.873
 21
7279741.407
 31
0.0
  0
POLYLINE
  8
6
  6
CONTINUOUS
 62
     7
  5
9B
 66
     1
 10
0.0
 20
0.0
 30
0.0
  0
VERTEX
  8
6
  6
CONTINUOUS
 62
     7
  5
9C
 10
970125.232
 20
7279756.039
 30
0.0
  0
VERTEX
  8
6
  6
CONTINUOUS
 62
     7
  5
9D
 10
970129.27
 20
7279922.93
 30
0.0
  0
VERTEX
  8
6
  6
CONTINUOUS
 62
     7
  5
9E
 10
968842.147
 20
7279954.084
 30
0.0
  0
VERTEX
  8
6
  6
CONTINUOUS
 62
     7
  5
9F
 10
968838.108
 20
7279787.192
 30
0.0
  0
SEQEND
  8
6
  6
CONTINUOUS
 62
     7
  5
A0
  0
ARC
  8
6
  6
CONTINUOUS
 62
     7
  5
A1
 10
970110.235928
 20
7279756.402522
 30
0.0
 40
15.0
 50
268.6135
 51
358.6135
210
0.0
220
0.0
230
1.0
  0
POLYLINE
  8
6
  6
CONTINUOUS
 62
     7
  5
A2
 66
     1
 10
0.0
 20
0.0
 30
0.0
  0
VERTEX
  8
6
  6
CONTINUOUS
 62
     7
  5
A3
 10
968836.027
 20
7279701.218
 30
0.0
  0
VERTEX
  8
6
  6
CONTINUOUS
 62
     7
  5
A4
 10
968831.988
 20
7279534.326
 30
0.0
  0
VERTEX
  8
6
  6
CONTINUOUS
 62
     7
  5
A5
 10
970119.111
 20
7279503.173
 30
0.0
  0
VERTEX
  8
6
  6
CONTINUOUS
 62
     7
  5
A6
 10
970123.15
 20
7279670.065
 30
0.0
  0
SEQEND
  8
6
  6
CONTINUOUS
 62
     7
  5
A7
  0
LINE
  8
6
  6
CONTINUOUS
 62
     7
  5
A8
 10
970108.518
 20
7279685.423
 30
0.0
 11
968851.386
 21
7279715.85
 31
0.0
  0
ARC
  8
6
  6
CONTINUOUS
 62
     7
  5
A9
 10
970108.155018
 20
7279670.427701
 30
0.0
 40
15.0
 50
358.6135
 51
88.6135
210
0.0
220
0.0
230
1.0
  0
LINE
  8
7
  6
CONTINUOUS
 62
     7
  5
AA
 10
970432.519
 20
7279495.588
 30
0.0
 11
970436.922
 21
7279677.474
 31
0.0
  0
LINE
  8
7
  6
CONTINUOUS
 62
     7
  5
AB
 10
970427.634
 20
7279293.737
 30
0.0
 11
970432.035
 21
7279475.593
 31
0.0
  0
LINE
  8
7
  6
CONTINUOUS
 62
     7
  5
AC
 10
970685.058
 20
7279287.506
 30
0.0
 11
970689.459
 21
7279469.363
 31
0.0
  0
LINE
  8
7
  6
CONTINUOUS
 62
     7
  5
AD
 10
970942.482
 20
7279281.276
 30
0.0
 11
970946.885
 21
7279463.133
 31
0.0
  0
LINE
  8
7
  6
CONTINUOUS
 62
     7
  5
AE
 10
971199.908
 20
7279275.045
 30
0.0
 11
971204.309
 21
7279456.902
 31
0.0
  0
LINE
  8
7
  6
CONTINUOUS
 62
     7
  5
AF
 10
970689.944
 20
7279489.357
 30
0.0
 11
970694.346
 21
7279671.244
 31
0.0
  0
LINE
  8
7
  6
CONTINUOUS
 62
     7
  5
B0
 10
970947.368
 20
7279483.127
 30
0.0
 11
970951.77
 21
7279665.013
 31
0.0
  0
LINE
  8
7
  6
CONTINUOUS
 62
     7
  5
B1
 10
971204.792
 20
7279476.895
 30
0.0
 11
971209.196
 21
7279658.783
 31
0.0
  0
TEXT
  8
10
  6
CONTINUOUS
 62
   134
  5
B2
 10
970296.192
 20
7279588.361
 30
0.0
 40
13.999
  1
45
 50
358.6135
  7
ROMANS
 11
970296.530729
 21
7279602.355901
 31
0.0
210
0.0
220
0.0
230
1.0
 73
     3
  0
TEXT
  8
10
  6
CONTINUOUS
 62
   134
  5
B3
 10
970291.301
 20
7279386.267
 30
0.0
 40
13.999
  1
56
 50
358.6135
  7
ROMANS
 11
970291.639729
 21
7279400.261901
 31
0.0
210
0.0
220
0.0
230
1.0
 73
     3
  0
TEXT
  8
10
  6
CONTINUOUS
 62
   134
  5
B4
 10
971334.941
 20
7279361.007
 30
0.0
 40
13.999
  1
60
 50
358.6135
  7
ROMANS
 11
971335.279729
 21
7279375.001901
 31
0.0
210
0.0
220
0.0
230
1.0
 73
     3
  0
TEXT
  8
10
  6
CONTINUOUS
 62
   134
  5
B5
 10
971339.881
 20
7279565.101
 30
0.0
 40
13.999
  1
41
 50
358.6135
  7
ROMANS
 11
971340.219729
 21
7279579.095901
 31
0.0
210
0.0
220
0.0
230
1.0
 73
     3
  0
TEXT
  8
10
  6
CONTINUOUS
 62
   134
  5
B6
 10
971067.974
 20
7279571.682
 30
0.0
 40
13.999
  1
42
 50
358.6135
  7
ROMANS
 11
971068.312729
 21
7279585.676901
 31
0.0
210
0.0
220
0.0
230
1.0
 73
     3
  0
TEXT
  8
10
  6
CONTINUOUS
 62
   134
  5
B7
 10
970812.063
 20
7279577.876
 30
0.0
 40
13.999
  1
43
 50
358.6135
  7
ROMANS
 11
970812.401729
 21
7279591.870901
 31
0.0
210
0.0
220
0.0
230
1.0
 73
     3
  0
TEXT
  8
10
  6
CONTINUOUS
 62
   134
  5
B8
 10
970556.15
 20
7279584.07
 30
0.0
 40
13.999
  1
44
 50
358.6135
  7
ROMANS
 11
970556.488729
 21
7279598.064901
 31
0.0
210
0.0
220
0.0
230
1.0
 73
     3
  0
LINE
  8
7
  6
CONTINUOUS
 62
     7
  5
B9
 10
970438.277
 20
7279733.459
 30
0.0
 11
970442.679
 21
7279915.345
 31
0.0
  0
LINE
  8
7
  6
CONTINUOUS
 62
     7
  5
BA
 10
970695.701
 20
7279727.227
 30
0.0
 11
970700.103
 21
7279909.115
 31
0.0
  0
LINE
  8
7
  6
CONTINUOUS
 62
     7
  5
BB
 10
970953.125
 20
7279720.997
 30
0.0
 11
970957.528
 21
7279902.883
 31
0.0
  0
LINE
  8
7
  6
CONTINUOUS
 62
     7
  5
BC
 10
971210.55
 20
7279714.766
 30
0.0
 11
971214.953
 21
7279896.653
 31
0.0
  0
TEXT
  8
10
  6
CONTINUOUS
 62
   134
  5
BD
 10
970301.95
 20
7279826.23
 30
0.0
 40
13.999
  1
36
 50
358.6135
  7
ROMANS
 11
970302.288729
 21
7279840.224901
 31
0.0
210
0.0
220
0.0
230
1.0
 73
     3
  0
TEXT
  8
10
  6
CONTINUOUS
 62
   134
  5
BE
 10
971345.638
 20
7279802.971
 30
0.0
 40
13.999
  1
40
 50
358.6135
  7
ROMANS
 11
971345.976729
 21
7279816.965901
 31
0.0
210
0.0
220
0.0
230
1.0
 73
     3
  0
TEXT
  8
10
  6
CONTINUOUS
 62
   134
  5
BF
 10
971073.731
 20
7279809.553
 30
0.0
 40
13.999
  1
39
 50
358.6135
  7
ROMANS
 11
971074.069729
 21
7279823.547901
 31
0.0
210
0.0
220
0.0
230
1.0
 73
     3
  0
TEXT
  8
10
  6
CONTINUOUS
 62
   134
  5
C0
 10
970817.82
 20
7279815.747
 30
0.0
 40
13.999
  1
38
 50
358.6135
  7
ROMANS
 11
970818.158729
 21
7279829.741901
 31
0.0
210
0.0
220
0.0
230
1.0
 73
     3
  0
TEXT
  8
10
  6
CONTINUOUS
 62
   134
  5
C1
 10
970561.908
 20
7279821.941
 30
0.0
 40
13.999
  1
37
 50
358.6135
  7
ROMANS
 11
970562.246729
 21
7279835.935901
 31
0.0
210
0.0
220
0.0
230
1.0
 73
     3
  0
LINE
  8
7
  6
CONTINUOUS
 62
     7
  5
C2
 10
970443.162
 20
7279935.339
 30
0.0
 11
970447.565
 21
7280117.226
 31
0.0
  0
LINE
  8
7
  6
CONTINUOUS
 62
     7
  5
C3
 10
970700.588
 20
7279929.108
 30
0.0
 11
970704.99
 21
7280110.995
 31
0.0
  0
LINE
  8
7
  6
CONTINUOUS
 62
     7
  5
C4
 10
970958.012
 20
7279922.878
 30
0.0
 11
970962.414
 21
7280104.764
 31
0.0
  0
LINE
  8
7
  6
CONTINUOUS
 62
     7
  5
C5
 10
971215.436
 20
7279916.647
 30
0.0
 11
971219.839
 21
7280098.534
 31
0.0
  0
TEXT
  8
10
  6
CONTINUOUS
 62
   134
  5
C6
 10
970306.835
 20
7280028.111
 30
0.0
 40
13.999
  1
25
 50
358.6135
  7
ROMANS
 11
970307.173729
 21
7280042.105901
 31
0.0
210
0.0
220
0.0
230
1.0
 73
     3
  0
TEXT
  8
10
  6
CONTINUOUS
 62
   134
  5
C7
 10
971350.525
 20
7280004.852
 30
0.0
 40
13.999
  1
21
 50
358.6135
  7
ROMANS
 11
971350.863729
 21
7280018.846901
 31
0.0
210
0.0
220
0.0
230
1.0
 73
     3
  0
TEXT
  8
10
  6
CONTINUOUS
 62
   134
  5
C8
 10
971078.618
 20
7280011.434
 30
0.0
 40
13.999
  1
22
 50
358.6135
  7
ROMANS
 11
971078.956729
 21
7280025.428901
 31
0.0
210
0.0
220
0.0
230
1.0
 73
     3
  0
TEXT
  8
10
  6
CONTINUOUS
 62
   134
  5
C9
 10
970822.706
 20
7280017.628
 30
0.0
 40
13.999
  1
23
 50
358.6135
  7
ROMANS
 11
970823.044729
 21
7280031.622901
 31
0.0
210
0.0
220
0.0
230
1.0
 73
     3
  0
TEXT
  8
10
  6
CONTINUOUS
 62
   134
  5
CA
 10
970566.794
 20
7280023.822
 30
0.0
 40
13.999
  1
24
 50
358.6135
  7
ROMANS
 11
970567.132729
 21
7280037.816901
 31
0.0
210
0.0
220
0.0
230
1.0
 73
     3
  0
LINE
  8
7
  6
CONTINUOUS
 62
     7
  5
CB
 10
970448.92
 20
7280173.209
 30
0.0
 11
970453.322
 21
7280355.096
 31
0.0
  0
LINE
  8
7
  6
CONTINUOUS
 62
     7
  5
CC
 10
970706.345
 20
7280166.979
 30
0.0
 11
970710.747
 21
7280348.865
 31
0.0
  0
LINE
  8
7
  6
CONTINUOUS
 62
     7
  5
CD
 10
970963.769
 20
7280160.748
 30
0.0
 11
970968.172
 21
7280342.635
 31
0.0
  0
LINE
  8
7
  6
CONTINUOUS
 62
     7
  5
CE
 10
971221.194
 20
7280154.518
 30
0.0
 11
971225.596
 21
7280336.404
 31
0.0
  0
TEXT
  8
10
  6
CONTINUOUS
 62
   134
  5
CF
 10
970312.593
 20
7280265.982
 30
0.0
 40
13.999
  1
16
 50
358.6135
  7
ROMANS
 11
970312.931729
 21
7280279.976901
 31
0.0
210
0.0
220
0.0
230
1.0
 73
     3
  0
TEXT
  8
10
  6
CONTINUOUS
 62
   134
  5
D0
 10
971356.282
 20
7280242.723
 30
0.0
 40
13.999
  1
20
 50
358.6135
  7
ROMANS
 11
971356.620729
 21
7280256.717901
 31
0.0
210
0.0
220
0.0
230
1.0
 73
     3
  0
TEXT
  8
10
  6
CONTINUOUS
 62
   134
  5
D1
 10
971084.375
 20
7280249.303
 30
0.0
 40
13.999
  1
19
 50
358.6135
  7
ROMANS
 11
971084.713729
 21
7280263.297901
 31
0.0
210
0.0
220
0.0
230
1.0
 73
     3
  0
TEXT
  8
10
  6
CONTINUOUS
 62
   134
  5
D2
 10
970828.463
 20
7280255.497
 30
0.0
 40
13.999
  1
18
 50
358.6135
  7
ROMANS
 11
970828.801729
 21
7280269.491901
 31
0.0
210
0.0
220
0.0
230
1.0
 73
     3
  0
TEXT
  8
10
  6
CONTINUOUS
 62
   134
  5
D3
 10
970572.551
 20
7280261.692
 30
0.0
 40
13.999
  1
17
 50
358.6135
  7
ROMANS
 11
970572.889729
 21
7280275.686901
 31
0.0
210
0.0
220
0.0
230
1.0
 73
     3
  0
LINE
  8
7
  6
CONTINUOUS
 62
     7
  5
D4
 10
970453.806
 20
7280375.09
 30
0.0
 11
970458.209
 21
7280556.976
 31
0.0
  0
LINE
  8
7
  6
CONTINUOUS
 62
     7
  5
D5
 10
970711.231
 20
7280368.86
 30
0.0
 11
970715.633
 21
7280550.746
 31
0.0
  0
LINE
  8
7
  6
CONTINUOUS
 62
     7
  5
D6
 10
970968.655
 20
7280362.629
 30
0.0
 11
970973.057
 21
7280544.516
 31
0.0
  0
LINE
  8
7
  6
CONTINUOUS
 62
     7
  5
D7
 10
971226.08
 20
7280356.399
 30
0.0
 11
971230.483
 21
7280538.285
 31
0.0
  0
TEXT
  8
10
  6
CONTINUOUS
 62
   134
  5
D8
 10
970317.479
 20
7280467.863
 30
0.0
 40
13.999
  1
5 
 50
358.6135
  7
ROMANS
 11
970317.817729
 21
7280481.857901
 31
0.0
210
0.0
220
0.0
230
1.0
 73
     3
  0
TEXT
  8
10
  6
CONTINUOUS
 62
   134
  5
D9
 10
971361.168
 20
7280444.604
 30
0.0
 40
13.999
  1
 1
 50
358.6135
  7
ROMANS
 11
971361.506729
 21
7280458.598901
 31
0.0
210
0.0
220
0.0
230
1.0
 73
     3
  0
TEXT
  8
10
  6
CONTINUOUS
 62
   134
  5
DA
 10
971089.262
 20
7280451.184
 30
0.0
 40
13.999
  1
2 
 50
358.6135
  7
ROMANS
 11
971089.600729
 21
7280465.178901
 31
0.0
210
0.0
220
0.0
230
1.0
 73
     3
  0
TEXT
  8
10
  6
CONTINUOUS
 62
   134
  5
DB
 10
970833.35
 20
7280457.378
 30
0.0
 40
13.999
  1
3 
 50
358.6135
  7
ROMANS
 11
970833.688729
 21
7280471.372901
 31
0.0
210
0.0
220
0.0
230
1.0
 73
     3
  0
TEXT
  8
10
  6
CONTINUOUS
 62
   134
  5
DC
 10
970577.438
 20
7280463.572
 30
0.0
 40
13.999
  1
4 
 50
358.6135
  7
ROMANS
 11
970577.776729
 21
7280477.566901
 31
0.0
210
0.0
220
0.0
230
1.0
 73
     3
  0
ARC
  8
6
  6
CONTINUOUS
 62
     7
  5
DD
 10
971442.369786
 20
7279284.181117
 30
0.0
 40
15.0
 50
268.6135
 51
358.6135
210
0.0
220
0.0
230
1.0
  0
LINE
  8
6
  6
CONTINUOUS
 62
     7
  5
DE
 10
971442.006
 20
7279269.186
 30
0.0
 11
970185.204
 21
7279299.605
 31
0.0
  0
POLYLINE
  8
6
  6
CONTINUOUS
 62
     7
  5
DF
 66
     1
 10
0.0
 20
0.0
 30
0.0
  0
VERTEX
  8
6
  6
CONTINUOUS
 62
     7
  5
E0
 10
970170.572
 20
7279314.963
 30
0.0
  0
VERTEX
  8
6
  6
CONTINUOUS
 62
     7
  5
E1
 10
970174.61
 20
7279481.824
 30
0.0
  0
VERTEX
  8
6
  6
CONTINUOUS
 62
     7
  5
E2
 10
971461.403
 20
7279450.679
 30
0.0
  0
VERTEX
  8
6
  6
CONTINUOUS
 62
     7
  5
E3
 10
971457.365
 20
7279283.818
 30
0.0
  0
SEQEND
  8
6
  6
CONTINUOUS
 62
     7
  5
E4
  0
ARC
  8
6
  6
CONTINUOUS
 62
     7
  5
E5
 10
970185.567862
 20
7279314.600392
 30
0.0
 40
15.0
 50
178.6135
 51
268.6135
210
0.0
220
0.0
230
1.0
  0
ARC
  8
6
  6
CONTINUOUS
 62
     7
  5
E6
 10
970194.129839
 20
7279668.346791
 30
0.0
 40
15.0
 50
88.6135
 51
178.6135
210
0.0
220
0.0
230
1.0
  0
ARC
  8
6
  6
CONTINUOUS
 62
     7
  5
E7
 10
970196.210749
 20
7279754.321612
 30
0.0
 40
15.0
 50
178.6135
 51
268.6135
210
0.0
220
0.0
230
1.0
  0
POLYLINE
  8
6
  6
CONTINUOUS
 62
     7
  5
E8
 66
     1
 10
0.0
 20
0.0
 30
0.0
  0
VERTEX
  8
6
  6
CONTINUOUS
 62
     7
  5
E9
 10
970181.215
 20
7279754.684
 30
0.0
  0
VERTEX
  8
6
  6
CONTINUOUS
 62
     7
  5
EA
 10
970185.254
 20
7279921.575
 30
0.0
  0
VERTEX
  8
6
  6
CONTINUOUS
 62
     7
  5
EB
 10
971472.047
 20
7279890.43
 30
0.0
  0
VERTEX
  8
6
  6
CONTINUOUS
 62
     7
  5
EC
 10
971468.008
 20
7279723.54
 30
0.0
  0
SEQEND
  8
6
  6
CONTINUOUS
 62
     7
  5
ED
  0
LINE
  8
6
  6
CONTINUOUS
 62
     7
  5
EE
 10
971452.649
 20
7279708.906
 30
0.0
 11
970195.847
 21
7279739.325
 31
0.0
  0
ARC
  8
6
  6
CONTINUOUS
 62
     7
  5
EF
 10
971453.012673
 20
7279723.902337
 30
0.0
 40
15.0
 50
268.6135
 51
358.6135
210
0.0
220
0.0
230
1.0
  0
LINE
  8
6
  6
CONTINUOUS
 62
     7
  5
F0
 10
970194.492
 20
7279683.342
 30
0.0
 11
971451.294
 21
7279652.923
 31
0.0
  0
POLYLINE
  8
6
  6
CONTINUOUS
 62
     7
  5
F1
 66
     1
 10
0.0
 20
0.0
 30
0.0
  0
VERTEX
  8
6
  6
CONTINUOUS
 62
     7
  5
F2
 10
971465.927
 20
7279637.564
 30
0.0
  0
VERTEX
  8
6
  6
CONTINUOUS
 62
     7
  5
F3
 10
971461.888
 20
7279470.673
 30
0.0
  0
VERTEX
  8
6
  6
CONTINUOUS
 62
     7
  5
F4
 10
970175.094
 20
7279501.818
 30
0.0
  0
VERTEX
  8
6
  6
CONTINUOUS
 62
     7
  5
F5
 10
970179.134
 20
7279668.71
 30
0.0
  0
SEQEND
  8
6
  6
CONTINUOUS
 62
     7
  5
F6
  0
ARC
  8
6
  6
CONTINUOUS
 62
     7
  5
F7
 10
971450.931763
 20
7279637.927516
 30
0.0
 40
15.0
 50
358.6135
 51
88.6135
210
0.0
220
0.0
230
1.0
  0
ARC
  8
6
  6
CONTINUOUS
 62
     7
  5
F8
 10
971461.575376
 20
7280077.678728
 30
0.0
 40
15.0
 50
358.6135
 51
88.6135
210
0.0
220
0.0
230
1.0
  0
POLYLINE
  8
6
  6
CONTINUOUS
 62
     7
  5
F9
 66
     1
 10
0.0
 20
0.0
 30
0.0
  0
VERTEX
  8
6
  6
CONTINUOUS
 62
     7
  5
FA
 10
971476.571
 20
7280077.316
 30
0.0
  0
VERTEX
  8
6
  6
CONTINUOUS
 62
     7
  5
FB
 10
971472.531
 20
7279910.424
 30
0.0
  0
VERTEX
  8
6
  6
CONTINUOUS
 62
     7
  5
FC
 10
970185.738
 20
7279941.57
 30
0.0
  0
VERTEX
  8
6
  6
CONTINUOUS
 62
     7
  5
FD
 10
970189.778
 20
7280108.46
 30
0.0
  0
SEQEND
  8
6
  6
CONTINUOUS
 62
     7
  5
FE
  0
LINE
  8
6
  6
CONTINUOUS
 62
     7
  5
FF
 10
970205.136
 20
7280123.094
 30
0.0
 11
971461.938
 21
7280092.674
 31
0.0
  0
ARC
  8
6
  6
CONTINUOUS
 62
     7
  5
100
 10
970204.773452
 20
7280108.098003
 30
0.0
 40
15.0
 50
88.6135
 51
178.6135
210
0.0
220
0.0
230
1.0
  0
ARC
  8
6
  6
CONTINUOUS
 62
     7
  5
101
 10
970206.854362
 20
7280194.072824
 30
0.0
 40
15.0
 50
178.6135
 51
268.6135
210
0.0
220
0.0
230
1.0
  0
LINE
  8
6
  6
CONTINUOUS
 62
     7
  5
102
 10
971463.293
 20
7280148.658
 30
0.0
 11
970206.491
 21
7280179.077
 31
0.0
  0
POLYLINE
  8
6
  6
CONTINUOUS
 62
     7
  5
103
 66
     1
 10
0.0
 20
0.0
 30
0.0
  0
VERTEX
  8
6
  6
CONTINUOUS
 62
     7
  5
104
 10
970191.858
 20
7280194.436
 30
0.0
  0
VERTEX
  8
6
  6
CONTINUOUS
 62
     7
  5
105
 10
970195.897
 20
7280361.327
 30
0.0
  0
VERTEX
  8
6
  6
CONTINUOUS
 62
     7
  5
106
 10
971482.69
 20
7280330.182
 30
0.0
  0
VERTEX
  8
6
  6
CONTINUOUS
 62
     7
  5
107
 10
971478.652
 20
7280163.29
 30
0.0
  0
SEQEND
  8
6
  6
CONTINUOUS
 62
     7
  5
108
  0
ARC
  8
6
  6
CONTINUOUS
 62
     7
  5
109
 10
971463.656286
 20
7280163.653548
 30
0.0
 40
15.0
 50
268.6135
 51
358.6135
210
0.0
220
0.0
230
1.0
  0
ARC
  8
6
  6
CONTINUOUS
 62
     7
  5
10A
 10
971472.218989
 20
7280517.429939
 30
0.0
 40
15.0
 50
358.6135
 51
88.6135
210
0.0
220
0.0
230
1.0
  0
POLYLINE
  8
6
  6
CONTINUOUS
 62
     7
  5
10B
 66
     1
 10
0.0
 20
0.0
 30
0.0
  0
VERTEX
  8
6
  6
CONTINUOUS
 62
     7
  5
10C
 10
971487.215
 20
7280517.066
 30
0.0
  0
VERTEX
  8
6
  6
CONTINUOUS
 62
     7
  5
10D
 10
971483.175
 20
7280350.176
 30
0.0
  0
VERTEX
  8
6
  6
CONTINUOUS
 62
     7
  5
10E
 10
970196.382
 20
7280381.32
 30
0.0
  0
VERTEX
  8
6
  6
CONTINUOUS
 62
     7
  5
10F
 10
970200.421
 20
7280548.212
 30
0.0
  0
SEQEND
  8
6
  6
CONTINUOUS
 62
     7
  5
110
  0
LINE
  8
6
  6
CONTINUOUS
 62
     7
  5
111
 10
970215.779
 20
7280562.844
 30
0.0
 11
971472.581
 21
7280532.425
 31
0.0
  0
ARC
  8
6
  6
CONTINUOUS
 62
     7
  5
112
 10
970215.417065
 20
7280547.849214
 30
0.0
 40
15.0
 50
88.6135
 51
178.6135
210
0.0
220
0.0
230
1.0
  0
POLYLINE
  8
6
  6
CONTINUOUS
 62
     7
  5
113
 66
     1
 10
0.0
 20
0.0
 30
0.0
  0
VERTEX
  8
6
  6
CONTINUOUS
 62
     7
  5
114
 10
970129.755
 20
7279942.925
 30
0.0
  0
VERTEX
  8
6
  6
CONTINUOUS
 62
     7
  5
115
 10
968842.632
 20
7279974.078
 30
0.0
  0
VERTEX
  8
6
  6
CONTINUOUS
 62
     7
  5
116
 10
968845.986
 20
7280112.647
 30
0.0
  0
SEQEND
  8
6
  6
CONTINUOUS
 62
     7
  5
117
  0
POLYLINE
  8
6
  6
CONTINUOUS
 62
     7
  5
118
 66
     1
 10
0.0
 20
0.0
 30
0.0
  0
VERTEX
  8
6
  6
CONTINUOUS
 62
     7
  5
119
 10
970135.875
 20
7280195.791
 30
0.0
  0
VERTEX
  8
6
  6
CONTINUOUS
 62
     7
  5
11A
 10
970139.914
 20
7280362.682
 30
0.0
  0
VERTEX
  8
6
  6
CONTINUOUS
 62
     7
  5
11B
 10
968852.791
 20
7280393.835
 30
0.0
  0
SEQEND
  8
6
  6
CONTINUOUS
 62
     7
  5
11C
  0
LINE
  8
6
  6
CONTINUOUS
 62
     7
  5
11D
 10
970120.516
 20
7280181.158
 30
0.0
 11
969106.153
 21
7280205.709
 31
0.0
  0
ARC
  8
6
  6
CONTINUOUS
 62
     7
  5
11E
 10
969092.783818
 20
7279653.321253
 30
0.0
 40
496.55
 50
88.6135
 51
101.959244
210
0.0
220
0.0
230
1.0
  0
ARC
  8
6
  6
CONTINUOUS
 62
     7
  5
11F
 10
968875.393697
 20
7280679.651194
 30
0.0
 40
552.55
 50
268.544872
 51
281.959239
210
0.0
220
0.0
230
1.0
  0
ARC
  8
6
  6
CONTINUOUS
 62
     7
  5
120
 10
968860.981307
 20
7280112.284218
 30
0.0
 40
15.0
 50
88.544872
 51
178.6135
210
0.0
220
0.0
230
1.0
  0
ARC
  8
6
  6
CONTINUOUS
 62
     7
  5
121
 10
969092.783818
 20
7279653.321253
 30
0.0
 40
552.55
 50
88.6135
 51
101.959244
210
0.0
220
0.0
230
1.0
  0
ARC
  8
6
  6
CONTINUOUS
 62
     7
  5
122
 10
968875.393697
 20
7280679.651194
 30
0.0
 40
496.55
 50
268.532617
 51
281.959239
210
0.0
220
0.0
230
1.0
  0
LINE
  8
6
  6
CONTINUOUS
 62
     7
  5
123
 10
968852.791
 20
7280393.835
 30
0.0
 11
968848.066
 21
7280198.622
 31
0.0
  0
ARC
  8
6
  6
CONTINUOUS
 62
     7
  5
124
 10
968863.062219
 20
7280198.259111
 30
0.0
 40
15.0
 50
178.6135
 51
268.532617
210
0.0
220
0.0
230
1.0
  0
POLYLINE
  8
6
  6
CONTINUOUS
 62
     7
  5
125
 66
     1
 10
0.0
 20
0.0
 30
0.0
  0
VERTEX
  8
6
  6
CONTINUOUS
 62
     7
  5
126
 10
970140.398
 20
7280382.675
 30
0.0
  0
VERTEX
  8
6
  6
CONTINUOUS
 62
     7
  5
127
 10
968853.275
 20
7280413.829
 30
0.0
  0
VERTEX
  8
6
  6
CONTINUOUS
 62
     7
  5
128
 10
968857.084
 20
7280571.19
 30
0.0
  0
SEQEND
  8
6
  6
CONTINUOUS
 62
     7
  5
129
  0
ARC
  8
6
  6
CONTINUOUS
 62
     7
  5
12A
 10
968872.079753
 20
7280570.827281
 30
0.0
 40
15.0
 50
90.860828
 51
178.6135
210
0.0
220
0.0
230
1.0
  0
LINE
  8
7
  6
CONTINUOUS
 62
     7
  5
12B
 10
969882.973
 20
7280388.907
 30
0.0
 11
969887.376
 21
7280570.793
 31
0.0
  0
LINE
  8
7
  6
CONTINUOUS
 62
     7
  5
12C
 10
969625.549
 20
7280395.137
 30
0.0
 11
969629.951
 21
7280577.024
 31
0.0
  0
LINE
  8
7
  6
CONTINUOUS
 62
     7
  5
12D
 10
969368.125
 20
7280401.368
 30
0.0
 11
969372.527
 21
7280583.254
 31
0.0
  0
LINE
  8
7
  6
CONTINUOUS
 62
     7
  5
12E
 10
969110.699
 20
7280407.598
 30
0.0
 11
969115.101
 21
7280589.485
 31
0.0
  0
LINE
  8
7
  6
CONTINUOUS
 62
     7
  5
12F
 10
969878.088
 20
7280187.025
 30
0.0
 11
969882.49
 21
7280368.913
 31
0.0
  0
LINE
  8
7
  6
CONTINUOUS
 62
     7
  5
130
 10
969872.33
 20
7279949.155
 30
0.0
 11
969876.733
 21
7280131.042
 31
0.0
  0
LINE
  8
7
  6
CONTINUOUS
 62
     7
  5
131
 10
969614.905
 20
7279955.386
 30
0.0
 11
969619.307
 21
7280137.272
 31
0.0
  0
LINE
  8
7
  6
CONTINUOUS
 62
     7
  5
132
 10
969357.481
 20
7279961.616
 30
0.0
 11
969361.883
 21
7280143.504
 31
0.0
  0
LINE
  8
7
  6
CONTINUOUS
 62
     7
  5
133
 10
969620.662
 20
7280193.256
 30
0.0
 11
969625.064
 21
7280375.143
 31
0.0
  0
LINE
  8
7
  6
CONTINUOUS
 62
     7
  5
134
 10
969363.238
 20
7280199.487
 30
0.0
 11
969367.64
 21
7280381.373
 31
0.0
  0
LINE
  8
7
  6
CONTINUOUS
 62
     7
  5
135
 10
969142.232
 20
7280204.836
 30
0.0
 11
969146.635
 21
7280386.722
 31
0.0
  0
LINE
  8
7
  6
CONTINUOUS
 62
     7
  5
136
 10
969100.396
 20
7279967.839
 30
0.0
 11
969104.798
 21
7280149.726
 31
0.0
  0
TEXT
  8
10
  6
CONTINUOUS
 62
   134
  5
137
 10
969999.561
 20
7280037.109
 30
0.0
 40
13.999
  1
26
 50
358.6135
  7
ROMANS
 11
969999.899729
 21
7280051.103901
 31
0.0
210
0.0
220
0.0
230
1.0
 73
     3
  0
TEXT
  8
10
  6
CONTINUOUS
 62
   134
  5
138
 10
969737.651
 20
7280043.449
 30
0.0
 40
13.999
  1
27
 50
358.6135
  7
ROMANS
 11
969737.989729
 21
7280057.443901
 31
0.0
210
0.0
220
0.0
230
1.0
 73
     3
  0
TEXT
  8
10
  6
CONTINUOUS
 62
   134
  5
139
 10
969481.739
 20
7280049.643
 30
0.0
 40
13.999
  1
28
 50
358.6135
  7
ROMANS
 11
969482.077729
 21
7280063.637901
 31
0.0
210
0.0
220
0.0
230
1.0
 73
     3
  0
TEXT
  8
10
  6
CONTINUOUS
 62
   134
  5
13A
 10
969227.826
 20
7280055.788
 30
0.0
 40
13.999
  1
29
 50
358.6135
  7
ROMANS
 11
969228.164729
 21
7280069.782901
 31
0.0
210
0.0
220
0.0
230
1.0
 73
     3
  0
TEXT
  8
10
  6
CONTINUOUS
 62
   134
  5
13B
 10
968957.919
 20
7280062.321
 30
0.0
 40
13.999
  1
30
 50
358.6135
  7
ROMANS
 11
968958.257729
 21
7280076.315901
 31
0.0
210
0.0
220
0.0
230
1.0
 73
     3
  0
TEXT
  8
10
  6
CONTINUOUS
 62
   134
  5
13C
 10
970011.273
 20
7280285.254
 30
0.0
 40
13.999
  1
15
 50
358.6135
  7
ROMANS
 11
970011.611729
 21
7280299.248901
 31
0.0
210
0.0
220
0.0
230
1.0
 73
     3
  0
TEXT
  8
10
  6
CONTINUOUS
 62
   134
  5
13D
 10
969749.363
 20
7280291.593
 30
0.0
 40
13.999
  1
14
 50
358.6135
  7
ROMANS
 11
969749.701729
 21
7280305.587901
 31
0.0
210
0.0
220
0.0
230
1.0
 73
     3
  0
TEXT
  8
10
  6
CONTINUOUS
 62
   134
  5
13E
 10
969493.451
 20
7280297.786
 30
0.0
 40
13.999
  1
13
 50
358.6135
  7
ROMANS
 11
969493.789729
 21
7280311.780901
 31
0.0
210
0.0
220
0.0
230
1.0
 73
     3
  0
TEXT
  8
10
  6
CONTINUOUS
 62
   134
  5
13F
 10
969239.538
 20
7280303.932
 30
0.0
 40
13.999
  1
12
 50
358.6135
  7
ROMANS
 11
969239.876729
 21
7280317.926901
 31
0.0
210
0.0
220
0.0
230
1.0
 73
     3
  0
TEXT
  8
10
  6
CONTINUOUS
 62
   134
  5
140
 10
968969.631
 20
7280310.466
 30
0.0
 40
13.999
  1
11
 50
358.6135
  7
ROMANS
 11
968969.969729
 21
7280324.460901
 31
0.0
210
0.0
220
0.0
230
1.0
 73
     3
  0
TEXT
  8
10
  6
CONTINUOUS
 62
   134
  5
141
 10
970021.743
 20
7280482.029
 30
0.0
 40
13.999
  1
6 
 50
358.6135
  7
ROMANS
 11
970022.081729
 21
7280496.023901
 31
0.0
210
0.0
220
0.0
230
1.0
 73
     3
  0
TEXT
  8
10
  6
CONTINUOUS
 62
   134
  5
142
 10
969759.832
 20
7280488.368
 30
0.0
 40
13.999
  1
7 
 50
358.6135
  7
ROMANS
 11
969760.170729
 21
7280502.362901
 31
0.0
210
0.0
220
0.0
230
1.0
 73
     3
  0
TEXT
  8
10
  6
CONTINUOUS
 62
   134
  5
143
 10
969503.919
 20
7280494.562
 30
0.0
 40
13.999
  1
8 
 50
358.6135
  7
ROMANS
 11
969504.257729
 21
7280508.556901
 31
0.0
210
0.0
220
0.0
230
1.0
 73
     3
  0
TEXT
  8
10
  6
CONTINUOUS
 62
   134
  5
144
 10
969250.007
 20
7280500.708
 30
0.0
 40
13.999
  1
9 
 50
358.6135
  7
ROMANS
 11
969250.345729
 21
7280514.702901
 31
0.0
210
0.0
220
0.0
230
1.0
 73
     3
  0
TEXT
  8
10
  6
CONTINUOUS
 62
   134
  5
145
 10
968980.1
 20
7280507.24
 30
0.0
 40
13.999
  1
10
 50
358.6135
  7
ROMANS
 11
968980.438729
 21
7280521.234901
 31
0.0
210
0.0
220
0.0
230
1.0
 73
     3
  0
TEXT
  8
10
  6
CONTINUOUS
 62
   134
  5
146
 10
971082.492
 20
7279376.978
 30
0.0
 40
13.999
  1
59
 50
358.6135
  7
ROMANS
 11
971082.830729
 21
7279390.972901
 31
0.0
210
0.0
220
0.0
230
1.0
 73
     3
  0
TEXT
  8
10
  6
CONTINUOUS
 62
   134
  5
147
 10
970826.581
 20
7279383.172
 30
0.0
 40
13.999
  1
58
 50
358.6135
  7
ROMANS
 11
970826.919729
 21
7279397.166901
 31
0.0
210
0.0
220
0.0
230
1.0
 73
     3
  0
TEXT
  8
10
  6
CONTINUOUS
 62
   134
  5
148
 10
970572.668
 20
7279389.318
 30
0.0
 40
13.999
  1
57
 50
358.6135
  7
ROMANS
 11
970573.006729
 21
7279403.312901
 31
0.0
210
0.0
220
0.0
230
1.0
 73
     3
  0
LINE
  8
6
  6
CONTINUOUS
 62
     7
  5
149
 10
970140.398
 20
7280382.675
 30
0.0
 11
970144.437
 21
7280549.567
 31
0.0
  0
POLYLINE
  8
6
  6
CONTINUOUS
 62
     7
  5
14A
 66
     1
 10
0.0
 20
0.0
 30
0.0
  0
VERTEX
  8
6
  6
CONTINUOUS
 62
     7
  5
14B
 10
970129.805
 20
7280564.926
 30
0.0
  0
VERTEX
  8
6
  6
CONTINUOUS
 62
     7
  5
14C
 10
969115.101
 20
7280589.485
 30
0.0
  0
VERTEX
  8
6
  6
CONTINUOUS
 62
     7
  5
14D
 10
968871.855
 20
7280585.826
 30
0.0
  0
SEQEND
  8
6
  6
CONTINUOUS
 62
     7
  5
14E
  0
ARC
  8
6
  6
CONTINUOUS
 62
     7
  5
14F
 10
970129.442244
 20
7280549.930124
 30
0.0
 40
15.0
 50
358.6135
 51
88.6135
210
0.0
220
0.0
230
1.0
  0
POLYLINE
  8
6
  6
CONTINUOUS
 62
     7
  5
150
 66
     1
 10
0.0
 20
0.0
 30
0.0
  0
VERTEX
  8
6
  6
CONTINUOUS
 62
     7
  5
151
 10
968826.514
 20
7279308.152
 30
0.0
  0
VERTEX
  8
6
  6
CONTINUOUS
 62
     7
  5
152
 10
969421.423
 20
7279297.735
 30
0.0
  0
VERTEX
  8
6
  6
CONTINUOUS
 62
     7
  5
153
 10
969421.312
 20
7279293.137
 30
0.0
  0
VERTEX
  8
6
  6
CONTINUOUS
 62
     7
  5
154
 10
971484.315
 20
7279240.088
 30
0.0
  0
SEQEND
  8
6
  6
CONTINUOUS
 62
     7
  5
155
  0
LINE
  8
6
  6
CONTINUOUS
 62
     7
  5
156
 10
971484.315
 20
7279240.088
 30
0.0
 11
971516.246
 21
7280559.377
 31
0.0
  0
LINE
  8
6
  6
CONTINUOUS
 62
     7
  5
157
 10
971516.246
 20
7280559.377
 30
0.0
 11
968815.001
 21
7280624.757
 31
0.0
  0
LINE
  8
6
  6
CONTINUOUS
 62
     7
  5
158
 10
968798.198
 20
7278679.387
 30
0.0
 11
968826.514
 21
7279308.152
 31
0.0
  0
LINE
  8
6
  6
CONTINUOUS
 62
     7
  5
159
 10
969219.56
 20
7283225.025
 30
0.0
 11
968836.535
 21
7282949.629
 31
0.0
  0
LINE
  8
6
  6
CONTINUOUS
 62
     7
  5
15A
 10
973847.448
 20
7277870.389
 30
0.0
 11
974014.483
 21
7278024.087
 31
0.0
  0
LINE
  8
6
  6
CONTINUOUS
 62
     7
  5
15B
 10
973976.859
 20
7277867.344
 30
0.0
 11
974011.432
 21
7277899.156
 31
0.0
  0
ARC
  8
6
  6
CONTINUOUS
 62
     7
  5
15C
 10
970120.879541
 20
7280196.153734
 30
0.0
 40
15.0
 50
268.6135
 51
358.6135
210
0.0
220
0.0
230
1.0
  0
LINE
  8
6
  6
CONTINUOUS
 62
     7
  5
15D
 10
970119.161
 20
7280125.174
 30
0.0
 11
969104.798
 21
7280149.726
 31
0.0
  0
LINE
  8
6
  6
CONTINUOUS
 62
     7
  5
15E
 10
970129.755
 20
7279942.925
 30
0.0
 11
970133.793
 21
7280109.815
 31
0.0
  0
ARC
  8
6
  6
CONTINUOUS
 62
     7
  5
15F
 10
970118.798631
 20
7280110.178913
 30
0.0
 40
15.0
 50
358.6135
 51
88.6135
210
0.0
220
0.0
230
1.0
  0
TEXT
  8
10
  6
CONTINUOUS
 62
   134
  5
160
 10
971674.008
 20
7281693.951
 30
0.0
 40
13.999
  1
UNSUBDIVIDED
 50
358.6135
  7
ROMANS
 11
971674.346729
 21
7281707.945901
 31
0.0
210
0.0
220
0.0
230
1.0
 73
     3
  0
TEXT
  8
10
  6
CONTINUOUS
 62
   134
  5
161
 10
972887.139
 20
7279814.366
 30
0.0
 40
13.999
  1
UNSUBDIVIDED
 50
358.6135
  7
ROMANS
 11
972887.477729
 21
7279828.360901
 31
0.0
210
0.0
220
0.0
230
1.0
 73
     3
  0
TEXT
  8
10
  6
CONTINUOUS
 62
   134
  5
162
 10
971288.38
 20
7278606.709
 30
0.0
 40
13.999
  1
UNSUBDIVIDED
 50
358.6135
  7
ROMANS
 11
971288.718729
 21
7278620.703901
 31
0.0
210
0.0
220
0.0
230
1.0
 73
     3
  0
TEXT
  8
15
  6
CONTINUOUS
 62
    30
  5
165
 10
969087.65
 20
7278375.253
 30
0.0
 40
50.0
  1
ELLIS
 50
28.6135
  7
ROMANC
 72
     4
 11
969174.172809
 21
7278450.931232
 31
0.0
210
0.0
220
0.0
230
1.0
  0
TEXT
  8
15
  6
CONTINUOUS
 62
    30
  5
166
 10
969329.104
 20
7279850.281
 30
0.0
 40
50.0
  1
COLONIAL
 50
28.6135
  7
ROMANC
210
0.0
220
0.0
230
1.0
  0
TEXT
  8
15
  6
CONTINUOUS
 62
    30
  5
167
 10
970666.064
 20
7279785.574
 30
0.0
 40
50.0
  1
COLONIAL
 50
28.6135
  7
ROMANC
210
0.0
220
0.0
230
1.0
  0
TEXT
  8
15
  6
CONTINUOUS
 62
    30
  5
168
 10
969350.936
 20
7279407.893
 30
0.0
 40
50.0
  1
HEIGHTS
 50
28.6135
  7
ROMANC
210
0.0
220
0.0
230
1.0
  0
TEXT
  8
15
  6
CONTINUOUS
 62
    30
  5
169
 10
970677.102
 20
7279376.272
 30
0.0
 40
50.0
  1
HEIGHTS
 50
28.6135
  7
ROMANC
210
0.0
220
0.0
230
1.0
  0
TEXT
  8
10
  6
CONTINUOUS
 62
   134
  5
16A
 10
969069.679
 20
7278474.616
 30
0.0
 40
24.0
  1
1
 50
358.6135
  7
ROMANC
210
0.0
220
0.0
230
1.0
  0
TEXT
  8
10
  6
CONTINUOUS
 62
   134
  5
16B
 10
969056.557
 20
7278150.361
 30
0.0
 40
24.0
  1
2
 50
358.6135
  7
ROMANC
210
0.0
220
0.0
230
1.0
  0
TEXT
  8
11
  6
CONTINUOUS
 62
     7
  5
16E
 10
968748.486
 20
7278612.683
 30
0.0
 40
8.0
  1
65'
 50
358.6135
  7
txt
 72
     4
 11
968758.02802
 21
7278616.453219
 31
0.0
210
0.0
220
0.0
230
1.0
  0
TEXT
  8
11
  6
CONTINUOUS
 62
     7
  5
16F
 10
968735.952
 20
7278040.366
 30
0.0
 40
8.0
  1
65'
 50
358.6135
  7
txt
 72
     4
 11
968745.49402
 21
7278044.136219
 31
0.0
210
0.0
220
0.0
230
1.0
  0
TEXT
  8
11
  6
CONTINUOUS
 62
     7
  5
170
 10
968751.886
 20
7278697.655
 30
0.0
 40
8.0
  1
65'
 50
358.6135
  7
txt
 72
     4
 11
968761.42802
 21
7278701.425219
 31
0.0
210
0.0
220
0.0
230
1.0
  0
TEXT
  8
11
  6
CONTINUOUS
 62
     7
  5
171
 10
968775.038
 20
7279276.485
 30
0.0
 40
8.0
  1
65'
 50
358.6135
  7
txt
 72
     4
 11
968784.58002
 21
7279280.255219
 31
0.0
210
0.0
220
0.0
230
1.0
  0
TEXT
  8
11
  6
CONTINUOUS
 62
     7
  5
172
 10
968781.193
 20
7279367.375
 30
0.0
 40
8.0
  1
65'
 50
358.6135
  7
txt
 72
     4
 11
968790.73502
 21
7279371.145219
 31
0.0
210
0.0
220
0.0
230
1.0
  0
TEXT
  8
11
  6
CONTINUOUS
 62
     7
  5
173
 10
968783.381
 20
7279675.101
 30
0.0
 40
8.0
  1
65'
 50
358.6135
  7
txt
 72
     4
 11
968792.92302
 21
7279678.871219
 31
0.0
210
0.0
220
0.0
230
1.0
  0
TEXT
  8
11
  6
CONTINUOUS
 62
     7
  5
174
 10
968791.452
 20
7278031.086
 30
0.0
 40
8.0
  1
77.5'
 50
358.6135
  7
txt
 72
     4
 11
968807.260185
 21
7278034.704555
 31
0.0
210
0.0
220
0.0
230
1.0
  0
TEXT
  8
11
  6
CONTINUOUS
 62
     7
  5
175
 10
968791.747
 20
7279802.881
 30
0.0
 40
8.0
  1
65'
 50
358.6135
  7
txt
 72
     4
 11
968801.28902
 21
7279806.651219
 31
0.0
210
0.0
220
0.0
230
1.0
  0
TEXT
  8
11
  6
CONTINUOUS
 62
     7
  5
176
 10
968791.957
 20
7280083.908
 30
0.0
 40
8.0
  1
65'
 50
358.6135
  7
txt
 72
     4
 11
968801.49902
 21
7280087.678219
 31
0.0
210
0.0
220
0.0
230
1.0
  0
TEXT
  8
11
  6
CONTINUOUS
 62
     7
  5
177
 10
968801.495
 20
7280205.782
 30
0.0
 40
8.0
  1
65'
 50
358.6135
  7
txt
 72
     4
 11
968811.03702
 21
7280209.552219
 31
0.0
210
0.0
220
0.0
230
1.0
  0
TEXT
  8
11
  6
CONTINUOUS
 62
     7
  5
178
 10
968808.635
 20
7280555.251
 30
0.0
 40
8.0
  1
65'
 50
358.6135
  7
txt
 72
     4
 11
968818.17702
 21
7280559.021219
 31
0.0
210
0.0
220
0.0
230
1.0
  0
TEXT
  8
11
  6
CONTINUOUS
 62
     7
  5
179
 10
969383.063
 20
7278026.449
 30
0.0
 40
8.0
  1
60'
 50
358.6135
  7
txt
 72
     4
 11
969392.57303
 21
7278030.219993
 31
0.0
210
0.0
220
0.0
230
1.0
  0
TEXT
  8
11
  6
CONTINUOUS
 62
     7
  5
17A
 10
969395.19
 20
7278592.54
 30
0.0
 40
8.0
  1
60'
 50
358.6135
  7
txt
 72
     4
 11
969404.70003
 21
7278596.310993
 31
0.0
210
0.0
220
0.0
230
1.0
  0
TEXT
  8
11
  6
CONTINUOUS
 62
     7
  5
17B
 10
969359.719
 20
7278474.433
 30
0.0
 40
7.999
  1
15'
 50
88.6135
 41
0.750094
  7
txt
 72
     4
 11
969355.869343
 21
7278480.692982
 31
0.0
210
0.0
220
0.0
230
1.0
  0
TEXT
  8
11
  6
CONTINUOUS
 62
     7
  5
17C
 10
968808.821
 20
7278486.563
 30
0.0
 40
7.999
  1
15'
 50
88.6135
 41
0.750094
  7
txt
 72
     4
 11
968804.971343
 21
7278492.822982
 31
0.0
210
0.0
220
0.0
230
1.0
  0
TEXT
  8
11
  6
CONTINUOUS
 62
     7
  5
17D
 10
968805.992
 20
7278163.038
 30
0.0
 40
7.999
  1
15'
 50
88.6135
 41
0.750094
  7
txt
 72
     4
 11
968802.142343
 21
7278169.297982
 31
0.0
210
0.0
220
0.0
230
1.0
  0
TEXT
  8
11
  6
CONTINUOUS
 62
     7
  5
17E
 10
969354.246
 20
7278148.926
 30
0.0
 40
7.999
  1
15'
 50
88.6135
 41
0.750094
  7
txt
 72
     4
 11
969350.396343
 21
7278155.185982
 31
0.0
210
0.0
220
0.0
230
1.0
  0
TEXT
  8
11
  6
CONTINUOUS
 62
     7
  5
17F
 10
969289.526
 20
7278020.35
 30
0.0
 40
8.0
  1
77.5'
 50
358.6135
  7
txt
 72
     4
 11
969305.334185
 21
7278023.968555
 31
0.0
210
0.0
220
0.0
230
1.0
  0
TEXT
  8
11
  6
CONTINUOUS
 62
     7
  5
180
 10
968871.535
 20
7278029.148
 30
0.0
 40
8.0
  1
60'
 50
358.6135
  7
txt
 72
     4
 11
968881.04503
 21
7278032.918993
 31
0.0
210
0.0
220
0.0
230
1.0
  0
TEXT
  8
11
  6
CONTINUOUS
 62
     7
  5
181
 10
969239.137
 20
7278020.251
 30
0.0
 40
8.0
  1
60'
 50
358.6135
  7
txt
 72
     4
 11
969248.64703
 21
7278024.021993
 31
0.0
210
0.0
220
0.0
230
1.0
  0
TEXT
  8
11
  6
CONTINUOUS
 62
     7
  5
182
 10
968797.76
 20
7278291.718
 30
0.0
 40
8.0
  1
77.5'
 50
358.6135
  7
txt
 72
     4
 11
968813.568185
 21
7278295.336555
 31
0.0
210
0.0
220
0.0
230
1.0
  0
TEXT
  8
11
  6
CONTINUOUS
 62
     7
  5
183
 10
969295.777
 20
7278278.573
 30
0.0
 40
8.0
  1
77.5'
 50
358.6135
  7
txt
 72
     4
 11
969311.585185
 21
7278282.191555
 31
0.0
210
0.0
220
0.0
230
1.0
  0
TEXT
  8
11
  6
CONTINUOUS
 62
     7
  5
184
 10
968877.857
 20
7278290.382
 30
0.0
 40
8.0
  1
60'
 50
358.6135
  7
txt
 72
     4
 11
968887.36703
 21
7278294.152993
 31
0.0
210
0.0
220
0.0
230
1.0
  0
TEXT
  8
11
  6
CONTINUOUS
 62
     7
  5
185
 10
969240.923
 20
7278280.689
 30
0.0
 40
8.0
  1
60'
 50
358.6135
  7
txt
 72
     4
 11
969250.43303
 21
7278284.459993
 31
0.0
210
0.0
220
0.0
230
1.0
  0
TEXT
  8
11
  6
CONTINUOUS
 62
     7
  5
186
 10
968799.304
 20
7278355.469
 30
0.0
 40
8.0
  1
77.5'
 50
358.6135
  7
txt
 72
     4
 11
968815.112185
 21
7278359.087555
 31
0.0
210
0.0
220
0.0
230
1.0
  0
TEXT
  8
11
  6
CONTINUOUS
 62
     7
  5
187
 10
969297.378
 20
7278344.733
 30
0.0
 40
8.0
  1
77.5'
 50
358.6135
  7
txt
 72
     4
 11
969313.186185
 21
7278348.351555
 31
0.0
210
0.0
220
0.0
230
1.0
  0
TEXT
  8
11
  6
CONTINUOUS
 62
     7
  5
188
 10
968879.386
 20
7278353.531
 30
0.0
 40
8.0
  1
60'
 50
358.6135
  7
txt
 72
     4
 11
968888.89603
 21
7278357.301993
 31
0.0
210
0.0
220
0.0
230
1.0
  0
TEXT
  8
11
  6
CONTINUOUS
 62
     7
  5
189
 10
969246.989
 20
7278344.634
 30
0.0
 40
8.0
  1
60'
 50
358.6135
  7
txt
 72
     4
 11
969256.49903
 21
7278348.404993
 31
0.0
210
0.0
220
0.0
230
1.0
  0
TEXT
  8
11
  6
CONTINUOUS
 62
     7
  5
18A
 10
968821.559
 20
7278616.662
 30
0.0
 40
8.0
  1
77.5'
 50
358.6135
  7
txt
 72
     4
 11
968837.367185
 21
7278620.280555
 31
0.0
210
0.0
220
0.0
230
1.0
  0
TEXT
  8
11
  6
CONTINUOUS
 62
     7
  5
18B
 10
969303.68
 20
7278605.105
 30
0.0
 40
8.0
  1
77.5'
 50
358.6135
  7
txt
 72
     4
 11
969319.488185
 21
7278608.723555
 31
0.0
210
0.0
220
0.0
230
1.0
  0
TEXT
  8
11
  6
CONTINUOUS
 62
     7
  5
18C
 10
968885.732
 20
7278615.711
 30
0.0
 40
8.0
  1
60'
 50
358.6135
  7
txt
 72
     4
 11
968895.24203
 21
7278619.481993
 31
0.0
210
0.0
220
0.0
230
1.0
  0
TEXT
  8
11
  6
CONTINUOUS
 62
     7
  5
18D
 10
969246.7
 20
7278606.371
 30
0.0
 40
8.0
  1
60'
 50
358.6135
  7
txt
 72
     4
 11
969256.21003
 21
7278610.141993
 31
0.0
210
0.0
220
0.0
230
1.0
  0
TEXT
  8
11
  6
CONTINUOUS
 62
     7
  5
18E
 10
969363.648
 20
7278524.934
 30
0.0
 40
8.0
  1
130'
 50
88.6135
  7
txt
 72
     4
 11
969359.94408
 21
7278537.215218
 31
0.0
210
0.0
220
0.0
230
1.0
  0
TEXT
  8
11
  6
CONTINUOUS
 62
     7
  5
18F
 10
969360.105
 20
7278378.566
 30
0.0
 40
8.0
  1
130'
 50
88.6135
  7
txt
 72
     4
 11
969356.40108
 21
7278390.847218
 31
0.0
210
0.0
220
0.0
230
1.0
  0
TEXT
  8
11
  6
CONTINUOUS
 62
     7
  5
190
 10
969355.669
 20
7278195.277
 30
0.0
 40
8.0
  1
130'
 50
88.6135
  7
txt
 72
     4
 11
969351.96508
 21
7278207.558218
 31
0.0
210
0.0
220
0.0
230
1.0
  0
TEXT
  8
11
  6
CONTINUOUS
 62
     7
  5
191
 10
969352.222
 20
7278052.864
 30
0.0
 40
8.0
  1
130'
 50
88.6135
  7
txt
 72
     4
 11
969348.51808
 21
7278065.145218
 31
0.0
210
0.0
220
0.0
230
1.0
  0
TEXT
  8
11
  6
CONTINUOUS
 62
     7
  5
192
 10
968792.255
 20
7278066.417
 30
0.0
 40
8.0
  1
130'
 50
88.6135
  7
txt
 72
     4
 11
968788.55108
 21
7278078.698218
 31
0.0
210
0.0
220
0.0
230
1.0
  0
TEXT
  8
11
  6
CONTINUOUS
 62
     7
  5
193
 10
968795.606
 20
7278204.874
 30
0.0
 40
8.0
  1
130'
 50
88.6135
  7
txt
 72
     4
 11
968791.90208
 21
7278217.155218
 31
0.0
210
0.0
220
0.0
230
1.0
  0
TEXT
  8
11
  6
CONTINUOUS
 62
     7
  5
194
 10
968800.393
 20
7278402.668
 30
0.0
 40
8.0
  1
130'
 50
88.6135
  7
txt
 72
     4
 11
968796.68908
 21
7278414.949218
 31
0.0
210
0.0
220
0.0
230
1.0
  0
TEXT
  8
11
  6
CONTINUOUS
 62
     7
  5
195
 10
968803.839
 20
7278545.08
 30
0.0
 40
8.0
  1
130'
 50
88.6135
  7
txt
 72
     4
 11
968800.13508
 21
7278557.361218
 31
0.0
210
0.0
220
0.0
230
1.0
  0
TEXT
  8
11
  6
CONTINUOUS
 62
     7
  5
196
 10
968811.761
 20
7278647.044
 30
0.0
 40
8.0
  1
50'
 50
88.6135
  7
txt
 72
     4
 11
968807.994604
 21
7278656.743974
 31
0.0
210
0.0
220
0.0
230
1.0
  0
TEXT
  8
11
  6
CONTINUOUS
 62
     7
  5
197
 10
968815.222
 20
7278307.256
 30
0.0
 40
8.0
  1
50'
 50
88.6135
  7
txt
 72
     4
 11
968811.455604
 21
7278316.955974
 31
0.0
210
0.0
220
0.0
230
1.0
  0
TEXT
  8
11
  6
CONTINUOUS
 62
     7
  5
198
 10
969325.122
 20
7278294.915
 30
0.0
 40
8.0
  1
50'
 50
88.6135
  7
txt
 72
     4
 11
969321.355604
 21
7278304.614974
 31
0.0
210
0.0
220
0.0
230
1.0
  0
TEXT
  8
11
  6
CONTINUOUS
 62
     7
  5
199
 10
969364.141
 20
7278634.223
 30
0.0
 40
8.0
  1
50'
 50
88.6135
  7
txt
 72
     4
 11
969360.374604
 21
7278643.922974
 31
0.0
210
0.0
220
0.0
230
1.0
  0
TEXT
  8
11
  6
CONTINUOUS
 62
     7
  5
19A
 10
968817.886
 20
7277998.089
 30
0.0
 40
8.0
  1
40'
 50
88.6135
  7
txt
 72
     4
 11
968814.124177
 21
7278007.977919
 31
0.0
210
0.0
220
0.0
230
1.0
  0
TEXT
  8
11
  6
CONTINUOUS
 62
     7
  5
19B
 10
969353.677
 20
7277987.541
 30
0.0
 40
8.0
  1
40'
 50
88.6135
  7
txt
 72
     4
 11
969349.915177
 21
7277997.429919
 31
0.0
210
0.0
220
0.0
230
1.0
  0
TEXT
  8
11
  6
CONTINUOUS
 62
     7
  5
19C
 10
969439.72
 20
7277981.209
 30
0.0
 40
8.0
  1
40'
 50
88.6135
  7
txt
 72
     4
 11
969435.958177
 21
7277991.097919
 31
0.0
210
0.0
220
0.0
230
1.0
  0
TEXT
  8
11
  6
CONTINUOUS
 62
     7
  5
19D
 10
970805.168
 20
7277937.427
 30
0.0
 40
8.0
  1
40'
 50
88.6135
  7
txt
 72
     4
 11
970801.406177
 21
7277947.315919
 31
0.0
210
0.0
220
0.0
230
1.0
  0
TEXT
  8
11
  6
CONTINUOUS
 62
     7
  5
19E
 10
973720.912
 20
7277866.694
 30
0.0
 40
8.0
  1
40'
 50
88.6135
  7
txt
 72
     4
 11
973717.150177
 21
7277876.582919
 31
0.0
210
0.0
220
0.0
230
1.0
  0
TEXT
  8
11
  6
CONTINUOUS
 62
     7
  5
19F
 10
969369.067
 20
7279288.232
 30
0.0
 40
8.0
  1
4.60'
 50
358.6135
  7
txt
 72
     4
 11
969384.780213
 21
7279291.852853
 31
0.0
210
0.0
220
0.0
230
1.0
  0
TEXT
  8
11
  6
CONTINUOUS
 62
     7
  5
1A0
 10
970100.351
 20
7279265.18
 30
0.0
 40
8.0
  1
2063.67'
 50
358.6135
  7
txt
 72
     4
 11
970127.713801
 21
7279268.51889
 31
0.0
210
0.0
220
0.0
230
1.0
  0
TEXT
  8
11
  6
CONTINUOUS
 62
     7
  5
1A1
 10
969035.728
 20
7279293.624
 30
0.0
 40
8.0
  1
595'
 50
358.6135
  7
txt
 72
     4
 11
969049.268849
 21
7279297.297433
 31
0.0
210
0.0
220
0.0
230
1.0
  0
TEXT
  8
11
  6
CONTINUOUS
 62
     7
  5
1A2
 10
968909.864
 20
7279334.14
 30
0.0
 40
8.0
  1
242.41'
 50
358.6135
  7
txt
 72
     4
 11
968932.568166
 21
7279337.591646
 31
0.0
210
0.0
220
0.0
230
1.0
  0
TEXT
  8
11
  6
CONTINUOUS
 62
     7
  5
1A3
 10
968921.769
 20
7279703.19
 30
0.0
 40
8.0
  1
242.59'
 50
358.6135
  7
txt
 72
     4
 11
968945.511861
 21
7279706.616506
 31
0.0
210
0.0
220
0.0
230
1.0
  0
TEXT
  8
11
  6
CONTINUOUS
 62
     7
  5
1A4
 10
969957.214
 20
7279678.129
 30
0.0
 40
8.0
  1
242.41'
 50
358.6135
  7
txt
 72
     4
 11
969979.918166
 21
7279681.580646
 31
0.0
210
0.0
220
0.0
230
1.0
  0
TEXT
  8
11
  6
CONTINUOUS
 62
     7
  5
1A5
 10
969947.242
 20
7279309.031
 30
0.0
 40
8.0
  1
242.59'
 50
358.6135
  7
txt
 72
     4
 11
969970.984861
 21
7279312.457506
 31
0.0
210
0.0
220
0.0
230
1.0
  0
TEXT
  8
11
  6
CONTINUOUS
 62
     7
  5
1A6
 10
969681.248
 20
7279315.47
 30
0.0
 40
8.0
  1
257.5'
 50
358.6135
  7
txt
 72
     4
 11
969701.023023
 21
7279318.992542
 31
0.0
210
0.0
220
0.0
230
1.0
  0
TEXT
  8
11
  6
CONTINUOUS
 62
     7
  5
1A7
 10
969412.623
 20
7279321.971
 30
0.0
 40
8.0
  1
257.5'
 50
358.6135
  7
txt
 72
     4
 11
969432.398023
 21
7279325.493542
 31
0.0
210
0.0
220
0.0
230
1.0
  0
TEXT
  8
11
  6
CONTINUOUS
 62
     7
  5
1A8
 10
969178.745
 20
7279327.631
 30
0.0
 40
8.0
  1
257.5'
 50
358.6135
  7
txt
 72
     4
 11
969198.520023
 21
7279331.153542
 31
0.0
210
0.0
220
0.0
230
1.0
  0
TEXT
  8
11
  6
CONTINUOUS
 62
     7
  5
1A9
 10
969187.647
 20
7279695.417
 30
0.0
 40
8.0
  1
257.5'
 50
358.6135
  7
txt
 72
     4
 11
969207.422023
 21
7279698.939542
 31
0.0
210
0.0
220
0.0
230
1.0
  0
TEXT
  8
11
  6
CONTINUOUS
 62
     7
  5
1AA
 10
969438.898
 20
7279689.336
 30
0.0
 40
8.0
  1
257.5'
 50
358.6135
  7
txt
 72
     4
 11
969458.673023
 21
7279692.858542
 31
0.0
210
0.0
220
0.0
230
1.0
  0
TEXT
  8
11
  6
CONTINUOUS
 62
     7
  5
1AB
 10
969695.496
 20
7279683.125
 30
0.0
 40
8.0
  1
257.5'
 50
358.6135
  7
txt
 72
     4
 11
969715.271023
 21
7279686.647542
 31
0.0
210
0.0
220
0.0
230
1.0
  0
TEXT
  8
11
  6
CONTINUOUS
 62
     7
  5
1AC
 10
969954.729
 20
7279509.578
 30
0.0
 40
8.0
  1
257.5'
 50
358.6135
  7
txt
 72
     4
 11
969974.504023
 21
7279513.100542
 31
0.0
210
0.0
220
0.0
230
1.0
  0
TEXT
  8
11
  6
CONTINUOUS
 62
     7
  5
1AD
 10
968920.322
 20
7279534.614
 30
0.0
 40
8.0
  1
257.5'
 50
358.6135
  7
txt
 72
     4
 11
968940.097023
 21
7279538.136542
 31
0.0
210
0.0
220
0.0
230
1.0
  0
TEXT
  8
11
  6
CONTINUOUS
 62
     7
  5
1AE
 10
968919.513
 20
7279501.179
 30
0.0
 40
8.0
  1
257.5'
 50
358.6135
  7
txt
 72
     4
 11
968939.288023
 21
7279504.701542
 31
0.0
210
0.0
220
0.0
230
1.0
  0
TEXT
  8
11
  6
CONTINUOUS
 62
     7
  5
1AF
 10
969953.919
 20
7279476.143
 30
0.0
 40
8.0
  1
257.5'
 50
358.6135
  7
txt
 72
     4
 11
969973.694023
 21
7279479.665542
 31
0.0
210
0.0
220
0.0
230
1.0
  0
TEXT
  8
11
  6
CONTINUOUS
 62
     7
  5
1B0
 10
969964.537
 20
7279914.81
 30
0.0
 40
8.0
  1
257.5'
 50
358.6135
  7
txt
 72
     4
 11
969984.312023
 21
7279918.332542
 31
0.0
210
0.0
220
0.0
230
1.0
  0
TEXT
  8
11
  6
CONTINUOUS
 62
     7
  5
1B1
 10
968918.102
 20
7279940.138
 30
0.0
 40
8.0
  1
257.5'
 50
358.6135
  7
txt
 72
     4
 11
968937.877023
 21
7279943.660542
 31
0.0
210
0.0
220
0.0
230
1.0
  0
TEXT
  8
11
  6
CONTINUOUS
 62
     7
  5
1B2
 10
968914.786
 20
7279976.349
 30
0.0
 40
8.0
  1
257.84'
 50
358.6135
  7
txt
 72
     4
 11
968938.749797
 21
7279979.770159
 31
0.0
210
0.0
220
0.0
230
1.0
  0
TEXT
  8
11
  6
CONTINUOUS
 62
     7
  5
1B3
 10
969965.411
 20
7279950.921
 30
0.0
 40
8.0
  1
257.5'
 50
358.6135
  7
txt
 72
     4
 11
969985.186023
 21
7279954.443542
 31
0.0
210
0.0
220
0.0
230
1.0
  0
TEXT
  8
11
  6
CONTINUOUS
 62
     7
  5
1B4
 10
969966.524
 20
7280118.007
 30
0.0
 40
8.0
  1
242.41'
 50
358.6135
  7
txt
 72
     4
 11
969989.228166
 21
7280121.458646
 31
0.0
210
0.0
220
0.0
230
1.0
  0
TEXT
  8
11
  6
CONTINUOUS
 62
     7
  5
1B5
 10
969956.519
 20
7279747.572
 30
0.0
 40
8.0
  1
242.59'
 50
358.6135
  7
txt
 72
     4
 11
969980.261861
 21
7279750.998506
 31
0.0
210
0.0
220
0.0
230
1.0
  0
TEXT
  8
11
  6
CONTINUOUS
 62
     7
  5
1B6
 10
969701.222
 20
7279753.751
 30
0.0
 40
8.0
  1
257.5'
 50
358.6135
  7
txt
 72
     4
 11
969720.997023
 21
7279757.273542
 31
0.0
210
0.0
220
0.0
230
1.0
  0
TEXT
  8
11
  6
CONTINUOUS
 62
     7
  5
1B7
 10
969441.951
 20
7279760.027
 30
0.0
 40
8.0
  1
257.5'
 50
358.6135
  7
txt
 72
     4
 11
969461.726023
 21
7279763.549542
 31
0.0
210
0.0
220
0.0
230
1.0
  0
TEXT
  8
11
  6
CONTINUOUS
 62
     7
  5
1B8
 10
969192.037
 20
7279766.075
 30
0.0
 40
8.0
  1
257.5'
 50
358.6135
  7
txt
 72
     4
 11
969211.812023
 21
7279769.597542
 31
0.0
210
0.0
220
0.0
230
1.0
  0
TEXT
  8
11
  6
CONTINUOUS
 62
     7
  5
1B9
 10
969711.524
 20
7280124.18
 30
0.0
 40
8.0
  1
257.5'
 50
358.6135
  7
txt
 72
     4
 11
969731.299023
 21
7280127.702542
 31
0.0
210
0.0
220
0.0
230
1.0
  0
TEXT
  8
11
  6
CONTINUOUS
 62
     7
  5
1BA
 10
969454.928
 20
7280130.39
 30
0.0
 40
8.0
  1
257.5'
 50
358.6135
  7
txt
 72
     4
 11
969474.703023
 21
7280133.912542
 31
0.0
210
0.0
220
0.0
230
1.0
  0
TEXT
  8
11
  6
CONTINUOUS
 62
     7
  5
1BB
 10
968915.17
 20
7279774.115
 30
0.0
 40
8.0
  1
242.41'
 50
358.6135
  7
txt
 72
     4
 11
968937.874166
 21
7279777.566646
 31
0.0
210
0.0
220
0.0
230
1.0
  0
TEXT
  8
11
  6
CONTINUOUS
 62
     7
  5
1BC
 10
969197.306
 20
7280137.963
 30
0.0
 40
8.0
  1
257.16'
 50
358.6135
  7
txt
 72
     4
 11
969219.474322
 21
7280141.427616
 31
0.0
210
0.0
220
0.0
230
1.0
  0
TEXT
  8
11
  6
CONTINUOUS
 62
     7
  5
1BD
 10
970122.672
 20
7279316.516
 30
0.0
 40
8.0
  1
56'
 50
358.6135
  7
txt
 72
     4
 11
970132.21402
 21
7279320.286219
 31
0.0
210
0.0
220
0.0
230
1.0
  0
TEXT
  8
11
  6
CONTINUOUS
 62
     7
  5
1BE
 10
970130.253
 20
7279629.735
 30
0.0
 40
8.0
  1
56'
 50
358.6135
  7
txt
 72
     4
 11
970139.79502
 21
7279633.505219
 31
0.0
210
0.0
220
0.0
230
1.0
  0
TEXT
  8
11
  6
CONTINUOUS
 62
     7
  5
1BF
 10
970133.647
 20
7279769.955
 30
0.0
 40
8.0
  1
56'
 50
358.6135
  7
txt
 72
     4
 11
970143.18902
 21
7279773.725219
 31
0.0
210
0.0
220
0.0
230
1.0
  0
TEXT
  8
11
  6
CONTINUOUS
 62
     7
  5
1C0
 10
970141.052
 20
7280075.889
 30
0.0
 40
8.0
  1
56'
 50
358.6135
  7
txt
 72
     4
 11
970150.59402
 21
7280079.659219
 31
0.0
210
0.0
220
0.0
230
1.0
  0
TEXT
  8
11
  6
CONTINUOUS
 62
     7
  5
1C1
 10
970144.269
 20
7280208.826
 30
0.0
 40
8.0
  1
56'
 50
358.6135
  7
txt
 72
     4
 11
970153.81102
 21
7280212.596219
 31
0.0
210
0.0
220
0.0
230
1.0
  0
TEXT
  8
11
  6
CONTINUOUS
 62
     7
  5
1C2
 10
970151.835
 20
7280521.414
 30
0.0
 40
8.0
  1
56'
 50
358.6135
  7
txt
 72
     4
 11
970161.37702
 21
7280525.184219
 31
0.0
210
0.0
220
0.0
230
1.0
  0
TEXT
  8
11
  6
CONTINUOUS
 62
     7
  5
1C3
 10
971480.84
 20
7280489.247
 30
0.0
 40
8.0
  1
28'
 50
358.6135
  7
txt
 72
     4
 11
971490.571965
 21
7280493.012622
 31
0.0
210
0.0
220
0.0
230
1.0
  0
TEXT
  8
11
  6
CONTINUOUS
 62
     7
  5
1C4
 10
971473.303
 20
7280177.844
 30
0.0
 40
8.0
  1
28'
 50
358.6135
  7
txt
 72
     4
 11
971483.034965
 21
7280181.609622
 31
0.0
210
0.0
220
0.0
230
1.0
  0
TEXT
  8
11
  6
CONTINUOUS
 62
     7
  5
1C5
 10
971470.35
 20
7280055.835
 30
0.0
 40
8.0
  1
28'
 50
358.6135
  7
txt
 72
     4
 11
971480.081965
 21
7280059.600622
 31
0.0
210
0.0
220
0.0
230
1.0
  0
TEXT
  8
11
  6
CONTINUOUS
 62
     7
  5
1C6
 10
971462.637
 20
7279737.153
 30
0.0
 40
8.0
  1
28'
 50
358.6135
  7
txt
 72
     4
 11
971472.368965
 21
7279740.918622
 31
0.0
210
0.0
220
0.0
230
1.0
  0
TEXT
  8
11
  6
CONTINUOUS
 62
     7
  5
1C7
 10
971451.634
 20
7279282.573
 30
0.0
 40
8.0
  1
28'
 50
358.6135
  7
txt
 72
     4
 11
971461.365965
 21
7279286.338622
 31
0.0
210
0.0
220
0.0
230
1.0
  0
TEXT
  8
11
  6
CONTINUOUS
 62
     7
  5
1C8
 10
971459.304
 20
7279599.433
 30
0.0
 40
8.0
  1
28'
 50
358.6135
  7
txt
 72
     4
 11
971469.035965
 21
7279603.198622
 31
0.0
210
0.0
220
0.0
230
1.0
  0
TEXT
  8
11
  6
CONTINUOUS
 62
     7
  5
1C9
 10
971275.366
 20
7279275.908
 30
0.0
 40
8.0
  1
242.26'
 50
358.6135
  7
txt
 72
     4
 11
971299.108861
 21
7279279.334506
 31
0.0
210
0.0
220
0.0
230
1.0
  0
TEXT
  8
11
  6
CONTINUOUS
 62
     7
  5
1CA
 10
971039.13
 20
7279281.625
 30
0.0
 40
8.0
  1
257.5'
 50
358.6135
  7
txt
 72
     4
 11
971058.905023
 21
7279285.147542
 31
0.0
210
0.0
220
0.0
230
1.0
  0
TEXT
  8
11
  6
CONTINUOUS
 62
     7
  5
1CB
 10
970766.169
 20
7279288.231
 30
0.0
 40
8.0
  1
257.5'
 50
358.6135
  7
txt
 72
     4
 11
970785.944023
 21
7279291.753542
 31
0.0
210
0.0
220
0.0
230
1.0
  0
TEXT
  8
11
  6
CONTINUOUS
 62
     7
  5
1CC
 10
970522.325
 20
7279294.133
 30
0.0
 40
8.0
  1
257.5'
 50
358.6135
  7
txt
 72
     4
 11
970542.100023
 21
7279297.655542
 31
0.0
210
0.0
220
0.0
230
1.0
  0
TEXT
  8
11
  6
CONTINUOUS
 62
     7
  5
1CD
 10
970531.272
 20
7279663.803
 30
0.0
 40
8.0
  1
257.5'
 50
358.6135
  7
txt
 72
     4
 11
970551.047023
 21
7279667.325542
 31
0.0
210
0.0
220
0.0
230
1.0
  0
TEXT
  8
11
  6
CONTINUOUS
 62
     7
  5
1CE
 10
970780.575
 20
7279657.769
 30
0.0
 40
8.0
  1
257.5'
 50
358.6135
  7
txt
 72
     4
 11
970800.350023
 21
7279661.291542
 31
0.0
210
0.0
220
0.0
230
1.0
  0
TEXT
  8
11
  6
CONTINUOUS
 62
     7
  5
1CF
 10
971060.814
 20
7279650.987
 30
0.0
 40
8.0
  1
257.5'
 50
358.6135
  7
txt
 72
     4
 11
971080.589023
 21
7279654.509542
 31
0.0
210
0.0
220
0.0
230
1.0
  0
TEXT
  8
11
  6
CONTINUOUS
 62
     7
  5
1D0
 10
971295.074
 20
7279645.317
 30
0.0
 40
8.0
  1
242.08'
 50
358.6135
  7
txt
 72
     4
 11
971318.973815
 21
7279648.739707
 31
0.0
210
0.0
220
0.0
230
1.0
  0
TEXT
  8
11
  6
CONTINUOUS
 62
     7
  5
1D1
 10
970257.985
 20
7279670.418
 30
0.0
 40
8.0
  1
242.59'
 50
358.6135
  7
txt
 72
     4
 11
970281.727861
 21
7279673.844506
 31
0.0
210
0.0
220
0.0
230
1.0
  0
TEXT
  8
11
  6
CONTINUOUS
 62
     7
  5
1D2
 10
970250.075
 20
7279300.723
 30
0.0
 40
8.0
  1
242.41'
 50
358.6135
  7
txt
 72
     4
 11
970272.779166
 21
7279304.174646
 31
0.0
210
0.0
220
0.0
230
1.0
  0
TEXT
  8
11
  6
CONTINUOUS
 62
     7
  5
1D3
 10
970257.059
 20
7279468.187
 30
0.0
 40
8.0
  1
257.5'
 50
358.6135
  7
txt
 72
     4
 11
970276.834023
 21
7279471.709542
 31
0.0
210
0.0
220
0.0
230
1.0
  0
TEXT
  8
11
  6
CONTINUOUS
 62
     7
  5
1D4
 10
970257.897
 20
7279502.787
 30
0.0
 40
8.0
  1
257.5'
 50
358.6135
  7
txt
 72
     4
 11
970277.672023
 21
7279506.309542
 31
0.0
210
0.0
220
0.0
230
1.0
  0
TEXT
  8
11
  6
CONTINUOUS
 62
     7
  5
1D5
 10
971290.712
 20
7279477.789
 30
0.0
 40
8.0
  1
257.17'
 50
358.6135
  7
txt
 72
     4
 11
971313.100258
 21
7279481.248292
 31
0.0
210
0.0
220
0.0
230
1.0
  0
TEXT
  8
11
  6
CONTINUOUS
 62
     7
  5
1D6
 10
971289.874
 20
7279443.189
 30
0.0
 40
8.0
  1
257.17'
 50
358.6135
  7
txt
 72
     4
 11
971312.262258
 21
7279446.648292
 31
0.0
210
0.0
220
0.0
230
1.0
  0
TEXT
  8
11
  6
CONTINUOUS
 62
     7
  5
1D7
 10
971452.021
 20
7279338.273
 30
0.0
 40
8.0
  1
167'
 50
88.6135
  7
txt
 72
     4
 11
971448.314031
 21
7279350.428255
 31
0.0
210
0.0
220
0.0
230
1.0
  0
TEXT
  8
11
  6
CONTINUOUS
 62
     7
  5
1D8
 10
971195.267
 20
7279337.336
 30
0.0
 40
8.0
  1
181.91'
 50
88.6135
  7
txt
 72
     4
 11
971191.733037
 21
7279356.639162
 31
0.0
210
0.0
220
0.0
230
1.0
  0
TEXT
  8
11
  6
CONTINUOUS
 62
     7
  5
1D9
 10
970436.437
 20
7279355.702
 30
0.0
 40
8.0
  1
181.91'
 50
88.6135
  7
txt
 72
     4
 11
970432.903037
 21
7279375.005162
 31
0.0
210
0.0
220
0.0
230
1.0
  0
TEXT
  8
11
  6
CONTINUOUS
 62
     7
  5
1DA
 10
970440.85
 20
7279538.021
 30
0.0
 40
8.0
  1
181.94'
 50
88.6135
  7
txt
 72
     4
 11
970437.354897
 21
7279558.929691
 31
0.0
210
0.0
220
0.0
230
1.0
  0
TEXT
  8
11
  6
CONTINUOUS
 62
     7
  5
1DB
 10
971199.679
 20
7279519.655
 30
0.0
 40
8.0
  1
181.94'
 50
88.6135
  7
txt
 72
     4
 11
971196.183897
 21
7279540.563691
 31
0.0
210
0.0
220
0.0
230
1.0
  0
TEXT
  8
11
  6
CONTINUOUS
 62
     7
  5
1DC
 10
970184.238
 20
7279543.004
 30
0.0
 40
8.0
  1
167.03'
 50
88.6135
  7
txt
 72
     4
 11
970180.77261
 21
7279565.140332
 31
0.0
210
0.0
220
0.0
230
1.0
  0
TEXT
  8
11
  6
CONTINUOUS
 62
     7
  5
1DD
 10
971456.236
 20
7279512.406
 30
0.0
 40
8.0
  1
166.85'
 50
88.6135
  7
txt
 72
     4
 11
971452.766037
 21
7279534.353387
 31
0.0
210
0.0
220
0.0
230
1.0
  0
TEXT
  8
11
  6
CONTINUOUS
 62
     7
  5
1DE
 10
970181.391
 20
7279350.119
 30
0.0
 40
8.0
  1
166.82'
 50
88.6135
  7
txt
 72
     4
 11
970177.921037
 21
7279372.066387
 31
0.0
210
0.0
220
0.0
230
1.0
  0
TEXT
  8
11
  6
CONTINUOUS
 62
     7
  5
1DF
 10
971428.819
 20
7279658.495
 30
0.0
 40
8.0
  1
56'
 50
88.6135
  7
txt
 72
     4
 11
971425.048781
 21
7279668.03702
 31
0.0
210
0.0
220
0.0
230
1.0
  0
TEXT
  8
11
  6
CONTINUOUS
 62
     7
  5
1E0
 10
970233.253
 20
7279687.432
 30
0.0
 40
8.0
  1
56'
 50
88.6135
  7
txt
 72
     4
 11
970229.482781
 21
7279696.97402
 31
0.0
210
0.0
220
0.0
230
1.0
  0
TEXT
  8
11
  6
CONTINUOUS
 62
     7
  5
1E1
 10
970073.117
 20
7279691.308
 30
0.0
 40
8.0
  1
56'
 50
88.6135
  7
txt
 72
     4
 11
970069.346781
 21
7279700.85002
 31
0.0
210
0.0
220
0.0
230
1.0
  0
TEXT
  8
11
  6
CONTINUOUS
 62
     7
  5
1E2
 10
968902.164
 20
7279719.65
 30
0.0
 40
8.0
  1
56'
 50
88.6135
  7
txt
 72
     4
 11
968898.393781
 21
7279729.19202
 31
0.0
210
0.0
220
0.0
230
1.0
  0
TEXT
  8
11
  6
CONTINUOUS
 62
     7
  5
1E3
 10
968862.251
 20
7279499.973
 30
0.0
 40
8.0
  1
20'
 50
88.6135
  7
txt
 72
     4
 11
968858.484604
 21
7279509.672974
 31
0.0
210
0.0
220
0.0
230
1.0
  0
TEXT
  8
11
  6
CONTINUOUS
 62
     7
  5
1E4
 10
970091.038
 20
7279469.7
 30
0.0
 40
8.0
  1
20'
 50
88.6135
  7
txt
 72
     4
 11
970087.271604
 21
7279479.399974
 31
0.0
210
0.0
220
0.0
230
1.0
  0
TEXT
  8
11
  6
CONTINUOUS
 62
     7
  5
1E5
 10
970093.202
 20
7279910.596
 30
0.0
 40
8.0
  1
20'
 50
88.6135
  7
txt
 72
     4
 11
970089.435604
 21
7279920.295974
 31
0.0
210
0.0
220
0.0
230
1.0
  0
TEXT
  8
11
  6
CONTINUOUS
 62
     7
  5
1E6
 10
968878.535
 20
7279938.931
 30
0.0
 40
8.0
  1
20'
 50
88.6135
  7
txt
 72
     4
 11
968874.768604
 21
7279948.630974
 31
0.0
210
0.0
220
0.0
230
1.0
  0
TEXT
  8
11
  6
CONTINUOUS
 62
     7
  5
1E7
 10
968873.794
 20
7280395.722
 30
0.0
 40
8.0
  1
20'
 50
88.6135
  7
txt
 72
     4
 11
968870.027604
 21
7280405.421974
 31
0.0
210
0.0
220
0.0
230
1.0
  0
TEXT
  8
11
  6
CONTINUOUS
 62
     7
  5
1E8
 10
970109.237
 20
7280350.625
 30
0.0
 40
8.0
  1
20'
 50
88.6135
  7
txt
 72
     4
 11
970105.470604
 21
7280360.324974
 31
0.0
210
0.0
220
0.0
230
1.0
  0
TEXT
  8
11
  6
CONTINUOUS
 62
     7
  5
1E9
 10
970233.743
 20
7280346.547
 30
0.0
 40
8.0
  1
20'
 50
88.6135
  7
txt
 72
     4
 11
970229.976604
 21
7280356.246974
 31
0.0
210
0.0
220
0.0
230
1.0
  0
TEXT
  8
11
  6
CONTINUOUS
 62
     7
  5
1EA
 10
971442.09
 20
7280317.834
 30
0.0
 40
8.0
  1
20'
 50
88.6135
  7
txt
 72
     4
 11
971438.323604
 21
7280327.533974
 31
0.0
210
0.0
220
0.0
230
1.0
  0
TEXT
  8
11
  6
CONTINUOUS
 62
     7
  5
1EB
 10
971438.874
 20
7279877.376
 30
0.0
 40
8.0
  1
20'
 50
88.6135
  7
txt
 72
     4
 11
971435.107604
 21
7279887.075974
 31
0.0
210
0.0
220
0.0
230
1.0
  0
TEXT
  8
11
  6
CONTINUOUS
 62
     7
  5
1EC
 10
970212.42
 20
7279908.125
 30
0.0
 40
8.0
  1
20'
 50
88.6135
  7
txt
 72
     4
 11
970208.653604
 21
7279917.824974
 31
0.0
210
0.0
220
0.0
230
1.0
  0
TEXT
  8
11
  6
CONTINUOUS
 62
     7
  5
1ED
 10
970202.291
 20
7279467.647
 30
0.0
 40
8.0
  1
20'
 50
88.6135
  7
txt
 72
     4
 11
970198.524604
 21
7279477.346974
 31
0.0
210
0.0
220
0.0
230
1.0
  0
TEXT
  8
11
  6
CONTINUOUS
 62
     7
  5
1EE
 10
971441.055
 20
7279437.664
 30
0.0
 40
8.0
  1
20'
 50
88.6135
  7
txt
 72
     4
 11
971437.288604
 21
7279447.363974
 31
0.0
210
0.0
220
0.0
230
1.0
  0
TEXT
  8
11
  6
CONTINUOUS
 62
     7
  5
1EF
 10
971426.572
 20
7280095.726
 30
0.0
 40
8.0
  1
56'
 50
88.6135
  7
txt
 72
     4
 11
971422.801781
 21
7280105.26802
 31
0.0
210
0.0
220
0.0
230
1.0
  0
TEXT
  8
11
  6
CONTINUOUS
 62
     7
  5
1F0
 10
970247.385
 20
7280124.268
 30
0.0
 40
8.0
  1
56'
 50
88.6135
  7
txt
 72
     4
 11
970243.614781
 21
7280133.81002
 31
0.0
210
0.0
220
0.0
230
1.0
  0
TEXT
  8
11
  6
CONTINUOUS
 62
     7
  5
1F1
 10
970044.613
 20
7280129.175
 30
0.0
 40
8.0
  1
56'
 50
88.6135
  7
txt
 72
     4
 11
970040.842781
 21
7280138.71702
 31
0.0
210
0.0
220
0.0
230
1.0
  0
TEXT
  8
11
  6
CONTINUOUS
 62
     7
  5
1F2
 10
969158.799
 20
7280170.417
 30
0.0
 40
8.0
  1
56'
 50
88.6135
  7
txt
 72
     4
 11
969155.028781
 21
7280179.95902
 31
0.0
210
0.0
220
0.0
230
1.0
  0
TEXT
  8
11
  6
CONTINUOUS
 62
     7
  5
1F3
 10
968871.074
 20
7280147.062
 30
0.0
 40
8.0
  1
56'
 50
88.6135
  7
txt
 72
     4
 11
968867.303781
 21
7280156.60402
 31
0.0
210
0.0
220
0.0
230
1.0
  0
TEXT
  8
11
  6
CONTINUOUS
 62
     7
  5
1F4
 10
968852.97
 20
7279304.239
 30
0.0
 40
7.999
  1
24.23'
 50
88.6135
 41
0.624953
  7
txt
 72
     4
 11
968849.271185
 21
7279316.731156
 31
0.0
210
0.0
220
0.0
230
1.0
  0
TEXT
  8
11
  6
CONTINUOUS
 62
     7
  5
1F5
 10
969414.471
 20
7279295.662
 30
0.0
 40
7.999
  1
23.77'
 50
88.6135
 41
0.624953
  7
txt
 72
     4
 11
969410.770274
 21
7279308.075179
 31
0.0
210
0.0
220
0.0
230
1.0
  0
TEXT
  8
11
  6
CONTINUOUS
 62
     7
  5
1F6
 10
969438.322
 20
7279290.493
 30
0.0
 40
7.999
  1
28.37'
 50
88.6135
 41
0.624953
  7
txt
 72
     4
 11
969434.62079
 21
7279302.886185
 31
0.0
210
0.0
220
0.0
230
1.0
  0
TEXT
  8
11
  6
CONTINUOUS
 62
     7
  5
1F7
 10
971435.674
 20
7279232.526
 30
0.0
 40
8.0
  1
28'
 50
88.6135
  7
txt
 72
     4
 11
971431.908378
 21
7279242.257965
 31
0.0
210
0.0
220
0.0
230
1.0
  0
TEXT
  8
11
  6
CONTINUOUS
 62
     7
  5
1F8
 10
971511.729
 20
7279936.19
 30
0.0
 40
8.0
  1
1319.61'
 50
88.6135
  7
txt
 72
     4
 11
971508.287226
 21
7279959.302046
 31
0.0
210
0.0
220
0.0
230
1.0
  0
TEXT
  8
11
  6
CONTINUOUS
 62
     7
  5
1F9
 10
970189.907
 20
7279790.063
 30
0.0
 40
8.0
  1
166.85'
 50
88.6135
  7
txt
 72
     4
 11
970186.437037
 21
7279812.010387
 31
0.0
210
0.0
220
0.0
230
1.0
  0
TEXT
  8
11
  6
CONTINUOUS
 62
     7
  5
1FA
 10
970205.005
 20
7280413.879
 30
0.0
 40
8.0
  1
167.03'
 50
88.6135
  7
txt
 72
     4
 11
970201.53961
 21
7280436.015332
 31
0.0
210
0.0
220
0.0
230
1.0
  0
TEXT
  8
11
  6
CONTINUOUS
 62
     7
  5
1FB
 10
970200.367
 20
7280222.274
 30
0.0
 40
8.0
  1
166.85'
 50
88.6135
  7
txt
 72
     4
 11
970196.897037
 21
7280244.221387
 31
0.0
210
0.0
220
0.0
230
1.0
  0
TEXT
  8
11
  6
CONTINUOUS
 62
     7
  5
1FC
 10
970194.38
 20
7279974.915
 30
0.0
 40
8.0
  1
167.03'
 50
88.6135
  7
txt
 72
     4
 11
970190.91461
 21
7279997.051332
 31
0.0
210
0.0
220
0.0
230
1.0
  0
TEXT
  8
11
  6
CONTINUOUS
 62
     7
  5
1FD
 10
971467.144
 20
7279944.299
 30
0.0
 40
8.0
  1
166.85'
 50
88.6135
  7
txt
 72
     4
 11
971463.674037
 21
7279966.246387
 31
0.0
210
0.0
220
0.0
230
1.0
  0
TEXT
  8
11
  6
CONTINUOUS
 62
     7
  5
1FE
 10
971477.899
 20
7280388.665
 30
0.0
 40
8.0
  1
166.85'
 50
88.6135
  7
txt
 72
     4
 11
971474.429037
 21
7280410.612387
 31
0.0
210
0.0
220
0.0
230
1.0
  0
TEXT
  8
11
  6
CONTINUOUS
 62
     7
  5
1FF
 10
971473.22
 20
7280195.332
 30
0.0
 40
8.0
  1
167.03'
 50
88.6135
  7
txt
 72
     4
 11
971469.75461
 21
7280217.468332
 31
0.0
210
0.0
220
0.0
230
1.0
  0
TEXT
  8
11
  6
CONTINUOUS
 62
     7
  5
200
 10
971462.269
 20
7279742.861
 30
0.0
 40
8.0
  1
167.03'
 50
88.6135
  7
txt
 72
     4
 11
971458.80361
 21
7279764.997332
 31
0.0
210
0.0
220
0.0
230
1.0
  0
TEXT
  8
11
  6
CONTINUOUS
 62
     7
  5
201
 10
971204.508
 20
7279750.328
 30
0.0
 40
8.0
  1
181.94'
 50
88.6135
  7
txt
 72
     4
 11
971201.012897
 21
7279771.236691
 31
0.0
210
0.0
220
0.0
230
1.0
  0
TEXT
  8
11
  6
CONTINUOUS
 62
     7
  5
202
 10
970445.981
 20
7279768.687
 30
0.0
 40
8.0
  1
181.94'
 50
88.6135
  7
txt
 72
     4
 11
970442.485897
 21
7279789.595691
 31
0.0
210
0.0
220
0.0
230
1.0
  0
TEXT
  8
11
  6
CONTINUOUS
 62
     7
  5
203
 10
970451.015
 20
7279976.689
 30
0.0
 40
8.0
  1
181.94'
 50
88.6135
  7
txt
 72
     4
 11
970447.519897
 21
7279997.597691
 31
0.0
210
0.0
220
0.0
230
1.0
  0
TEXT
  8
11
  6
CONTINUOUS
 62
     7
  5
204
 10
970456.802
 20
7280215.755
 30
0.0
 40
8.0
  1
181.94'
 50
88.6135
  7
txt
 72
     4
 11
970453.306897
 21
7280236.663691
 31
0.0
210
0.0
220
0.0
230
1.0
  0
TEXT
  8
11
  6
CONTINUOUS
 62
     7
  5
205
 10
970461.804
 20
7280422.407
 30
0.0
 40
8.0
  1
181.94'
 50
88.6135
  7
txt
 72
     4
 11
970458.308897
 21
7280443.315691
 31
0.0
210
0.0
220
0.0
230
1.0
  0
TEXT
  8
11
  6
CONTINUOUS
 62
     7
  5
206
 10
971220.33
 20
7280404.047
 30
0.0
 40
8.0
  1
181.94'
 50
88.6135
  7
txt
 72
     4
 11
971216.834897
 21
7280424.955691
 31
0.0
210
0.0
220
0.0
230
1.0
  0
TEXT
  8
11
  6
CONTINUOUS
 62
     7
  5
207
 10
971215.394
 20
7280200.098
 30
0.0
 40
8.0
  1
181.94'
 50
88.6135
  7
txt
 72
     4
 11
971211.898897
 21
7280221.006691
 31
0.0
210
0.0
220
0.0
230
1.0
  0
TEXT
  8
11
  6
CONTINUOUS
 62
     7
  5
208
 10
971209.281
 20
7279947.524
 30
0.0
 40
8.0
  1
181.94'
 50
88.6135
  7
txt
 72
     4
 11
971205.785897
 21
7279968.432691
 31
0.0
210
0.0
220
0.0
230
1.0
  0
TEXT
  8
11
  6
CONTINUOUS
 62
     7
  5
209
 10
971297.531
 20
7279714.896
 30
0.0
 40
8.0
  1
242.26'
 50
358.6135
  7
txt
 72
     4
 11
971321.273861
 21
7279718.322506
 31
0.0
210
0.0
220
0.0
230
1.0
  0
TEXT
  8
11
  6
CONTINUOUS
 62
     7
  5
20A
 10
971308.189
 20
7280155.211
 30
0.0
 40
8.0
  1
242.26'
 50
358.6135
  7
txt
 72
     4
 11
971331.931861
 21
7280158.637506
 31
0.0
210
0.0
220
0.0
230
1.0
  0
TEXT
  8
11
  6
CONTINUOUS
 62
     7
  5
20B
 10
971306.332
 20
7280084.979
 30
0.0
 40
8.0
  1
242.08'
 50
358.6135
  7
txt
 72
     4
 11
971330.231815
 21
7280088.401707
 31
0.0
210
0.0
220
0.0
230
1.0
  0
TEXT
  8
11
  6
CONTINUOUS
 62
     7
  5
20C
 10
971316.99
 20
7280525.295
 30
0.0
 40
8.0
  1
242.08'
 50
358.6135
  7
txt
 72
     4
 11
971340.889815
 21
7280528.717707
 31
0.0
210
0.0
220
0.0
230
1.0
  0
TEXT
  8
11
  6
CONTINUOUS
 62
     7
  5
20D
 10
970283.283
 20
7280550.314
 30
0.0
 40
8.0
  1
242.59'
 50
358.6135
  7
txt
 72
     4
 11
970307.025861
 21
7280553.740506
 31
0.0
210
0.0
220
0.0
230
1.0
  0
TEXT
  8
11
  6
CONTINUOUS
 62
     7
  5
20E
 10
970272.593
 20
7280108.649
 30
0.0
 40
8.0
  1
242.59'
 50
358.6135
  7
txt
 72
     4
 11
970296.335861
 21
7280112.075506
 31
0.0
210
0.0
220
0.0
230
1.0
  0
TEXT
  8
11
  6
CONTINUOUS
 62
     7
  5
20F
 10
970275.365
 20
7280180.209
 30
0.0
 40
8.0
  1
242.41'
 50
358.6135
  7
txt
 72
     4
 11
970298.069166
 21
7280183.660646
 31
0.0
210
0.0
220
0.0
230
1.0
  0
TEXT
  8
11
  6
CONTINUOUS
 62
     7
  5
210
 10
970264.707
 20
7279739.893
 30
0.0
 40
8.0
  1
242.41'
 50
358.6135
  7
txt
 72
     4
 11
970287.411166
 21
7279743.344646
 31
0.0
210
0.0
220
0.0
230
1.0
  0
TEXT
  8
11
  6
CONTINUOUS
 62
     7
  5
211
 10
970274.422
 20
7279908.59
 30
0.0
 40
8.0
  1
257.5'
 50
358.6135
  7
txt
 72
     4
 11
970294.197023
 21
7279912.112542
 31
0.0
210
0.0
220
0.0
230
1.0
  0
TEXT
  8
11
  6
CONTINUOUS
 62
     7
  5
212
 10
970275.272
 20
7279943.708
 30
0.0
 40
8.0
  1
257.5'
 50
358.6135
  7
txt
 72
     4
 11
970295.047023
 21
7279947.230542
 31
0.0
210
0.0
220
0.0
230
1.0
  0
TEXT
  8
11
  6
CONTINUOUS
 62
     7
  5
213
 10
970285.014
 20
7280346.204
 30
0.0
 40
8.0
  1
257.5'
 50
358.6135
  7
txt
 72
     4
 11
970304.789023
 21
7280349.726542
 31
0.0
210
0.0
220
0.0
230
1.0
  0
TEXT
  8
11
  6
CONTINUOUS
 62
     7
  5
214
 10
970285.896
 20
7280382.671
 30
0.0
 40
8.0
  1
257.5'
 50
358.6135
  7
txt
 72
     4
 11
970305.671023
 21
7280386.193542
 31
0.0
210
0.0
220
0.0
230
1.0
  0
TEXT
  8
11
  6
CONTINUOUS
 62
     7
  5
215
 10
971317.148
 20
7280357.711
 30
0.0
 40
8.0
  1
257.17'
 50
358.6135
  7
txt
 72
     4
 11
971339.536258
 21
7280361.170292
 31
0.0
210
0.0
220
0.0
230
1.0
  0
TEXT
  8
11
  6
CONTINUOUS
 62
     7
  5
216
 10
971316.264
 20
7280321.244
 30
0.0
 40
8.0
  1
257.17'
 50
358.6135
  7
txt
 72
     4
 11
971338.652258
 21
7280324.703292
 31
0.0
210
0.0
220
0.0
230
1.0
  0
TEXT
  8
11
  6
CONTINUOUS
 62
     7
  5
217
 10
971306.49
 20
7279917.397
 30
0.0
 40
8.0
  1
257.17'
 50
358.6135
  7
txt
 72
     4
 11
971328.878258
 21
7279920.856292
 31
0.0
210
0.0
220
0.0
230
1.0
  0
TEXT
  8
11
  6
CONTINUOUS
 62
     7
  5
218
 10
971305.706
 20
7279884.98
 30
0.0
 40
8.0
  1
257.17'
 50
358.6135
  7
txt
 72
     4
 11
971328.094258
 21
7279888.439292
 31
0.0
210
0.0
220
0.0
230
1.0
  0
TEXT
  8
11
  6
CONTINUOUS
 62
     7
  5
219
 10
971042.392
 20
7279722.422
 30
0.0
 40
8.0
  1
257.5'
 50
358.6135
  7
txt
 72
     4
 11
971062.167023
 21
7279725.944542
 31
0.0
210
0.0
220
0.0
230
1.0
  0
TEXT
  8
11
  6
CONTINUOUS
 62
     7
  5
21A
 10
970788.649
 20
7279728.564
 30
0.0
 40
8.0
  1
257.5'
 50
358.6135
  7
txt
 72
     4
 11
970808.424023
 21
7279732.086542
 31
0.0
210
0.0
220
0.0
230
1.0
  0
TEXT
  8
11
  6
CONTINUOUS
 62
     7
  5
21B
 10
970540.306
 20
7279734.574
 30
0.0
 40
8.0
  1
257.5'
 50
358.6135
  7
txt
 72
     4
 11
970560.081023
 21
7279738.096542
 31
0.0
210
0.0
220
0.0
230
1.0
  0
TEXT
  8
11
  6
CONTINUOUS
 62
     7
  5
21C
 10
970549.231
 20
7280103.304
 30
0.0
 40
8.0
  1
257.5'
 50
358.6135
  7
txt
 72
     4
 11
970569.006023
 21
7280106.826542
 31
0.0
210
0.0
220
0.0
230
1.0
  0
TEXT
  8
11
  6
CONTINUOUS
 62
     7
  5
21D
 10
970790.826
 20
7280097.457
 30
0.0
 40
8.0
  1
257.5'
 50
358.6135
  7
txt
 72
     4
 11
970810.601023
 21
7280100.979542
 31
0.0
210
0.0
220
0.0
230
1.0
  0
TEXT
  8
11
  6
CONTINUOUS
 62
     7
  5
21E
 10
971055.366
 20
7280091.054
 30
0.0
 40
8.0
  1
257.5'
 50
358.6135
  7
txt
 72
     4
 11
971075.141023
 21
7280094.576542
 31
0.0
210
0.0
220
0.0
230
1.0
  0
TEXT
  8
11
  6
CONTINUOUS
 62
     7
  5
21F
 10
971057.066
 20
7280161.289
 30
0.0
 40
8.0
  1
257.5'
 50
358.6135
  7
txt
 72
     4
 11
971076.841023
 21
7280164.811542
 31
0.0
210
0.0
220
0.0
230
1.0
  0
TEXT
  8
11
  6
CONTINUOUS
 62
     7
  5
220
 10
970800.625
 20
7280167.496
 30
0.0
 40
8.0
  1
257.5'
 50
358.6135
  7
txt
 72
     4
 11
970820.400023
 21
7280171.018542
 31
0.0
210
0.0
220
0.0
230
1.0
  0
TEXT
  8
11
  6
CONTINUOUS
 62
     7
  5
221
 10
970559.029
 20
7280173.343
 30
0.0
 40
8.0
  1
257.5'
 50
358.6135
  7
txt
 72
     4
 11
970578.804023
 21
7280176.865542
 31
0.0
210
0.0
220
0.0
230
1.0
  0
TEXT
  8
11
  6
CONTINUOUS
 62
     7
  5
222
 10
970567.954
 20
7280542.073
 30
0.0
 40
8.0
  1
257.5'
 50
358.6135
  7
txt
 72
     4
 11
970587.729023
 21
7280545.595542
 31
0.0
210
0.0
220
0.0
230
1.0
  0
TEXT
  8
11
  6
CONTINUOUS
 62
     7
  5
223
 10
970808.199
 20
7280536.258
 30
0.0
 40
8.0
  1
257.5'
 50
358.6135
  7
txt
 72
     4
 11
970827.974023
 21
7280539.780542
 31
0.0
210
0.0
220
0.0
230
1.0
  0
TEXT
  8
11
  6
CONTINUOUS
 62
     7
  5
224
 10
971065.99
 20
7280530.019
 30
0.0
 40
8.0
  1
257.5'
 50
358.6135
  7
txt
 72
     4
 11
971085.765023
 21
7280533.541542
 31
0.0
210
0.0
220
0.0
230
1.0
  0
TEXT
  8
11
  6
CONTINUOUS
 62
     7
  5
225
 10
971465.018
 20
7280525.45
 30
0.0
 40
8.0
  1
28'
 50
88.6135
  7
txt
 72
     4
 11
971461.252378
 21
7280535.181965
 31
0.0
210
0.0
220
0.0
230
1.0
  0
TEXT
  8
11
  6
CONTINUOUS
 62
     7
  5
226
 10
970248.945
 20
7280554.883
 30
0.0
 40
8.0
  1
28'
 50
88.6135
  7
txt
 72
     4
 11
970245.179378
 21
7280564.614965
 31
0.0
210
0.0
220
0.0
230
1.0
  0
TEXT
  8
11
  6
CONTINUOUS
 62
     7
  5
227
 10
970104.409
 20
7280558.381
 30
0.0
 40
8.0
  1
28'
 50
88.6135
  7
txt
 72
     4
 11
970100.643378
 21
7280568.112965
 31
0.0
210
0.0
220
0.0
230
1.0
  0
TEXT
  8
11
  6
CONTINUOUS
 62
     7
  5
228
 10
969140.73
 20
7280581.706
 30
0.0
 40
8.0
  1
28'
 50
88.6135
  7
txt
 72
     4
 11
969136.964378
 21
7280591.437965
 31
0.0
210
0.0
220
0.0
230
1.0
  0
TEXT
  8
11
  6
CONTINUOUS
 62
     7
  5
229
 10
968882.712
 20
7280587.437
 30
0.0
 40
7.999
  1
38.72'
 50
88.6135
 41
0.624953
  7
txt
 72
     4
 11
968879.01079
 21
7280599.830185
 31
0.0
210
0.0
220
0.0
230
1.0
  0
TEXT
  8
11
  6
CONTINUOUS
 62
     7
  5
22A
 10
968862.145
 20
7280454.205
 30
0.0
 40
8.0
  1
158.83'
 50
88.6135
  7
txt
 72
     4
 11
968858.684207
 21
7280476.531276
 31
0.0
210
0.0
220
0.0
230
1.0
  0
TEXT
  8
11
  6
CONTINUOUS
 62
     7
  5
22B
 10
969105.124
 20
7280449.743
 30
0.0
 40
8.0
  1
181.94'
 50
88.6135
  7
txt
 72
     4
 11
969101.628897
 21
7280470.651691
 31
0.0
210
0.0
220
0.0
230
1.0
  0
TEXT
  8
11
  6
CONTINUOUS
 62
     7
  5
22C
 10
969878.497
 20
7280431.024
 30
0.0
 40
8.0
  1
181.94'
 50
88.6135
  7
txt
 72
     4
 11
969875.001897
 21
7280451.932691
 31
0.0
210
0.0
220
0.0
230
1.0
  0
TEXT
  8
11
  6
CONTINUOUS
 62
     7
  5
22D
 10
969873.561
 20
7280227.074
 30
0.0
 40
8.0
  1
181.94'
 50
88.6135
  7
txt
 72
     4
 11
969870.065897
 21
7280247.982691
 31
0.0
210
0.0
220
0.0
230
1.0
  0
TEXT
  8
11
  6
CONTINUOUS
 62
     7
  5
22E
 10
969141.72
 20
7280279.149
 30
0.0
 40
8.0
  1
181.94'
 50
88.6135
  7
txt
 72
     4
 11
969138.224897
 21
7280300.057691
 31
0.0
210
0.0
220
0.0
230
1.0
  0
TEXT
  8
11
  6
CONTINUOUS
 62
     7
  5
22F
 10
969098.286
 20
7280022.894
 30
0.0
 40
8.0
  1
181.94'
 50
88.6135
  7
txt
 72
     4
 11
969094.790897
 21
7280043.802691
 31
0.0
210
0.0
220
0.0
230
1.0
  0
TEXT
  8
11
  6
CONTINUOUS
 62
     7
  5
230
 10
969866.621
 20
7279996.144
 30
0.0
 40
8.0
  1
181.94'
 50
88.6135
  7
txt
 72
     4
 11
969863.125897
 21
7280017.052691
 31
0.0
210
0.0
220
0.0
230
1.0
  0
TEXT
  8
11
  6
CONTINUOUS
 62
     7
  5
231
 10
969861.619
 20
7279789.494
 30
0.0
 40
8.0
  1
181.94'
 50
88.6135
  7
txt
 72
     4
 11
969858.123897
 21
7279810.402691
 31
0.0
210
0.0
220
0.0
230
1.0
  0
TEXT
  8
11
  6
CONTINUOUS
 62
     7
  5
232
 10
969089.595
 20
7279808.179
 30
0.0
 40
8.0
  1
181.94'
 50
88.6135
  7
txt
 72
     4
 11
969086.099897
 21
7279829.087691
 31
0.0
210
0.0
220
0.0
230
1.0
  0
TEXT
  8
11
  6
CONTINUOUS
 62
     7
  5
233
 10
969083.917
 20
7279573.579
 30
0.0
 40
8.0
  1
181.94'
 50
88.6135
  7
txt
 72
     4
 11
969080.421897
 21
7279594.487691
 31
0.0
210
0.0
220
0.0
230
1.0
  0
TEXT
  8
11
  6
CONTINUOUS
 62
     7
  5
234
 10
969855.937
 20
7279554.894
 30
0.0
 40
8.0
  1
181.94'
 50
88.6135
  7
txt
 72
     4
 11
969852.441897
 21
7279575.802691
 31
0.0
210
0.0
220
0.0
230
1.0
  0
TEXT
  8
11
  6
CONTINUOUS
 62
     7
  5
235
 10
969850.745
 20
7279340.394
 30
0.0
 40
8.0
  1
181.91'
 50
88.6135
  7
txt
 72
     4
 11
969847.211037
 21
7279359.697162
 31
0.0
210
0.0
220
0.0
230
1.0
  0
TEXT
  8
11
  6
CONTINUOUS
 62
     7
  5
236
 10
969078.721
 20
7279359.079
 30
0.0
 40
8.0
  1
181.91'
 50
88.6135
  7
txt
 72
     4
 11
969075.187037
 21
7279378.382162
 31
0.0
210
0.0
220
0.0
230
1.0
  0
TEXT
  8
11
  6
CONTINUOUS
 62
     7
  5
237
 10
968834.362
 20
7279362.348
 30
0.0
 40
8.0
  1
166.82'
 50
88.6135
  7
txt
 72
     4
 11
968830.892037
 21
7279384.295387
 31
0.0
210
0.0
220
0.0
230
1.0
  0
TEXT
  8
11
  6
CONTINUOUS
 62
     7
  5
238
 10
970113.473
 20
7279538.16
 30
0.0
 40
8.0
  1
166.85'
 50
88.6135
  7
txt
 72
     4
 11
970110.003037
 21
7279560.107387
 31
0.0
210
0.0
220
0.0
230
1.0
  0
TEXT
  8
11
  6
CONTINUOUS
 62
     7
  5
239
 10
970109.231
 20
7279362.912
 30
0.0
 40
8.0
  1
167'
 50
88.6135
  7
txt
 72
     4
 11
970105.524031
 21
7279375.067255
 31
0.0
210
0.0
220
0.0
230
1.0
  0
TEXT
  8
11
  6
CONTINUOUS
 62
     7
  5
23A
 10
968840.774
 20
7279571.478
 30
0.0
 40
8.0
  1
167.03'
 50
88.6135
  7
txt
 72
     4
 11
968837.30861
 21
7279593.614332
 31
0.0
210
0.0
220
0.0
230
1.0
  0
TEXT
  8
11
  6
CONTINUOUS
 62
     7
  5
23B
 10
968846.729
 20
7279817.487
 30
0.0
 40
8.0
  1
166.85'
 50
88.6135
  7
txt
 72
     4
 11
968843.259037
 21
7279839.434387
 31
0.0
210
0.0
220
0.0
230
1.0
  0
TEXT
  8
11
  6
CONTINUOUS
 62
     7
  5
23C
 10
970120.832
 20
7279786.459
 30
0.0
 40
8.0
  1
167.03'
 50
88.6135
  7
txt
 72
     4
 11
970117.36661
 21
7279808.595332
 31
0.0
210
0.0
220
0.0
230
1.0
  0
TEXT
  8
11
  6
CONTINUOUS
 62
     7
  5
23D
 10
970125.513
 20
7279979.793
 30
0.0
 40
8.0
  1
166.85'
 50
88.6135
  7
txt
 72
     4
 11
970122.043037
 21
7280001.740387
 31
0.0
210
0.0
220
0.0
230
1.0
  0
TEXT
  8
11
  6
CONTINUOUS
 62
     7
  5
23E
 10
970136.06
 20
7280415.596
 30
0.0
 40
8.0
  1
166.85'
 50
88.6135
  7
txt
 72
     4
 11
970132.590037
 21
7280437.543387
 31
0.0
210
0.0
220
0.0
230
1.0
  0
TEXT
  8
11
  6
CONTINUOUS
 62
     7
  5
23F
 10
970131.348
 20
7280220.901
 30
0.0
 40
8.0
  1
167.03'
 50
88.6135
  7
txt
 72
     4
 11
970127.88261
 21
7280243.037332
 31
0.0
210
0.0
220
0.0
230
1.0
  0
TEXT
  8
11
  6
CONTINUOUS
 62
     7
  5
240
 10
968858.966
 20
7280258.772
 30
0.0
 40
8.0
  1
195.41'
 50
88.6135
  7
txt
 72
     4
 11
968855.470897
 21
7280279.680691
 31
0.0
210
0.0
220
0.0
230
1.0
  0
TEXT
  8
11
  6
CONTINUOUS
 62
     7
  5
241
 10
969201.267
 20
7280206.051
 30
0.0
 40
8.0
  1
221.07'
 50
358.6135
  7
txt
 72
     4
 11
969223.593276
 21
7280209.511793
 31
0.0
210
0.0
220
0.0
230
1.0
  0
TEXT
  8
11
  6
CONTINUOUS
 62
     7
  5
242
 10
969457.56
 20
7280199.847
 30
0.0
 40
8.0
  1
257.5'
 50
358.6135
  7
txt
 72
     4
 11
969477.335023
 21
7280203.369542
 31
0.0
210
0.0
220
0.0
230
1.0
  0
TEXT
  8
11
  6
CONTINUOUS
 62
     7
  5
243
 10
969720.75
 20
7280193.477
 30
0.0
 40
8.0
  1
257.5'
 50
358.6135
  7
txt
 72
     4
 11
969740.525023
 21
7280196.999542
 31
0.0
210
0.0
220
0.0
230
1.0
  0
TEXT
  8
11
  6
CONTINUOUS
 62
     7
  5
244
 10
969729.675
 20
7280562.229
 30
0.0
 40
8.0
  1
257.5'
 50
358.6135
  7
txt
 72
     4
 11
969749.450023
 21
7280565.751542
 31
0.0
210
0.0
220
0.0
230
1.0
  0
TEXT
  8
11
  6
CONTINUOUS
 62
     7
  5
245
 10
969459.737
 20
7280568.763
 30
0.0
 40
8.0
  1
257.5'
 50
358.6135
  7
txt
 72
     4
 11
969479.512023
 21
7280572.285542
 31
0.0
210
0.0
220
0.0
230
1.0
  0
TEXT
  8
11
  6
CONTINUOUS
 62
     7
  5
246
 10
969201.946
 20
7280575.003
 30
0.0
 40
8.0
  1
257.5'
 50
358.6135
  7
txt
 72
     4
 11
969221.721023
 21
7280578.525542
 31
0.0
210
0.0
220
0.0
230
1.0
  0
TEXT
  8
11
  6
CONTINUOUS
 62
     7
  5
247
 10
969978.046
 20
7280389.979
 30
0.0
 40
8.0
  1
257.5'
 50
358.6135
  7
txt
 72
     4
 11
969997.821023
 21
7280393.501542
 31
0.0
210
0.0
220
0.0
230
1.0
  0
TEXT
  8
11
  6
CONTINUOUS
 62
     7
  5
248
 10
969977.196
 20
7280354.861
 30
0.0
 40
8.0
  1
257.5'
 50
358.6135
  7
txt
 72
     4
 11
969996.971023
 21
7280358.383542
 31
0.0
210
0.0
220
0.0
230
1.0
  0
TEXT
  8
11
  6
CONTINUOUS
 62
     7
  5
249
 10
968948.231
 20
7280414.905
 30
0.0
 40
8.0
  1
257.5'
 50
358.6135
  7
txt
 72
     4
 11
968968.006023
 21
7280418.427542
 31
0.0
210
0.0
220
0.0
230
1.0
  0
TEXT
  8
11
  6
CONTINUOUS
 62
     7
  5
24A
 10
968939.711
 20
7280378.62
 30
0.0
 40
8.0
  1
293.93'
 50
358.6135
  7
txt
 72
     4
 11
968963.074972
 21
7280382.055677
 31
0.0
210
0.0
220
0.0
230
1.0
  0
TEXT
  8
11
  6
CONTINUOUS
 62
     7
  5
24B
 10
969979.171
 20
7280557.542
 30
0.0
 40
8.0
  1
242.41'
 50
358.6135
  7
txt
 72
     4
 11
970001.875166
 21
7280560.993646
 31
0.0
210
0.0
220
0.0
230
1.0
  0
TEXT
  8
11
  6
CONTINUOUS
 62
     7
  5
24C
 10
969973.223
 20
7280187.367
 30
0.0
 40
8.0
  1
242.59'
 50
358.6135
  7
txt
 72
     4
 11
969996.965861
 21
7280190.793506
 31
0.0
210
0.0
220
0.0
230
1.0
  0
TEXT
  8
11
  6
CONTINUOUS
 62
     7
  5
24D
 10
968942.411
 20
7280577.23
 30
0.0
 40
8.0
  1
243.34'
 50
358.6135
  7
txt
 72
     4
 11
968966.531751
 21
7280580.64736
 31
0.0
210
0.0
220
0.0
230
1.0
  0
TEXT
  8
10
  6
CONTINUOUS
 62
   134
  5
24E
 10
968966.981
 20
7278114.294
 30
0.0
 40
50.0
  1

 50
28.6135
  7
ROMANC
210
0.0
220
0.0
230
1.0
  0
TEXT
  8
11
  6
CONTINUOUS
 62
     7
  5
24F
 10
969179.841
 20
7278021.457
 30
0.0
 40
8.0
  1
60'
 50
358.6135
  7
txt
 72
     4
 11
969189.35103
 21
7278025.227993
 31
0.0
210
0.0
220
0.0
230
1.0
  0
TEXT
  8
11
  6
CONTINUOUS
 62
     7
  5
250
 10
969120.536
 20
7278022.29
 30
0.0
 40
8.0
  1
60'
 50
358.6135
  7
txt
 72
     4
 11
969130.04603
 21
7278026.060993
 31
0.0
210
0.0
220
0.0
230
1.0
  0
TEXT
  8
11
  6
CONTINUOUS
 62
     7
  5
251
 10
969059.928
 20
7278023.758
 30
0.0
 40
8.0
  1
60'
 50
358.6135
  7
txt
 72
     4
 11
969069.43803
 21
7278027.528993
 31
0.0
210
0.0
220
0.0
230
1.0
  0
TEXT
  8
11
  6
CONTINUOUS
 62
     7
  5
252
 10
968998.002
 20
7278025.256
 30
0.0
 40
8.0
  1
60'
 50
358.6135
  7
txt
 72
     4
 11
969007.51203
 21
7278029.026993
 31
0.0
210
0.0
220
0.0
230
1.0
  0
TEXT
  8
11
  6
CONTINUOUS
 62
     7
  5
253
 10
968936.09
 20
7278027.358
 30
0.0
 40
8.0
  1
60'
 50
358.6135
  7
txt
 72
     4
 11
968945.60003
 21
7278031.128993
 31
0.0
210
0.0
220
0.0
230
1.0
  0
TEXT
  8
11
  6
CONTINUOUS
 62
     7
  5
254
 10
969182.54
 20
7278282.176
 30
0.0
 40
8.0
  1
60'
 50
358.6135
  7
txt
 72
     4
 11
969192.05003
 21
7278285.946993
 31
0.0
210
0.0
220
0.0
230
1.0
  0
TEXT
  8
11
  6
CONTINUOUS
 62
     7
  5
255
 10
969119.609
 20
7278282.495
 30
0.0
 40
8.0
  1
60'
 50
358.6135
  7
txt
 72
     4
 11
969129.11903
 21
7278286.265993
 31
0.0
210
0.0
220
0.0
230
1.0
  0
TEXT
  8
11
  6
CONTINUOUS
 62
     7
  5
256
 10
969060.221
 20
7278284.533
 30
0.0
 40
8.0
  1
60'
 50
358.6135
  7
txt
 72
     4
 11
969069.73103
 21
7278288.303993
 31
0.0
210
0.0
220
0.0
230
1.0
  0
TEXT
  8
11
  6
CONTINUOUS
 62
     7
  5
257
 10
969001.64
 20
7278287.458
 30
0.0
 40
8.0
  1
60'
 50
358.6135
  7
txt
 72
     4
 11
969011.15003
 21
7278291.228993
 31
0.0
210
0.0
220
0.0
230
1.0
  0
TEXT
  8
11
  6
CONTINUOUS
 62
     7
  5
258
 10
968943.911
 20
7278288.252
 30
0.0
 40
8.0
  1
60'
 50
358.6135
  7
txt
 72
     4
 11
968953.42103
 21
7278292.022993
 31
0.0
210
0.0
220
0.0
230
1.0
  0
TEXT
  8
11
  6
CONTINUOUS
 62
     7
  5
259
 10
969187.692
 20
7278345.841
 30
0.0
 40
8.0
  1
60'
 50
358.6135
  7
txt
 72
     4
 11
969197.20203
 21
7278349.611993
 31
0.0
210
0.0
220
0.0
230
1.0
  0
TEXT
  8
11
  6
CONTINUOUS
 62
     7
  5
25A
 10
969128.401
 20
7278347.275
 30
0.0
 40
8.0
  1
60'
 50
358.6135
  7
txt
 72
     4
 11
969137.91103
 21
7278351.045993
 31
0.0
210
0.0
220
0.0
230
1.0
  0
TEXT
  8
11
  6
CONTINUOUS
 62
     7
  5
25B
 10
969067.779
 20
7278348.141
 30
0.0
 40
8.0
  1
60'
 50
358.6135
  7
txt
 72
     4
 11
969077.28903
 21
7278351.911993
 31
0.0
210
0.0
220
0.0
230
1.0
  0
TEXT
  8
11
  6
CONTINUOUS
 62
     7
  5
25C
 10
969005.867
 20
7278350.242
 30
0.0
 40
8.0
  1
60'
 50
358.6135
  7
txt
 72
     4
 11
969015.37703
 21
7278354.012993
 31
0.0
210
0.0
220
0.0
230
1.0
  0
TEXT
  8
11
  6
CONTINUOUS
 62
     7
  5
25D
 10
968943.956
 20
7278352.342
 30
0.0
 40
8.0
  1
60'
 50
358.6135
  7
txt
 72
     4
 11
968953.46603
 21
7278356.112993
 31
0.0
210
0.0
220
0.0
230
1.0
  0
TEXT
  8
11
  6
CONTINUOUS
 62
     7
  5
25E
 10
969188.637
 20
7278608.754
 30
0.0
 40
8.0
  1
60'
 50
358.6135
  7
txt
 72
     4
 11
969198.14703
 21
7278612.524993
 31
0.0
210
0.0
220
0.0
230
1.0
  0
TEXT
  8
11
  6
CONTINUOUS
 62
     7
  5
25F
 10
969126.925
 20
7278609.642
 30
0.0
 40
8.0
  1
60'
 50
358.6135
  7
txt
 72
     4
 11
969136.43503
 21
7278613.412993
 31
0.0
210
0.0
220
0.0
230
1.0
  0
TEXT
  8
11
  6
CONTINUOUS
 62
     7
  5
260
 10
969068.122
 20
7278611.067
 30
0.0
 40
8.0
  1
60'
 50
358.6135
  7
txt
 72
     4
 11
969077.63203
 21
7278614.837993
 31
0.0
210
0.0
220
0.0
230
1.0
  0
TEXT
  8
11
  6
CONTINUOUS
 62
     7
  5
261
 10
969006.181
 20
7278611.963
 30
0.0
 40
8.0
  1
60'
 50
358.6135
  7
txt
 72
     4
 11
969015.69103
 21
7278615.733993
 31
0.0
210
0.0
220
0.0
230
1.0
  0
TEXT
  8
11
  6
CONTINUOUS
 62
     7
  5
262
 10
968947.293
 20
7278614.593
 30
0.0
 40
8.0
  1
60'
 50
358.6135
  7
txt
 72
     4
 11
968956.80303
 21
7278618.363993
 31
0.0
210
0.0
220
0.0
230
1.0
  0
TEXT
  8
11
  6
CONTINUOUS
 62
     7
  5
263
 10
971540.909
 20
7277960.714
 30
0.0
 40
8.0
  1
4414.20'
 50
358.6135
  7
txt
 72
     4
 11
971567.768948
 21
7277964.065061
 31
0.0
210
0.0
220
0.0
230
1.0
  0
INSERT
  8
11
  6
CONTINUOUS
 62
     7
  5
26B
  2
*D0
 10
973817.326
 20
7277843.524
 30
0.0
 70
     0
 71
     0
  0
INSERT
  8
11
  6
CONTINUOUS
 62
     7
  5
271
  2
*D1
 10
973953.508
 20
7277842.441
 30
0.0
 70
     0
 71
     0
  0
INSERT
  8
11
  6
CONTINUOUS
 62
     7
  5
277
  2
*D2
 10
969260.671
 20
7283255.04
 30
0.0
 70
     0
 71
     0
  0
TEXT
  8
10
  6
CONTINUOUS
 62
   134
  5
278
 10
973899.021
 20
7277860.86
 30
0.0
 40
24.0
  1
B.N.  R.R.
 50
42.6185
  7
txt
 72
     4
 11
973949.648912
 21
7277923.75197
 31
0.0
210
0.0
220
0.0
230
1.0
  0
POLYLINE
  8
1
  6
HIDDEN
 62
   253
  5
27A
 66
     1
 10
0.0
 20
0.0
 30
0.0
  0
VERTEX
  8
1
  6
HIDDEN
 62
   253
  5
27B
 10
968786.958
 20
7283296.328
 30
0.0
  0
VERTEX
  8
1
  6
HIDDEN
 62
   253
  5
27C
 10
968645.066
 20
7278025.97
 30
0.0
  0
VERTEX
  8
1
  6
HIDDEN
 62
   253
  5
27D
 10
973936.092
 20
7277868.763
 30
0.0
  0
VERTEX
  8
1
  6
HIDDEN
 62
   253
  5
27E
 10
974082.359
 20
7283135.613
 30
0.0
  0
VERTEX
  8
1
  6
HIDDEN
 62
   253
  5
27F
 10
968786.958
 20
7283296.328
 30
0.0
  0
SEQEND
  8
1
  6
HIDDEN
 62
   253
  5
280
  0
TEXT
  8
10
  6
CONTINUOUS
 62
   134
  5
281
 10
970007.196
 20
7279048.188
 30
0.0
 40
13.999
  1
 1
 50
358.6135
  7
ROMANS
 11
970007.534729
 21
7279062.182901
 31
0.0
210
0.0
220
0.0
230
1.0
 73
     3
  0
TEXT
  8
10
  6
CONTINUOUS
 62
   134
  5
282
 10
969939.715
 20
7279049.82
 30
0.0
 40
13.999
  1
 2
 50
358.6135
  7
ROMANS
 11
969940.053729
 21
7279063.814901
 31
0.0
210
0.0
220
0.0
230
1.0
 73
     3
  0
TEXT
  8
10
  6
CONTINUOUS
 62
   134
  5
283
 10
969872.235
 20
7279051.454
 30
0.0
 40
13.999
  1
 3
 50
358.6135
  7
ROMANS
 11
969872.573729
 21
7279065.448901
 31
0.0
210
0.0
220
0.0
230
1.0
 73
     3
  0
TEXT
  8
10
  6
CONTINUOUS
 62
   134
  5
284
 10
969804.755
 20
7279053.088
 30
0.0
 40
13.999
  1
 4
 50
358.6135
  7
ROMANS
 11
969805.093729
 21
7279067.082901
 31
0.0
210
0.0
220
0.0
230
1.0
 73
     3
  0
TEXT
  8
10
  6
CONTINUOUS
 62
   134
  5
285
 10
969737.275
 20
7279054.72
 30
0.0
 40
13.999
  1
 5
 50
358.6135
  7
ROMANS
 11
969737.613729
 21
7279068.714901
 31
0.0
210
0.0
220
0.0
230
1.0
 73
     3
  0
TEXT
  8
10
  6
CONTINUOUS
 62
   134
  5
286
 10
969669.795
 20
7279056.354
 30
0.0
 40
13.999
  1
 6
 50
358.6135
  7
ROMANS
 11
969670.133729
 21
7279070.348901
 31
0.0
210
0.0
220
0.0
230
1.0
 73
     3
  0
TEXT
  8
10
  6
CONTINUOUS
 62
   134
  5
287
 10
969602.315
 20
7279057.988
 30
0.0
 40
13.999
  1
 7
 50
358.6135
  7
ROMANS
 11
969602.653729
 21
7279071.982901
 31
0.0
210
0.0
220
0.0
230
1.0
 73
     3
  0
TEXT
  8
10
  6
CONTINUOUS
 62
   134
  5
288
 10
969534.834
 20
7279059.62
 30
0.0
 40
13.999
  1
 8
 50
358.6135
  7
ROMANS
 11
969535.172729
 21
7279073.614901
 31
0.0
210
0.0
220
0.0
230
1.0
 73
     3
  0
TEXT
  8
10
  6
CONTINUOUS
 62
   134
  5
289
 10
969467.354
 20
7279061.254
 30
0.0
 40
13.999
  1
 9
 50
358.6135
  7
ROMANS
 11
969467.692729
 21
7279075.248901
 31
0.0
210
0.0
220
0.0
230
1.0
 73
     3
  0
LINE
  8
7
  6
CONTINUOUS
 62
     7
  5
28A
 10
969993.416
 20
7278983.86
 30
0.0
 11
969996.611
 21
7279115.922
 31
0.0
  0
LINE
  8
7
  6
CONTINUOUS
 62
     7
  5
28B
 10
969926.135
 20
7278985.488
 30
0.0
 11
969929.331
 21
7279117.55
 31
0.0
  0
LINE
  8
7
  6
CONTINUOUS
 62
     7
  5
28C
 10
969858.855
 20
7278987.117
 30
0.0
 11
969862.051
 21
7279119.178
 31
0.0
  0
LINE
  8
7
  6
CONTINUOUS
 62
     7
  5
28D
 10
969791.575
 20
7278988.745
 30
0.0
 11
969794.771
 21
7279120.806
 31
0.0
  0
LINE
  8
7
  6
CONTINUOUS
 62
     7
  5
28E
 10
969724.294
 20
7278990.373
 30
0.0
 11
969727.49
 21
7279122.435
 31
0.0
  0
LINE
  8
7
  6
CONTINUOUS
 62
     7
  5
28F
 10
969657.014
 20
7278992.003
 30
0.0
 11
969660.21
 21
7279124.064
 31
0.0
  0
LINE
  8
7
  6
CONTINUOUS
 62
     7
  5
290
 10
969589.734
 20
7278993.631
 30
0.0
 11
969592.93
 21
7279125.692
 31
0.0
  0
LINE
  8
7
  6
CONTINUOUS
 62
     7
  5
291
 10
969529.751
 20
7278995.082
 30
0.0
 11
969532.948
 21
7279127.144
 31
0.0
  0
LINE
  8
6
  6
CONTINUOUS
 62
     7
  5
292
 10
969459.772
 20
7278996.776
 30
0.0
 11
969462.968
 21
7279128.837
 31
0.0
  0
LINE
  8
6
  6
CONTINUOUS
 62
     7
  5
293
 10
970064.092
 20
7279114.288
 30
0.0
 11
969462.968
 21
7279128.837
 31
0.0
  0
LINE
  8
6
  6
CONTINUOUS
 62
     7
  5
294
 10
970060.896
 20
7278982.227
 30
0.0
 11
970064.092
 21
7279114.288
 31
0.0
  0
LINE
  8
6
  6
CONTINUOUS
 62
     7
  5
295
 10
970060.896
 20
7278982.227
 30
0.0
 11
969459.772
 21
7278996.776
 31
0.0
  0
TEXT
  8
11
  6
CONTINUOUS
 62
     7
  5
296
 10
970070.183
 20
7279099.826
 30
0.0
 40
8.0
  1
30'
 50
358.6135
  7
txt
 72
     4
 11
970079.882974
 21
7279103.592396
 31
0.0
210
0.0
220
0.0
230
1.0
  0
TEXT
  8
11
  6
CONTINUOUS
 62
     7
  5
297
 10
970067.23
 20
7278977.862
 30
0.0
 40
8.0
  1
30'
 50
358.6135
  7
txt
 72
     4
 11
970076.929974
 21
7278981.628396
 31
0.0
210
0.0
220
0.0
230
1.0
  0
TEXT
  8
11
  6
CONTINUOUS
 62
     7
  5
298
 10
969438.614
 20
7279114.265
 30
0.0
 40
8.0
  1
30'
 50
358.6135
  7
txt
 72
     4
 11
969448.313974
 21
7279118.031396
 31
0.0
210
0.0
220
0.0
230
1.0
  0
TEXT
  8
11
  6
CONTINUOUS
 62
     7
  5
299
 10
969435.724
 20
7278994.842
 30
0.0
 40
8.0
  1
30'
 50
358.6135
  7
txt
 72
     4
 11
969445.423974
 21
7278998.608396
 31
0.0
210
0.0
220
0.0
230
1.0
  0
TEXT
  8
11
  6
CONTINUOUS
 62
     7
  5
29A
 10
969474.553
 20
7279126.895
 30
0.0
 40
8.0
  1
7.5'
 50
88.6135
  7
txt
 72
     4
 11
969470.836885
 21
7279138.672366
 31
0.0
210
0.0
220
0.0
230
1.0
  0
TEXT
  8
11
  6
CONTINUOUS
 62
     7
  5
29B
 10
970060.386
 20
7279112.717
 30
0.0
 40
8.0
  1
7.5'
 50
88.6135
  7
txt
 72
     4
 11
970056.669885
 21
7279124.494366
 31
0.0
210
0.0
220
0.0
230
1.0
  0
TEXT
  8
11
  6
CONTINUOUS
 62
     7
  5
29C
 10
969478.39
 20
7278970.373
 30
0.0
 40
8.0
  1
25'
 50
88.6135
  7
txt
 72
     4
 11
969474.624378
 21
7278980.104965
 31
0.0
210
0.0
220
0.0
230
1.0
  0
TEXT
  8
11
  6
CONTINUOUS
 62
     7
  5
29D
 10
970051.523
 20
7278956.501
 30
0.0
 40
8.0
  1
25'
 50
88.6135
  7
txt
 72
     4
 11
970047.757378
 21
7278966.232965
 31
0.0
210
0.0
220
0.0
230
1.0
  0
TEXT
  8
11
  6
CONTINUOUS
 62
     7
  5
29E
 10
969472.645
 20
7279048.077
 30
0.0
 40
8.0
  1
132.1'
 50
88.6135
  7
txt
 72
     4
 11
969469.05311
 21
7279064.986863
 31
0.0
210
0.0
220
0.0
230
1.0
  0
TEXT
  8
11
  6
CONTINUOUS
 62
     7
  5
29F
 10
970058.479
 20
7279033.897
 30
0.0
 40
8.0
  1
132.1'
 50
88.6135
  7
txt
 72
     4
 11
970054.88711
 21
7279050.806863
 31
0.0
210
0.0
220
0.0
230
1.0
  0
TEXT
  8
11
  6
CONTINUOUS
 62
     7
  5
2A0
 10
969485.662
 20
7278994.481
 30
0.0
 40
8.0
  1
70'
 50
358.6135
  7
txt
 72
     4
 11
969495.392965
 21
7278998.246646
 31
0.0
210
0.0
220
0.0
230
1.0
  0
TEXT
  8
11
  6
CONTINUOUS
 62
     7
  5
2A1
 10
969553.363
 20
7278992.842
 30
0.0
 40
8.0
  1
60'
 50
358.6135
  7
txt
 72
     4
 11
969562.87303
 21
7278996.612993
 31
0.0
210
0.0
220
0.0
230
1.0
  0
TEXT
  8
11
  6
CONTINUOUS
 62
     7
  5
2A2
 10
969614.765
 20
7278991.357
 30
0.0
 40
8.0
  1
67.3'
 50
358.6135
  7
txt
 72
     4
 11
969630.35225
 21
7278994.980902
 31
0.0
210
0.0
220
0.0
230
1.0
  0
TEXT
  8
11
  6
CONTINUOUS
 62
     7
  5
2A3
 10
969672.824
 20
7278989.951
 30
0.0
 40
8.0
  1
67.3'
 50
358.6135
  7
txt
 72
     4
 11
969688.41125
 21
7278993.574902
 31
0.0
210
0.0
220
0.0
230
1.0
  0
TEXT
  8
11
  6
CONTINUOUS
 62
     7
  5
2A4
 10
969740.305
 20
7278988.317
 30
0.0
 40
8.0
  1
67.3'
 50
358.6135
  7
txt
 72
     4
 11
969755.89225
 21
7278991.940902
 31
0.0
210
0.0
220
0.0
230
1.0
  0
TEXT
  8
11
  6
CONTINUOUS
 62
     7
  5
2A5
 10
969807.785
 20
7278986.685
 30
0.0
 40
8.0
  1
67.3'
 50
358.6135
  7
txt
 72
     4
 11
969823.37225
 21
7278990.308902
 31
0.0
210
0.0
220
0.0
230
1.0
  0
TEXT
  8
11
  6
CONTINUOUS
 62
     7
  5
2A6
 10
969875.265
 20
7278985.051
 30
0.0
 40
8.0
  1
67.3'
 50
358.6135
  7
txt
 72
     4
 11
969890.85225
 21
7278988.674902
 31
0.0
210
0.0
220
0.0
230
1.0
  0
TEXT
  8
11
  6
CONTINUOUS
 62
     7
  5
2A7
 10
969942.746
 20
7278983.418
 30
0.0
 40
8.0
  1
67.3'
 50
358.6135
  7
txt
 72
     4
 11
969958.33325
 21
7278987.041902
 31
0.0
210
0.0
220
0.0
230
1.0
  0
TEXT
  8
11
  6
CONTINUOUS
 62
     7
  5
2A8
 10
970010.226
 20
7278981.785
 30
0.0
 40
8.0
  1
67.5'
 50
358.6135
  7
txt
 72
     4
 11
970025.81325
 21
7278985.408902
 31
0.0
210
0.0
220
0.0
230
1.0
  0
TEXT
  8
15
  6
CONTINUOUS
 62
    30
  5
2A9
 10
969566.394
 20
7279070.267
 30
0.0
 40
50.0
  1
HUNTER
 50
358.6135
  7
ROMANC
 72
     4
 11
969735.836469
 21
7279091.173184
 31
0.0
210
0.0
220
0.0
230
1.0
  0
TEXT
  8
19
  6
CONTINUOUS
 62
     1
  5
2AB
 10
968841.134
 20
7281894.673
 30
0.0
 40
24.0
  1
OLIVE   AVE
 50
88.6135
  7
ROMANC
 72
     4
 11
968832.457
 21
7282032.111193
 31
0.0
210
0.0
220
0.0
230
1.0
  0
TEXT
  8
15
  6
CONTINUOUS
 62
    30
  5
2AC
 10
969422.691
 20
7280348.877
 30
0.0
 40
50.0
  1
E
 50
28.6135
  7
ROMANC
210
0.0
220
0.0
230
1.0
  0
TEXT
  8
15
  6
CONTINUOUS
 62
    30
  5
2AD
 10
970729.712
 20
7280287.525
 30
0.0
 40
50.0
  1
E
 50
28.6135
  7
ROMANC
210
0.0
220
0.0
230
1.0
  0
TEXT
  8
19
  6
CONTINUOUS
 62
     1
  5
2AE
 10
969675.17
 20
7278954.189
 30
0.0
 40
24.0
  1
E 2ND PL
 50
358.6135
  7
ROMANC
 72
     4
 11
969777.566456
 21
7278963.71414
 31
0.0
210
0.0
220
0.0
230
1.0
  0
TEXT
  8
19
  6
CONTINUOUS
 62
     1
  5
2AF
 10
969415.428
 20
7283222.268
 30
0.0
 40
24.0
  1
ERSKINE ST
 50
358.6135
  7
ROMANC
 72
     4
 11
969538.226481
 21
7283231.299335
 31
0.0
210
0.0
220
0.0
230
1.0
  0
TEXT
  8
19
  6
CONTINUOUS
 62
     1
  5
2B0
 10
969472.864
 20
7279289.991
 30
0.0
 40
24.0
  1
E 2ND ST
 50
358.6135
  7
ROMANC
 72
     4
 11
969573.560954
 21
7279299.557274
 31
0.0
210
0.0
220
0.0
230
1.0
  0
TEXT
  8
19
  6
CONTINUOUS
 62
     1
  5
2B1
 10
970661.499
 20
7279261.221
 30
0.0
 40
24.0
  1
E 2ND ST
 50
358.6135
  7
ROMANC
 72
     4
 11
970762.195954
 21
7279270.787274
 31
0.0
210
0.0
220
0.0
230
1.0
  0
TEXT
  8
19
  6
CONTINUOUS
 62
     1
  5
2B2
 10
968835.055
 20
7278643.065
 30
0.0
 40
24.0
  1
E 3RD ST
 50
358.6135
  7
ROMANC
 72
     4
 11
968934.618286
 21
7278652.658713
 31
0.0
210
0.0
220
0.0
230
1.0
  0
TEXT
  8
19
  6
CONTINUOUS
 62
     1
  5
2B3
 10
968830.895
 20
7278320.078
 30
0.0
 40
24.0
  1
E 3RD PL
 50
358.6135
  7
ROMANC
 72
     4
 11
968932.157788
 21
7278329.630579
 31
0.0
210
0.0
220
0.0
230
1.0
  0
TEXT
  8
19
  6
CONTINUOUS
 62
     1
  5
2B4
 10
970015.7
 20
7277970.236
 30
0.0
 40
24.0
  1
E 4TH ST
 50
358.6135
  7
ROMANC
 72
     4
 11
970118.66329
 21
7277979.74742
 31
0.0
210
0.0
220
0.0
230
1.0
  0
TEXT
  8
19
  6
CONTINUOUS
 62
     1
  5
2B5
 10
968817.947
 20
7279834.013
 30
0.0
 40
24.0
  1
OLIVE AVE
 50
88.6135
  7
ROMANC
 72
     4
 11
968808.639025
 21
7279945.381828
 31
0.0
210
0.0
220
0.0
230
1.0
  0
TEXT
  8
19
  6
CONTINUOUS
 62
     1
  5
2B6
 10
971496.181
 20
7279792.608
 30
0.0
 40
24.0
  1
SUMAC AVE
 50
88.6135
  7
ROMANC
 72
     4
 11
971487.081092
 21
7279912.573311
 31
0.0
210
0.0
220
0.0
230
1.0
  0
TEXT
  8
19
  6
CONTINUOUS
 62
     1
  5
2B7
 10
970165.267
 20
7279784.149
 30
0.0
 40
24.0
  1
QUETZEL AVE
 50
88.6135
  7
ROMANC
 72
     4
 11
970156.686013
 21
7279925.554032
 31
0.0
210
0.0
220
0.0
230
1.0
  0
LINE
  8
6
  6
CONTINUOUS
 62
     7
  5
2B8
 10
968842.098
 20
7279332.113
 30
0.0
 11
970099.23
 21
7279301.685
 31
0.0
  0
TEXT
  8
19
  6
CONTINUOUS
 62
     1
  5
2B9
 10
968768.182
 20
7278085.166
 30
0.0
 40
24.0
  1
OLIVE AVE
 50
88.6135
  7
ROMANC
 72
     4
 11
968758.874025
 21
7278196.534828
 31
0.0
210
0.0
220
0.0
230
1.0
  0
TEXT
  8
19
  6
CONTINUOUS
 62
     1
  5
2BA
 10
969405.768
 20
7278100.847
 30
0.0
 40
24.0
  1
PEACH AVE
 50
88.6135
  7
ROMANC
 72
     4
 11
969396.706927
 21
7278222.416841
 31
0.0
210
0.0
220
0.0
230
1.0
  0
TEXT
  8
19
  6
CONTINUOUS
 62
     1
  5
2BB
 10
969317.551
 20
7280587.982
 30
0.0
 40
22.0
  1
E AUBURN ST
 50
358.6135
  7
ROMANC
 72
     4
 11
969453.406453
 21
7280595.697015
 31
0.0
210
0.0
220
0.0
230
1.0
  0
TEXT
  8
19
  6
CONTINUOUS
 62
     1
  5
2BC
 10
970731.288
 20
7280553.765
 30
0.0
 40
22.0
  1
E AUBURN ST
 50
358.6135
  7
ROMANC
 72
     4
 11
970867.143453
 21
7280561.480015
 31
0.0
210
0.0
220
0.0
230
1.0
  0
TEXT
  8
19
  6
CONTINUOUS
 62
     1
  5
2BD
 10
969164.793
 20
7280168.357
 30
0.0
 40
24.0
  1
E 1ST ST
 50
358.6135
  7
ROMANC
 72
     4
 11
969257.460305
 21
7280178.117621
 31
0.0
210
0.0
220
0.0
230
1.0
  0
TEXT
  8
19
  6
CONTINUOUS
 62
     1
  5
2BE
 10
970505.215
 20
7280135.915
 30
0.0
 40
24.0
  1
E 1ST ST
 50
358.6135
  7
ROMANC
 72
     4
 11
970597.882305
 21
7280145.675621
 31
0.0
210
0.0
220
0.0
230
1.0
  0
TEXT
  8
19
  6
CONTINUOUS
 62
     1
  5
2BF
 10
969121.633
 20
7279727.096
 30
0.0
 40
24.0
  1
E 1ST PL
 50
358.6135
  7
ROMANC
 72
     4
 11
969215.999808
 21
7279736.815487
 31
0.0
210
0.0
220
0.0
230
1.0
  0
TEXT
  8
19
  6
CONTINUOUS
 62
     1
  5
2C0
 10
970466.695
 20
7279694.541
 30
0.0
 40
24.0
  1
E 1ST PL
 50
358.6135
  7
ROMANC
 72
     4
 11
970561.061808
 21
7279704.260487
 31
0.0
210
0.0
220
0.0
230
1.0
  0
CIRCLE
  8
8
  6
CONTINUOUS
 62
     7
  5
2C2
 10
971472.581938
 20
7280532.425547
 30
0.0
 40
2.0
210
0.0
220
0.0
230
1.0
  0
CIRCLE
  8
8
  6
CONTINUOUS
 62
     7
  5
2C3
 10
971487.214597
 20
7280517.066989
 30
0.0
 40
2.0
210
0.0
220
0.0
230
1.0
  0
CIRCLE
  8
8
  6
CONTINUOUS
 62
     7
  5
2C4
 10
971478.651894
 20
7280163.290599
 30
0.0
 40
2.0
210
0.0
220
0.0
230
1.0
  0
CIRCLE
  8
8
  6
CONTINUOUS
 62
     7
  5
2C5
 10
971463.293337
 20
7280148.65794
 30
0.0
 40
2.0
210
0.0
220
0.0
230
1.0
  0
CIRCLE
  8
8
  6
CONTINUOUS
 62
     7
  5
2C6
 10
971461.938325
 20
7280092.674336
 30
0.0
 40
2.0
210
0.0
220
0.0
230
1.0
  0
CIRCLE
  8
8
  6
CONTINUOUS
 62
     7
  5
2C7
 10
971476.570984
 20
7280077.315778
 30
0.0
 40
2.0
210
0.0
220
0.0
230
1.0
  0
CIRCLE
  8
8
  6
CONTINUOUS
 62
     7
  5
2C8
 10
971468.008281
 20
7279723.539388
 30
0.0
 40
2.0
210
0.0
220
0.0
230
1.0
  0
CIRCLE
  8
8
  6
CONTINUOUS
 62
     7
  5
2C9
 10
971452.649724
 20
7279708.906729
 30
0.0
 40
2.0
210
0.0
220
0.0
230
1.0
  0
CIRCLE
  8
8
  6
CONTINUOUS
 62
     7
  5
2CA
 10
971451.294713
 20
7279652.923124
 30
0.0
 40
2.0
210
0.0
220
0.0
230
1.0
  0
CIRCLE
  8
8
  6
CONTINUOUS
 62
     7
  5
2CB
 10
971465.927371
 20
7279637.564567
 30
0.0
 40
2.0
210
0.0
220
0.0
230
1.0
  0
CIRCLE
  8
8
  6
CONTINUOUS
 62
     7
  5
2CC
 10
971457.365395
 20
7279283.818167
 30
0.0
 40
2.0
210
0.0
220
0.0
230
1.0
  0
CIRCLE
  8
8
  6
CONTINUOUS
 62
     7
  5
2CD
 10
971442.006837
 20
7279269.185508
 30
0.0
 40
2.0
210
0.0
220
0.0
230
1.0
  0
CIRCLE
  8
8
  6
CONTINUOUS
 62
     7
  5
2CE
 10
970099.230092
 20
7279301.685694
 30
0.0
 40
2.0
210
0.0
220
0.0
230
1.0
  0
CIRCLE
  8
8
  6
CONTINUOUS
 62
     7
  5
2CF
 10
970114.58865
 20
7279316.318353
 30
0.0
 40
2.0
210
0.0
220
0.0
230
1.0
  0
CIRCLE
  8
8
  6
CONTINUOUS
 62
     7
  5
2D0
 10
970185.204913
 20
7279299.604784
 30
0.0
 40
2.0
210
0.0
220
0.0
230
1.0
  0
CIRCLE
  8
8
  6
CONTINUOUS
 62
     7
  5
2D1
 10
970170.572254
 20
7279314.963341
 30
0.0
 40
2.0
210
0.0
220
0.0
230
1.0
  0
CIRCLE
  8
8
  6
CONTINUOUS
 62
     7
  5
2D2
 10
970123.150626
 20
7279670.064752
 30
0.0
 40
2.0
210
0.0
220
0.0
230
1.0
  0
CIRCLE
  8
8
  6
CONTINUOUS
 62
     7
  5
2D3
 10
970108.517968
 20
7279685.42331
 30
0.0
 40
2.0
210
0.0
220
0.0
230
1.0
  0
CIRCLE
  8
8
  6
CONTINUOUS
 62
     7
  5
2D4
 10
970179.134231
 20
7279668.709741
 30
0.0
 40
2.0
210
0.0
220
0.0
230
1.0
  0
CIRCLE
  8
8
  6
CONTINUOUS
 62
     7
  5
2D5
 10
970194.492788
 20
7279683.3424
 30
0.0
 40
2.0
210
0.0
220
0.0
230
1.0
  0
CIRCLE
  8
8
  6
CONTINUOUS
 62
     7
  5
2D6
 10
970195.8478
 20
7279739.326004
 30
0.0
 40
2.0
210
0.0
220
0.0
230
1.0
  0
CIRCLE
  8
8
  6
CONTINUOUS
 62
     7
  5
2D7
 10
970181.215141
 20
7279754.684562
 30
0.0
 40
2.0
210
0.0
220
0.0
230
1.0
  0
CIRCLE
  8
8
  6
CONTINUOUS
 62
     7
  5
2D8
 10
970109.872979
 20
7279741.406914
 30
0.0
 40
2.0
210
0.0
220
0.0
230
1.0
  0
CIRCLE
  8
8
  6
CONTINUOUS
 62
     7
  5
2D9
 10
970125.231537
 20
7279756.039573
 30
0.0
 40
2.0
210
0.0
220
0.0
230
1.0
  0
CIRCLE
  8
8
  6
CONTINUOUS
 62
     7
  5
2DA
 10
970133.794239
 20
7280109.815963
 30
0.0
 40
2.0
210
0.0
220
0.0
230
1.0
  0
CIRCLE
  8
8
  6
CONTINUOUS
 62
     7
  5
2DB
 10
970119.161581
 20
7280125.174521
 30
0.0
 40
2.0
210
0.0
220
0.0
230
1.0
  0
CIRCLE
  8
8
  6
CONTINUOUS
 62
     7
  5
2DC
 10
970189.777844
 20
7280108.460952
 30
0.0
 40
2.0
210
0.0
220
0.0
230
1.0
  0
CIRCLE
  8
8
  6
CONTINUOUS
 62
     7
  5
2DD
 10
970205.136401
 20
7280123.093611
 30
0.0
 40
2.0
210
0.0
220
0.0
230
1.0
  0
CIRCLE
  8
8
  6
CONTINUOUS
 62
     7
  5
2DE
 10
970120.516592
 20
7280181.158125
 30
0.0
 40
2.0
210
0.0
220
0.0
230
1.0
  0
CIRCLE
  8
8
  6
CONTINUOUS
 62
     7
  5
2DF
 10
970135.875149
 20
7280195.790784
 30
0.0
 40
2.0
210
0.0
220
0.0
230
1.0
  0
CIRCLE
  8
8
  6
CONTINUOUS
 62
     7
  5
2E0
 10
970206.491413
 20
7280179.077215
 30
0.0
 40
2.0
210
0.0
220
0.0
230
1.0
  0
CIRCLE
  8
8
  6
CONTINUOUS
 62
     7
  5
2E1
 10
970191.858754
 20
7280194.435773
 30
0.0
 40
2.0
210
0.0
220
0.0
230
1.0
  0
CIRCLE
  8
8
  6
CONTINUOUS
 62
     7
  5
2E2
 10
970200.421456
 20
7280548.212164
 30
0.0
 40
2.0
210
0.0
220
0.0
230
1.0
  0
CIRCLE
  8
8
  6
CONTINUOUS
 62
     7
  5
2E3
 10
970215.780014
 20
7280562.844822
 30
0.0
 40
2.0
210
0.0
220
0.0
230
1.0
  0
CIRCLE
  8
8
  6
CONTINUOUS
 62
     7
  5
2E4
 10
970144.437852
 20
7280549.567175
 30
0.0
 40
2.0
210
0.0
220
0.0
230
1.0
  0
CIRCLE
  8
8
  6
CONTINUOUS
 62
     7
  5
2E5
 10
970129.805193
 20
7280564.925732
 30
0.0
 40
2.0
210
0.0
220
0.0
230
1.0
  0
CIRCLE
  8
8
  6
CONTINUOUS
 62
     7
  5
2E6
 10
969115.102366
 20
7280589.48531
 30
0.0
 40
2.0
210
0.0
220
0.0
230
1.0
  0
CIRCLE
  8
8
  6
CONTINUOUS
 62
     7
  5
2E7
 10
968871.854605
 20
7280585.826015
 30
0.0
 40
2.0
210
0.0
220
0.0
230
1.0
  0
CIRCLE
  8
8
  6
CONTINUOUS
 62
     7
  5
2E8
 10
968857.084142
 20
7280571.190125
 30
0.0
 40
2.0
210
0.0
220
0.0
230
1.0
  0
CIRCLE
  8
8
  6
CONTINUOUS
 62
     7
  5
2E9
 10
968848.066615
 20
7280198.622238
 30
0.0
 40
2.0
210
0.0
220
0.0
230
1.0
  0
CIRCLE
  8
8
  6
CONTINUOUS
 62
     7
  5
2EA
 10
968978.286945
 20
7280193.877956
 30
0.0
 40
2.0
210
0.0
220
0.0
230
1.0
  0
CIRCLE
  8
8
  6
CONTINUOUS
 62
     7
  5
2EB
 10
969106.153665
 20
7280205.709476
 30
0.0
 40
2.0
210
0.0
220
0.0
230
1.0
  0
CIRCLE
  8
8
  6
CONTINUOUS
 62
     7
  5
2EC
 10
969104.798654
 20
7280149.725872
 30
0.0
 40
2.0
210
0.0
220
0.0
230
1.0
  0
CIRCLE
  8
8
  6
CONTINUOUS
 62
     7
  5
2ED
 10
968989.890759
 20
7280139.094143
 30
0.0
 40
2.0
210
0.0
220
0.0
230
1.0
  0
CIRCLE
  8
8
  6
CONTINUOUS
 62
     7
  5
2EE
 10
968861.362257
 20
7280127.27964
 30
0.0
 40
2.0
210
0.0
220
0.0
230
1.0
  0
CIRCLE
  8
8
  6
CONTINUOUS
 62
     7
  5
2EF
 10
968845.985705
 20
7280112.647417
 30
0.0
 40
2.0
210
0.0
220
0.0
230
1.0
  0
CIRCLE
  8
8
  6
CONTINUOUS
 62
     7
  5
2F0
 10
968862.67828
 20
7280183.264188
 30
0.0
 40
2.0
210
0.0
220
0.0
230
1.0
  0
CIRCLE
  8
8
  6
CONTINUOUS
 62
     7
  5
2F1
 10
968838.108492
 20
7279787.192732
 30
0.0
 40
2.0
210
0.0
220
0.0
230
1.0
  0
CIRCLE
  8
8
  6
CONTINUOUS
 62
     7
  5
2F2
 10
968852.741151
 20
7279771.834174
 30
0.0
 40
2.0
210
0.0
220
0.0
230
1.0
  0
CIRCLE
  8
8
  6
CONTINUOUS
 62
     7
  5
2F3
 10
968851.38614
 20
7279715.85057
 30
0.0
 40
2.0
210
0.0
220
0.0
230
1.0
  0
CIRCLE
  8
8
  6
CONTINUOUS
 62
     7
  5
2F4
 10
968836.027582
 20
7279701.217911
 30
0.0
 40
2.0
210
0.0
220
0.0
230
1.0
  0
CIRCLE
  8
8
  6
CONTINUOUS
 62
     7
  5
2F5
 10
968827.465605
 20
7279347.471512
 30
0.0
 40
2.0
210
0.0
220
0.0
230
1.0
  0
CIRCLE
  8
8
  6
CONTINUOUS
 62
     7
  5
2F6
 10
968842.098264
 20
7279332.112954
 30
0.0
 40
2.0
210
0.0
220
0.0
230
1.0
  0
LINE
  8
6
  6
CONTINUOUS
 62
     7
  5
2F7
 10
970060.291
 20
7278957.234
 30
0.0
 11
969459.167
 21
7278971.784
 31
0.0
  0
LINE
  8
6
  6
CONTINUOUS
 62
     7
  5
2F8
 10
969429.175
 20
7278972.51
 30
0.0
 11
969433.158
 21
7279137.061
 31
0.0
  0
LINE
  8
6
  6
CONTINUOUS
 62
     7
  5
2F9
 10
970064.273
 20
7279121.786
 30
0.0
 11
969463.149
 21
7279136.335
 31
0.0
  0
LINE
  8
6
  6
CONTINUOUS
 62
     7
  5
2FA
 10
970090.282
 20
7278956.508
 30
0.0
 11
970094.265
 21
7279121.06
 31
0.0
  0
TEXT
  8
11
  6
CONTINUOUS
 62
     7
  5
2FB
 10
968855.105
 20
7280032.135
 30
0.0
 40
8.0
  1
138.9'
 50
88.6135
  7
txt
 72
     4
 11
968851.542823
 21
7280050.272503
 31
0.0
210
0.0
220
0.0
230
1.0
  0
TEXT
  8
11
  6
CONTINUOUS
 62
     7
  5
2FC
 10
969010.506
 20
7280201.114
 30
0.0
 40
8.0
  1
128.74'
 50
7.6135
  7
txt
 72
     4
 11
969032.234076
 21
7280208.053931
 31
0.0
210
0.0
220
0.0
230
1.0
  0
TEXT
  8
11
  6
CONTINUOUS
 62
     7
  5
2FD
 10
968915.329
 20
7280186.179
 30
0.0
 40
8.0
  1
115.66'
 50
5.6135
  7
txt
 72
     4
 11
968935.279708
 21
7280192.159205
 31
0.0
210
0.0
220
0.0
230
1.0
  0
TEXT
  8
11
  6
CONTINUOUS
 62
     7
  5
2FE
 10
968908.308
 20
7280117.281
 30
0.0
 40
8.0
  1
128.74'
 50
6.6135
  7
txt
 72
     4
 11
968930.153885
 21
7280123.840667
 31
0.0
210
0.0
220
0.0
230
1.0
  0
TEXT
  8
11
  6
CONTINUOUS
 62
     7
  5
2FF
 10
969022.797
 20
7280135.192
 30
0.0
 40
8.0
  1
115.66'
 50
6.6135
  7
txt
 72
     4
 11
969042.6403
 21
7280141.519482
 31
0.0
210
0.0
220
0.0
230
1.0
  0
TEXT
  8
11
  6
CONTINUOUS
 62
     7
  5
300
 10
968900.12
 20
7280128.353
 30
0.0
 40
8.0
  1
R=552.55'
 50
5.6135
  7
txt
 72
     4
 11
968930.508411
 21
7280135.359114
 31
0.0
210
0.0
220
0.0
230
1.0
  0
TEXT
  8
11
  6
CONTINUOUS
 62
     7
  5
301
 10
968910.37
 20
7280173.71
 30
0.0
 40
8.0
  1
R=496.55'
 50
8.6135
  7
txt
 72
     4
 11
968940.162237
 21
7280182.268463
 31
0.0
210
0.0
220
0.0
230
1.0
  0
TEXT
  8
11
  6
CONTINUOUS
 62
     7
  5
302
 10
969010.217
 20
7280144.747
 30
0.0
 40
8.0
  1
R=496.55'
 50
6.6135
  7
txt
 72
     4
 11
969040.289774
 21
7280152.260515
 31
0.0
210
0.0
220
0.0
230
1.0
  0
TEXT
  8
11
  6
CONTINUOUS
 62
     7
  5
303
 10
969005.801
 20
7280188.507
 30
0.0
 40
8.0
  1
R=552.55'
 50
7.6135
  7
txt
 72
     4
 11
969035.92639
 21
7280196.569386
 31
0.0
210
0.0
220
0.0
230
1.0
  0
TEXT
  8
11
  6
CONTINUOUS
 62
     7
  5
304
 10
969107.203
 20
7280208.355
 30
0.0
 40
8.0
  1
36.43'
 50
358.6135
  7
txt
 72
     4
 11
969126.947032
 21
7280211.878293
 31
0.0
210
0.0
220
0.0
230
1.0
  0
LINE
  8
6
  6
CONTINUOUS
 62
     7
  5
305
 10
971462.526
 20
7277983.938
 30
0.0
 11
971461.813
 21
7277963.656
 31
0.0
  0
LINE
  8
6
  6
CONTINUOUS
 62
     7
  5
306
 10
971461.813
 20
7277963.656
 30
0.0
 11
969417.284
 21
7278014.213
 31
0.0
  0
LINE
  8
6
  6
CONTINUOUS
 62
     7
  5
307
 10
973903.046
 20
7277921.291
 30
0.0
 11
971462.526
 21
7277983.938
 31
0.0
  0
LINE
  8
6
  6
CONTINUOUS
 62
     7
  5
308
 10
968785.979
 20
7278174.535
 30
0.0
 11
969360.81
 21
7278160.621
 31
0.0
  0
LINE
  8
6
  6
CONTINUOUS
 62
     7
  5
309
 10
969360.81
 20
7278160.621
 30
0.0
 11
969363.956
 21
7278290.584
 31
0.0
  0
LINE
  8
6
  6
CONTINUOUS
 62
     7
  5
30A
 10
969363.956
 20
7278290.584
 30
0.0
 11
968789.124
 21
7278304.497
 31
0.0
  0
LINE
  8
6
  6
CONTINUOUS
 62
     7
  5
30B
 10
968789.124
 20
7278304.497
 30
0.0
 11
968785.979
 21
7278174.535
 31
0.0
  0
LINE
  8
6
  6
CONTINUOUS
 62
     7
  5
30C
 10
968782.47
 20
7278029.578
 30
0.0
 11
969357.302
 21
7278015.664
 31
0.0
  0
LINE
  8
6
  6
CONTINUOUS
 62
     7
  5
30D
 10
969357.302
 20
7278015.664
 30
0.0
 11
969360.447
 21
7278145.626
 31
0.0
  0
LINE
  8
6
  6
CONTINUOUS
 62
     7
  5
30E
 10
969360.447
 20
7278145.626
 30
0.0
 11
968785.615
 21
7278159.54
 31
0.0
  0
LINE
  8
6
  6
CONTINUOUS
 62
     7
  5
30F
 10
968785.615
 20
7278159.54
 30
0.0
 11
968782.47
 21
7278029.578
 31
0.0
  0
LINE
  8
6
  6
CONTINUOUS
 62
     7
  5
310
 10
968790.334
 20
7278354.482
 30
0.0
 11
969365.166
 21
7278340.569
 31
0.0
  0
LINE
  8
6
  6
CONTINUOUS
 62
     7
  5
311
 10
969365.166
 20
7278340.569
 30
0.0
 11
969368.311
 21
7278470.531
 31
0.0
  0
LINE
  8
6
  6
CONTINUOUS
 62
     7
  5
312
 10
969368.311
 20
7278470.531
 30
0.0
 11
968793.48
 21
7278484.444
 31
0.0
  0
LINE
  8
6
  6
CONTINUOUS
 62
     7
  5
313
 10
968793.48
 20
7278484.444
 30
0.0
 11
968790.334
 21
7278354.482
 31
0.0
  0
LINE
  8
6
  6
CONTINUOUS
 62
     7
  5
314
 10
968793.843
 20
7278499.44
 30
0.0
 11
969368.674
 21
7278485.527
 31
0.0
  0
LINE
  8
6
  6
CONTINUOUS
 62
     7
  5
315
 10
969368.674
 20
7278485.527
 30
0.0
 11
969371.819
 21
7278615.489
 31
0.0
  0
LINE
  8
6
  6
CONTINUOUS
 62
     7
  5
316
 10
969371.819
 20
7278615.489
 30
0.0
 11
968796.989
 21
7278629.402
 31
0.0
  0
LINE
  8
6
  6
CONTINUOUS
 62
     7
  5
317
 10
968796.989
 20
7278629.402
 30
0.0
 11
968793.843
 21
7278499.44
 31
0.0
  0
LINE
  8
6
  6
CONTINUOUS
 62
     7
  5
318
 10
968887.917
 20
7282989.19
 30
0.0
 11
968815.001
 21
7280624.757
 31
0.0
  0
LINE
  8
6
  6
CONTINUOUS
 62
     7
  5
319
 10
969219.559
 20
7283225.025
 30
0.0
 11
974138.871
 21
7283113.89
 31
0.0
  0
TEXT
  8
19
  6
CONTINUOUS
 62
     1
  5
31A
 10
972312.141
 20
7277916.216
 30
0.0
 40
24.0
  1
E 4TH ST
 50
358.6135
  7
ROMANC
 72
     4
 11
972415.10429
 21
7277925.72742
 31
0.0
210
0.0
220
0.0
230
1.0
  0
LINE
  8
58
  6
DIVIDE
 62
   216
  5
31C
 10
968973.847
 20
7282423.609
 30
0.0
 11
969856.992
 21
7283243.708
 31
0.0
  0
LINE
  8
58
  6
DIVIDE
 62
   216
  5
31D
 10
968866.477
 20
7277987.532
 30
0.0
 11
968973.412
 21
7282405.643
 31
0.0
  0
ENDSEC
  0
EOF
