  0
SECTION
  2
HEADER
  9
$ACADVER
  1
AC1009
  9
$INSBASE
 10
0.0
 20
0.0
 30
0.0
  9
$EXTMIN
 10
968928.293
 20
7288386.76
 30
0.0
  9
$EXTMAX
 10
974378.689
 20
7293889.217
 30
0.0
  9
$LIMMIN
 10
0.0
 20
0.0
  9
$LIMMAX
 10
12.0
 20
9.0
  9
$ORTHOMODE
 70
     0
  9
$REGENMODE
 70
     1
  9
$FILLMODE
 70
     1
  9
$QTEXTMODE
 70
     0
  9
$MIRRTEXT
 70
     1
  9
$DRAGMODE
 70
     2
  9
$LTSCALE
 40
1.0
  9
$OSMODE
 70
     0
  9
$ATTMODE
 70
     1
  9
$TEXTSIZE
 40
0.2
  9
$TRACEWID
 40
0.05
  9
$TEXTSTYLE
  7
STANDARD
  9
$CLAYER
  8
0
  9
$CELTYPE
  6
CONTINUOUS
  9
$CECOLOR
 62
   256
  9
$DIMSCALE
 40
1.0
  9
$DIMASZ
 40
0.18
  9
$DIMEXO
 40
0.0625
  9
$DIMDLI
 40
0.38
  9
$DIMRND
 40
0.0
  9
$DIMDLE
 40
0.0
  9
$DIMEXE
 40
0.18
  9
$DIMTP
 40
0.0
  9
$DIMTM
 40
0.0
  9
$DIMTXT
 40
0.18
  9
$DIMCEN
 40
0.09
  9
$DIMTSZ
 40
0.0
  9
$DIMTOL
 70
     0
  9
$DIMLIM
 70
     0
  9
$DIMTIH
 70
     1
  9
$DIMTOH
 70
     1
  9
$DIMSE1
 70
     0
  9
$DIMSE2
 70
     0
  9
$DIMTAD
 70
     0
  9
$DIMZIN
 70
     0
  9
$DIMBLK
  1

  9
$DIMASO
 70
     1
  9
$DIMSHO
 70
     1
  9
$DIMPOST
  1

  9
$DIMAPOST
  1

  9
$DIMALT
 70
     0
  9
$DIMALTD
 70
     2
  9
$DIMALTF
 40
25.4
  9
$DIMLFAC
 40
1.0
  9
$DIMTOFL
 70
     0
  9
$DIMTVP
 40
0.0
  9
$DIMTIX
 70
     0
  9
$DIMSOXD
 70
     0
  9
$DIMSAH
 70
     0
  9
$DIMBLK1
  1

  9
$DIMBLK2
  1

  9
$DIMSTYLE
  2
STANDARD
  9
$DIMCLRD
 70
     0
  9
$DIMCLRE
 70
     0
  9
$DIMCLRT
 70
     0
  9
$DIMTFAC
 40
1.0
  9
$DIMGAP
 40
0.09
  9
$LUNITS
 70
     2
  9
$LUPREC
 70
     4
  9
$AXISMODE
 70
     0
  9
$AXISUNIT
 10
0.0
 20
0.0
  9
$SKETCHINC
 40
0.1
  9
$FILLETRAD
 40
0.0
  9
$AUNITS
 70
     0
  9
$AUPREC
 70
     0
  9
$MENU
  1
acad
  9
$ELEVATION
 40
0.0
  9
$PELEVATION
 40
0.0
  9
$THICKNESS
 40
0.0
  9
$LIMCHECK
 70
     0
  9
$BLIPMODE
 70
     1
  9
$CHAMFERA
 40
0.0
  9
$CHAMFERB
 40
0.0
  9
$SKPOLY
 70
     0
  9
$TDCREATE
 40
2453013.903333333
  9
$TDUPDATE
 40
2453013.903333333
  9
$TDINDWG
 40
0.0000000000
  9
$TDUSRTIMER
 40
0.0000000000
  9
$USRTIMER
 70
     1
  9
$ANGBASE
 50
0.0
  9
$ANGDIR
 70
     0
  9
$PDMODE
 70
     0
  9
$PDSIZE
 40
0.0
  9
$PLINEWID
 40
0.0
  9
$COORDS
 70
     0
  9
$SPLFRAME
 70
     0
  9
$SPLINETYPE
 70
     6
  9
$SPLINESEGS
 70
    10
  9
$ATTDIA
 70
     0
  9
$ATTREQ
 70
     1
  9
$HANDLING
 70
     1
  9
$HANDSEED
  5
6F
  9
$SURFTAB1
 70
     6
  9
$SURFTAB2
 70
     6
  9
$SURFTYPE
 70
     6
  9
$SURFU
 70
     6
  9
$SURFV
 70
     6
  9
$UCSNAME
  2

  9
$UCSORG
 10
0.0
 20
0.0
 30
0.0
  9
$UCSXDIR
 10
1.0
 20
0.0
 30
0.0
  9
$UCSYDIR
 10
0.0
 20
1.0
 30
0.0
  9
$PUCSNAME
  2

  9
$PUCSORG
 10
0.0
 20
0.0
 30
0.0
  9
$PUCSXDIR
 10
1.0
 20
0.0
 30
0.0
  9
$PUCSYDIR
 10
0.0
 20
1.0
 30
0.0
  9
$USERI1
 70
     0
  9
$USERI2
 70
     0
  9
$USERI3
 70
     0
  9
$USERI4
 70
     0
  9
$USERI5
 70
     0
  9
$USERR1
 40
0.0
  9
$USERR2
 40
0.0
  9
$USERR3
 40
0.0
  9
$USERR4
 40
0.0
  9
$USERR5
 40
0.0
  9
$WORLDVIEW
 70
     1
  9
$SHADEDGE
 70
     3
  9
$SHADEDIF
 70
    70
  9
$TILEMODE
 70
     1
  9
$MAXACTVP
 70
    16
  9
$PINSBASE
 10
0.0
 20
0.0
 30
0.0
  9
$PLIMCHECK
 70
     0
  9
$PEXTMIN
 10
-1.000000E+20
 20
-1.000000E+20
 30
-1.000000E+20
  9
$PEXTMAX
 10
-1.000000E+20
 20
-1.000000E+20
 30
-1.000000E+20
  9
$PLIMMIN
 10
0.0
 20
0.0
  9
$PLIMMAX
 10
12.0
 20
9.0
  9
$UNITMODE
 70
     0
  9
$VISRETAIN
 70
     0
  9
$PLINEGEN
 70
     1
  9
$PSLTSCALE
 70
     0
  9
$TREEDEPTH
 70
  3020
  9
$DWGCODEPAGE
  3
ansi_1252
  0
ENDSEC
  0
SECTION
  2
TABLES
  0
TABLE
  2
VPORT
 70
     1
  0
VPORT
  2
*ACTIVE
 70
     0
 10
0.0
 20
0.0
 11
1.0
 21
1.0
 12
0.0
 22
0.0
 13
0.0
 23
0.0
 14
0.0
 24
0.0
 15
0.0
 25
0.0
 16
0.0
 26
0.0
 36
1.0
 17
973409.695439
 27
7292517.596117
 37
0.0
 40
75.167
 41
1.214681
 42
50.0
 43
0.004
 44
0.0
 50
2.01374
 51
0.0
 71
     0
 72
   100
 73
     1
 74
     0
 75
     0
 76
     0
 77
     0
 78
     0
  0
ENDTAB
  0
TABLE
  2
LTYPE
 70
     7
  0
LTYPE
  2
CONTINUOUS
 70
     0
  3
Solid line
 72
    65
 73
     0
 40
0.0
  0
LTYPE
  2
DOT
 70
    64
  3
. . . . . . . . . . . . . . . . . . . . . . . . . . . . . . . . .
 72
    65
 73
     2
 40
0.25
 49
0.0
 49
-0.25
  0
LTYPE
  2
HIDDEN
 70
    64
  3
__ __ __ __ __ __ __ __ __ __ __ __ __ __ __ __ __ __ __ __ __ 
 72
    65
 73
     2
 40
0.375
 49
0.25
 49
-0.125
  0
LTYPE
  2
DASHED
 70
    64
  3
__ __ __ __ __ __ __ __ __ __ __ __ __ __ __ __ __ __ __ __ __
 72
    65
 73
     2
 40
0.75
 49
0.5
 49
-0.25
  0
LTYPE
  2
DASHDOT
 70
    64
  3
__ . __ . __ . __ . __ . __ . __ . __ . __ . __ . __ . __ . _
 72
    65
 73
     4
 40
1.0
 49
0.5
 49
-0.25
 49
0.0
 49
-0.25
  0
LTYPE
  2
DIVIDE
 70
    64
  3
____ . . ____ . . ____ . . ____ . . ____ . . ____ . . ____ . .
 72
    65
 73
     6
 40
1.25
 49
0.5
 49
-0.25
 49
0.0
 49
-0.25
 49
0.0
 49
-0.25
  0
LTYPE
  2
CENTER
 70
    64
  3
____ _ ____ _ ____ _ ____ _ ____ _ ____ _ ____ _ ____ _ ____ _
 72
    65
 73
     4
 40
2.0
 49
1.25
 49
-0.25
 49
0.25
 49
-0.25
  0
ENDTAB
  0
TABLE
  2
LAYER
 70
    12
  0
LAYER
  2
0
 70
     0
 62
     7
  6
CONTINUOUS
  0
LAYER
  2
CONSTRUCTION_CLASS
 70
     1
 62
     7
  6
CONTINUOUS
  0
LAYER
  2
PATTERN_CLASS
 70
     0
 62
     7
  6
CONTINUOUS
  0
LAYER
  2
6
 70
    64
 62
     7
  6
CONTINUOUS
  0
LAYER
  2
11
 70
    64
 62
     7
  6
CONTINUOUS
  0
LAYER
  2
19
 70
    64
 62
     7
  6
CONTINUOUS
  0
LAYER
  2
DEFPOINTS
 70
    64
 62
     7
  6
CONTINUOUS
  0
LAYER
  2
27
 70
    64
 62
     7
  6
CONTINUOUS
  0
LAYER
  2
1
 70
    64
 62
     7
  6
CONTINUOUS
  0
LAYER
  2
28
 70
    64
 62
     7
  6
CONTINUOUS
  0
LAYER
  2
58
 70
    64
 62
     7
  6
CONTINUOUS
  0
LAYER
  2
10
 70
    64
 62
     7
  6
CONTINUOUS
  0
ENDTAB
  0
TABLE
  2
STYLE
 70
     4
  0
STYLE
  2
STANDARD
 70
     0
 40
0.0
 41
1.0
 50
0.0
 71
     0
 42
0.0
  3
txt
  4

  0
STYLE
  2
ROMANS
 70
     0
 40
0.2
 41
1.0
 50
0.0
 71
     0
 42
0.2
  3
ROMANS
  4

  0
STYLE
  2
ROMANC
 70
     0
 40
0.2
 41
1.0
 50
0.0
 71
     0
 42
0.2
  3
ROMANC
  4

  0
STYLE
  2
txt
 70
     0
 40
0.2
 41
1.0
 50
0.0
 71
     0
 42
0.2
  3
TXT
  4

  0
ENDTAB
  0
TABLE
  2
VIEW
 70
     0
  0
ENDTAB
  0
TABLE
  2
UCS
 70
     0
  0
ENDTAB
  0
TABLE
  2
APPID
 70
     1
  0
APPID
  2
ACAD
 70
     0
  0
ENDTAB
  0
TABLE
  2
DIMSTYLE
 70
     2
  0
DIMSTYLE
  2
STANDARD
 70
     0
  3

  4

  5

  6

  7

 40
1.0
 41
0.18
 42
0.0625
 43
0.38
 44
0.18
 45
0.0
 46
0.0
 47
0.0
 48
0.0
140
0.18
141
0.09
142
0.0
143
25.4
144
1.0
145
0.0
146
1.0
147
0.09
 71
     0
 72
     0
 73
     1
 74
     1
 75
     0
 76
     0
 77
     0
 78
     0
170
     0
171
     2
172
     0
173
     0
174
     0
175
     0
176
     0
177
     0
178
     0
  0
DIMSTYLE
  2
MSADIM
 70
     0
  3

  4

  5

  6

  7

 40
1.0
 41
8.0
 42
4.0
 43
0.0
 44
4.0
 45
0.0
 46
0.0
 47
0.0
 48
0.0
140
8.0
141
4.0
142
0.0
143
25.4
144
1.0
145
4.0
146
1.0
147
4.0
 71
     0
 72
     0
 73
     1
 74
     1
 75
     1
 76
     1
 77
     0
 78
     2
170
     0
171
     2
172
     0
173
     0
174
     0
175
     0
176
     0
177
     0
178
     0
  0
ENDTAB
  0
ENDSEC
  0
SECTION
  2
BLOCKS
  0
BLOCK
  8
11
  6
CONTINUOUS
 62
     7
  5
3F
  2
*D0
 70
     1
 10
0.0
 20
0.0
 30
0.0
  3
*N0
  0
TEXT
  8
11
  6
CONTINUOUS
 62
     7
  5
40
 10
972179.531
 20
7291995.985
 30
0.0
 40
8.0
  1
S66%%d24'14"W
 50
23.595992
  7
ROMANS
 72
     1
 11
972215.608893
 21
7292020.473939
 31
0.0
210
0.0
220
0.0
230
1.0
 73
     3
  0
TEXT
  8
11
  6
CONTINUOUS
 62
     7
  5
41
 10
972185.526
 20
7292016.063
 30
0.0
 40
8.0
  1
5808.07'
 50
23.595992
  7
ROMANS
 72
     1
 11
972212.406489
 21
7292027.804558
 31
0.0
210
0.0
220
0.0
230
1.0
  0
ENDBLK
  8
11
  6
CONTINUOUS
 62
     7
  5
42
  0
BLOCK
  8
11
  6
CONTINUOUS
 62
     7
  5
45
  2
*D1
 70
     1
 10
0.0
 20
0.0
 30
0.0
  3
*N1
  0
TEXT
  8
11
  6
CONTINUOUS
 62
     7
  5
46
 10
972218.9
 20
7291904.057
 30
0.0
 40
8.0
  1
S66%%d24'14"W
 50
23.596003
  7
ROMANS
 72
     1
 11
972254.977888
 21
7291928.545946
 31
0.0
210
0.0
220
0.0
230
1.0
 73
     3
  0
TEXT
  8
11
  6
CONTINUOUS
 62
     7
  5
47
 10
972224.895
 20
7291924.135
 30
0.0
 40
8.0
  1
5808.07'
 50
23.596003
  7
ROMANS
 72
     1
 11
972251.775487
 21
7291935.876563
 31
0.0
210
0.0
220
0.0
230
1.0
  0
ENDBLK
  8
11
  6
CONTINUOUS
 62
     7
  5
48
  0
ENDSEC
  0
SECTION
  2
ENTITIES
  0
LINE
  8
6
  6
CONTINUOUS
 62
     7
  5
29
 10
974378.689
 20
7292957.202
 30
0.0
 11
968986.869
 21
7290721.723
 31
0.0
  0
LINE
  8
6
  6
CONTINUOUS
 62
     7
  5
2A
 10
974376.015
 20
7292859.393
 30
0.0
 11
968983.845
 21
7290609.397
 31
0.0
  0
LINE
  8
6
  6
CONTINUOUS
 62
     7
  5
2B
 10
969111.599
 20
7293799.394
 30
0.0
 11
974371.924
 21
7293671.611
 31
0.0
  0
TEXT
  8
11
  6
CONTINUOUS
 62
     7
  5
2E
 10
969193.466
 20
7290705.599
 30
0.0
 40
8.0
  1
100'
 50
110.796444
  7
ROMANS
210
0.0
220
0.0
230
1.0
  0
TEXT
  8
11
  6
CONTINUOUS
 62
     7
  5
2F
 10
970309.113
 20
7291127.892
 30
0.0
 40
8.0
  1
100'
 50
111.265069
  7
ROMANS
210
0.0
220
0.0
230
1.0
  0
TEXT
  8
11
  6
CONTINUOUS
 62
     7
  5
30
 10
971610.394
 20
7291689.987
 30
0.0
 40
8.0
  1
100'
 50
108.006111
  7
ROMANS
210
0.0
220
0.0
230
1.0
  0
TEXT
  8
11
  6
CONTINUOUS
 62
     7
  5
31
 10
972809.273
 20
7292216.305
 30
0.0
 40
8.0
  1
100'
 50
110.928372
  7
ROMANS
210
0.0
220
0.0
230
1.0
  0
TEXT
  8
11
  6
CONTINUOUS
 62
     7
  5
32
 10
974182.282
 20
7292816.08
 30
0.0
 40
8.0
  1
100'
 50
109.419297
  7
ROMANS
210
0.0
220
0.0
230
1.0
  0
TEXT
  8
19
  6
CONTINUOUS
 62
     1
  5
35
 10
969665.668
 20
7293812.207
 30
0.0
 40
24.0
  1
F.M.  2641
 50
358.9745
  7
ROMANC
 72
     4
 11
969761.297484
 21
7293822.497129
 31
0.0
210
0.0
220
0.0
230
1.0
  0
TEXT
  8
19
  6
CONTINUOUS
 62
     1
  5
36
 10
971539.852
 20
7293757.561
 30
0.0
 40
24.0
  1
F.M.  2641
 50
358.9745
  7
ROMANC
 72
     4
 11
971635.481484
 21
7293767.851129
 31
0.0
210
0.0
220
0.0
230
1.0
  0
TEXT
  8
19
  6
CONTINUOUS
 62
     1
  5
37
 10
973423.629
 20
7293709.853
 30
0.0
 40
24.0
  1
F.M.  2641
 50
358.9745
  7
ROMANC
 72
     4
 11
973519.258484
 21
7293720.143129
 31
0.0
210
0.0
220
0.0
230
1.0
  0
TEXT
  8
11
  6
CONTINUOUS
 62
     7
  5
38
 10
969320.445
 20
7293701.75
 30
0.0
 40
8.0
  1
100'
 50
88.9745
  7
ROMANS
 72
     4
 11
969316.684267
 21
7293715.152454
 31
0.0
210
0.0
220
0.0
230
1.0
  0
TEXT
  8
11
  6
CONTINUOUS
 62
     7
  5
39
 10
970897.7
 20
7293673.516
 30
0.0
 40
8.0
  1
100'
 50
88.9745
  7
ROMANS
 72
     4
 11
970893.939267
 21
7293686.918454
 31
0.0
210
0.0
220
0.0
230
1.0
  0
TEXT
  8
11
  6
CONTINUOUS
 62
     7
  5
3A
 10
972827.261
 20
7293638.977
 30
0.0
 40
8.0
  1
100'
 50
88.9745
  7
ROMANS
 72
     4
 11
972823.500267
 21
7293652.379454
 31
0.0
210
0.0
220
0.0
230
1.0
  0
TEXT
  8
11
  6
CONTINUOUS
 62
     7
  5
3B
 10
974179.37
 20
7293614.774
 30
0.0
 40
8.0
  1
100'
 50
88.9745
  7
ROMANS
 72
     4
 11
974175.609267
 21
7293628.176454
 31
0.0
210
0.0
220
0.0
230
1.0
  0
INSERT
  8
11
  6
CONTINUOUS
 62
     7
  5
43
  2
*D0
 10
974377.984
 20
7292969.377
 30
0.0
 70
     0
 71
     0
  0
INSERT
  8
11
  6
CONTINUOUS
 62
     7
  5
49
  2
*D1
 10
974376.015
 20
7292859.393
 30
0.0
 70
     0
 71
     0
  0
LINE
  8
27
  6
CONTINUOUS
 62
    32
  5
4B
 10
974377.116
 20
7292890.713
 30
0.0
 11
968985.042
 21
7290653.849
 31
0.0
  0
POLYLINE
  8
1
  6
HIDDEN
 62
   253
  5
4D
 66
     1
 10
0.0
 20
0.0
 30
0.0
  0
VERTEX
  8
1
  6
HIDDEN
 62
   253
  5
4E
 10
974228.189
 20
7288386.76
 30
0.0
  0
VERTEX
  8
1
  6
HIDDEN
 62
   253
  5
4F
 10
974376.904
 20
7293741.796
 30
0.0
  0
VERTEX
  8
1
  6
HIDDEN
 62
   253
  5
50
 10
969072.147
 20
7293889.217
 30
0.0
  0
VERTEX
  8
1
  6
HIDDEN
 62
   253
  5
51
 10
968928.293
 20
7288545.999
 30
0.0
  0
VERTEX
  8
1
  6
HIDDEN
 62
   253
  5
52
 10
974228.189
 20
7288386.76
 30
0.0
  0
SEQEND
  8
1
  6
HIDDEN
 62
   253
  5
53
  0
TEXT
  8
19
  6
CONTINUOUS
 62
     1
  5
54
 10
974237.934
 20
7290113.672
 30
0.0
 40
24.0
  1
WOOD AVE
 50
89.4459
  7
ROMANC
 72
     4
 11
974226.972539
 21
7290221.11503
 31
0.0
210
0.0
220
0.0
230
1.0
  0
TEXT
  8
19
  6
CONTINUOUS
 62
     1
  5
55
 10
969122.369
 20
7291475.12
 30
0.0
 40
24.0
  1
OLIVE AVE
 50
88.9745
  7
ROMANC
 72
     4
 11
969112.35952
 21
7291586.427972
 31
0.0
210
0.0
220
0.0
230
1.0
  0
TEXT
  8
19
  6
CONTINUOUS
 62
     1
  5
56
 10
969157.234
 20
7293422.835
 30
0.0
 40
24.0
  1
OLIVE AVE
 50
88.9745
  7
ROMANC
 72
     4
 11
969147.22452
 21
7293534.142972
 31
0.0
210
0.0
220
0.0
230
1.0
  0
TEXT
  8
19
  6
CONTINUOUS
 62
     1
  5
57
 10
970513.585
 20
7288487.6
 30
0.0
 40
24.0
  1
URSULINE ST
 50
358.9745
  7
ROMANC
 72
     4
 11
970651.532704
 21
7288497.132622
 31
0.0
210
0.0
220
0.0
230
1.0
  0
TEXT
  8
19
  6
CONTINUOUS
 62
     1
  5
58
 10
972644.974
 20
7288422.152
 30
0.0
 40
24.0
  1
URSULINE ST
 50
358.9745
  7
ROMANC
 72
     4
 11
972782.921704
 21
7288431.684622
 31
0.0
210
0.0
220
0.0
230
1.0
  0
TEXT
  8
19
  6
CONTINUOUS
 62
     1
  5
59
 10
974278.087
 20
7292696.519
 30
0.0
 40
24.0
  1
WOOD AVE
 50
89.4459
  7
ROMANC
 72
     4
 11
974267.125539
 21
7292803.96203
 31
0.0
210
0.0
220
0.0
230
1.0
  0
TEXT
  8
28
  6
CONTINUOUS
 62
    32
  5
5C
 10
969255.421
 20
7290777.093
 30
0.0
 40
24.0
  1
AT & SF RAILROAD
 50
22.0
  7
txt
 72
     4
 11
969417.632451
 21
7290855.573097
 31
0.0
210
0.0
220
0.0
230
1.0
  0
TEXT
  8
28
  6
CONTINUOUS
 62
    32
  5
5D
 10
973296.295
 20
7292451.795
 30
0.0
 40
24.0
  1
AT & SF RAILROAD
 50
22.0
  7
txt
 72
     4
 11
973458.506451
 21
7292530.275097
 31
0.0
210
0.0
220
0.0
230
1.0
  0
LINE
  8
6
  6
CONTINUOUS
 62
     7
  5
5E
 10
974371.924
 20
7293671.611
 30
0.0
 11
974354.388
 21
7292947.049
 31
0.0
  0
LINE
  8
6
  6
CONTINUOUS
 62
     7
  5
5F
 10
974352.013
 20
7292848.909
 30
0.0
 11
974244.615
 21
7288411.277
 31
0.0
  0
LINE
  8
6
  6
CONTINUOUS
 62
     7
  5
60
 10
974244.615
 20
7288411.277
 30
0.0
 11
970422.524
 21
7288512.066
 31
0.0
  0
POLYLINE
  8
58
  6
DIVIDE
 62
   216
  5
62
 66
     1
 10
0.0
 20
0.0
 30
0.0
  0
VERTEX
  8
58
  6
DIVIDE
 62
   216
  5
63
 10
974263.537
 20
7289051.697
 30
0.0
  0
VERTEX
  8
58
  6
DIVIDE
 62
   216
  5
64
 10
969134.358
 20
7289143.51
 30
0.0
  0
VERTEX
  8
58
  6
DIVIDE
 62
   216
  5
65
 10
969219.234
 20
7293885.129
 30
0.0
  0
SEQEND
  8
58
  6
DIVIDE
 62
   216
  5
66
  0
TEXT
  8
28
  6
CONTINUOUS
 62
    32
  5
67
 10
971667.607
 20
7291779.921
 30
0.0
 40
24.0
  1
AT & SF RAILROAD
 50
22.0
  7
txt
 72
     4
 11
971829.818451
 21
7291858.401097
 31
0.0
210
0.0
220
0.0
230
1.0
  0
TEXT
  8
10
  6
CONTINUOUS
 62
   134
  5
69
 10
970830.415
 20
7292772.693
 30
0.0
 40
13.999
  1
UNSUBDIVIDED
 50
358.9745
  7
ROMANS
 11
970830.665546
 21
7292786.689758
 31
0.0
210
0.0
220
0.0
230
1.0
 73
     3
  0
TEXT
  8
10
  6
CONTINUOUS
 62
   134
  5
6A
 10
972378.863
 20
7290552.528
 30
0.0
 40
13.999
  1
UNSUBDIVIDED
 50
358.9745
  7
ROMANS
 11
972379.113546
 21
7290566.524758
 31
0.0
210
0.0
220
0.0
230
1.0
 73
     3
  0
TEXT
  8
10
  6
CONTINUOUS
 62
   134
  5
6B
 10
971668.018
 20
7288778.408
 30
0.0
 40
13.999
  1
UNSUBDIVIDED
 50
358.9745
  7
ROMANS
 11
971668.268546
 21
7288792.404758
 31
0.0
210
0.0
220
0.0
230
1.0
 73
     3
  0
ENDSEC
  0
EOF
