  0
SECTION
  2
HEADER
  9
$ACADVER
  1
AC1009
  9
$INSBASE
 10
0.0
 20
0.0
 30
0.0
  9
$EXTMIN
 10
958641.803
 20
7299174.305
 30
0.0
  9
$EXTMAX
 10
964085.705
 20
7304667.735
 30
0.0
  9
$LIMMIN
 10
0.0
 20
0.0
  9
$LIMMAX
 10
12.0
 20
9.0
  9
$ORTHOMODE
 70
     0
  9
$REGENMODE
 70
     1
  9
$FILLMODE
 70
     1
  9
$QTEXTMODE
 70
     0
  9
$MIRRTEXT
 70
     1
  9
$DRAGMODE
 70
     2
  9
$LTSCALE
 40
1.0
  9
$OSMODE
 70
     0
  9
$ATTMODE
 70
     1
  9
$TEXTSIZE
 40
0.2
  9
$TRACEWID
 40
0.05
  9
$TEXTSTYLE
  7
STANDARD
  9
$CLAYER
  8
0
  9
$CELTYPE
  6
CONTINUOUS
  9
$CECOLOR
 62
   256
  9
$DIMSCALE
 40
1.0
  9
$DIMASZ
 40
0.18
  9
$DIMEXO
 40
0.0625
  9
$DIMDLI
 40
0.38
  9
$DIMRND
 40
0.0
  9
$DIMDLE
 40
0.0
  9
$DIMEXE
 40
0.18
  9
$DIMTP
 40
0.0
  9
$DIMTM
 40
0.0
  9
$DIMTXT
 40
0.18
  9
$DIMCEN
 40
0.09
  9
$DIMTSZ
 40
0.0
  9
$DIMTOL
 70
     0
  9
$DIMLIM
 70
     0
  9
$DIMTIH
 70
     1
  9
$DIMTOH
 70
     1
  9
$DIMSE1
 70
     0
  9
$DIMSE2
 70
     0
  9
$DIMTAD
 70
     0
  9
$DIMZIN
 70
     0
  9
$DIMBLK
  1

  9
$DIMASO
 70
     1
  9
$DIMSHO
 70
     1
  9
$DIMPOST
  1

  9
$DIMAPOST
  1

  9
$DIMALT
 70
     0
  9
$DIMALTD
 70
     2
  9
$DIMALTF
 40
25.4
  9
$DIMLFAC
 40
1.0
  9
$DIMTOFL
 70
     0
  9
$DIMTVP
 40
0.0
  9
$DIMTIX
 70
     0
  9
$DIMSOXD
 70
     0
  9
$DIMSAH
 70
     0
  9
$DIMBLK1
  1

  9
$DIMBLK2
  1

  9
$DIMSTYLE
  2
STANDARD
  9
$DIMCLRD
 70
     0
  9
$DIMCLRE
 70
     0
  9
$DIMCLRT
 70
     0
  9
$DIMTFAC
 40
1.0
  9
$DIMGAP
 40
0.09
  9
$LUNITS
 70
     2
  9
$LUPREC
 70
     4
  9
$AXISMODE
 70
     0
  9
$AXISUNIT
 10
0.0
 20
0.0
  9
$SKETCHINC
 40
0.1
  9
$FILLETRAD
 40
0.0
  9
$AUNITS
 70
     0
  9
$AUPREC
 70
     0
  9
$MENU
  1
acad
  9
$ELEVATION
 40
0.0
  9
$PELEVATION
 40
0.0
  9
$THICKNESS
 40
0.0
  9
$LIMCHECK
 70
     0
  9
$BLIPMODE
 70
     1
  9
$CHAMFERA
 40
0.0
  9
$CHAMFERB
 40
0.0
  9
$SKPOLY
 70
     0
  9
$TDCREATE
 40
2453013.903217593
  9
$TDUPDATE
 40
2453013.903217593
  9
$TDINDWG
 40
0.0000000000
  9
$TDUSRTIMER
 40
0.0000000000
  9
$USRTIMER
 70
     1
  9
$ANGBASE
 50
0.0
  9
$ANGDIR
 70
     0
  9
$PDMODE
 70
     0
  9
$PDSIZE
 40
0.0
  9
$PLINEWID
 40
0.0
  9
$COORDS
 70
     0
  9
$SPLFRAME
 70
     0
  9
$SPLINETYPE
 70
     6
  9
$SPLINESEGS
 70
    10
  9
$ATTDIA
 70
     0
  9
$ATTREQ
 70
     1
  9
$HANDLING
 70
     1
  9
$HANDSEED
  5
6E3
  9
$SURFTAB1
 70
     6
  9
$SURFTAB2
 70
     6
  9
$SURFTYPE
 70
     6
  9
$SURFU
 70
     6
  9
$SURFV
 70
     6
  9
$UCSNAME
  2

  9
$UCSORG
 10
0.0
 20
0.0
 30
0.0
  9
$UCSXDIR
 10
1.0
 20
0.0
 30
0.0
  9
$UCSYDIR
 10
0.0
 20
1.0
 30
0.0
  9
$PUCSNAME
  2

  9
$PUCSORG
 10
0.0
 20
0.0
 30
0.0
  9
$PUCSXDIR
 10
1.0
 20
0.0
 30
0.0
  9
$PUCSYDIR
 10
0.0
 20
1.0
 30
0.0
  9
$USERI1
 70
     0
  9
$USERI2
 70
     0
  9
$USERI3
 70
     0
  9
$USERI4
 70
     0
  9
$USERI5
 70
     0
  9
$USERR1
 40
0.0
  9
$USERR2
 40
0.0
  9
$USERR3
 40
0.0
  9
$USERR4
 40
0.0
  9
$USERR5
 40
0.0
  9
$WORLDVIEW
 70
     1
  9
$SHADEDGE
 70
     3
  9
$SHADEDIF
 70
    70
  9
$TILEMODE
 70
     1
  9
$MAXACTVP
 70
    16
  9
$PINSBASE
 10
0.0
 20
0.0
 30
0.0
  9
$PLIMCHECK
 70
     0
  9
$PEXTMIN
 10
-1.000000E+20
 20
-1.000000E+20
 30
-1.000000E+20
  9
$PEXTMAX
 10
-1.000000E+20
 20
-1.000000E+20
 30
-1.000000E+20
  9
$PLIMMIN
 10
0.0
 20
0.0
  9
$PLIMMAX
 10
12.0
 20
9.0
  9
$UNITMODE
 70
     0
  9
$VISRETAIN
 70
     0
  9
$PLINEGEN
 70
     1
  9
$PSLTSCALE
 70
     0
  9
$TREEDEPTH
 70
  3020
  9
$DWGCODEPAGE
  3
ansi_1252
  0
ENDSEC
  0
SECTION
  2
TABLES
  0
TABLE
  2
VPORT
 70
     1
  0
VPORT
  2
*ACTIVE
 70
     0
 10
0.0
 20
0.0
 11
1.0
 21
1.0
 12
0.0
 22
0.0
 13
0.0
 23
0.0
 14
0.0
 24
0.0
 15
0.0
 25
0.0
 16
0.0
 26
0.0
 36
1.0
 17
961130.651074
 27
7301858.314751
 37
0.0
 40
5573.639
 41
1.2213
 42
50.0
 43
0.004
 44
0.0
 50
1.681086
 51
0.0
 71
     0
 72
   100
 73
     1
 74
     0
 75
     0
 76
     0
 77
     0
 78
     0
  0
ENDTAB
  0
TABLE
  2
LTYPE
 70
     7
  0
LTYPE
  2
CONTINUOUS
 70
     0
  3
Solid line
 72
    65
 73
     0
 40
0.0
  0
LTYPE
  2
DOT
 70
    64
  3
. . . . . . . . . . . . . . . . . . . . . . . . . . . . . . . . .
 72
    65
 73
     2
 40
0.25
 49
0.0
 49
-0.25
  0
LTYPE
  2
HIDDEN
 70
    64
  3
__ __ __ __ __ __ __ __ __ __ __ __ __ __ __ __ __ __ __ __ __ 
 72
    65
 73
     2
 40
0.375
 49
0.25
 49
-0.125
  0
LTYPE
  2
DASHED
 70
    64
  3
__ __ __ __ __ __ __ __ __ __ __ __ __ __ __ __ __ __ __ __ __
 72
    65
 73
     2
 40
0.75
 49
0.5
 49
-0.25
  0
LTYPE
  2
DASHDOT
 70
    64
  3
__ . __ . __ . __ . __ . __ . __ . __ . __ . __ . __ . __ . _
 72
    65
 73
     4
 40
1.0
 49
0.5
 49
-0.25
 49
0.0
 49
-0.25
  0
LTYPE
  2
DIVIDE
 70
    64
  3
____ . . ____ . . ____ . . ____ . . ____ . . ____ . . ____ . .
 72
    65
 73
     6
 40
1.25
 49
0.5
 49
-0.25
 49
0.0
 49
-0.25
 49
0.0
 49
-0.25
  0
LTYPE
  2
CENTER
 70
    64
  3
____ _ ____ _ ____ _ ____ _ ____ _ ____ _ ____ _ ____ _ ____ _
 72
    65
 73
     4
 40
2.0
 49
1.25
 49
-0.25
 49
0.25
 49
-0.25
  0
ENDTAB
  0
TABLE
  2
LAYER
 70
     8
  0
LAYER
  2
0
 70
    64
 62
     7
  6
CONTINUOUS
  0
LAYER
  2
CONSTRUCTION_CLASS
 70
     1
 62
     7
  6
CONTINUOUS
  0
LAYER
  2
PATTERN_CLASS
 70
     0
 62
     7
  6
CONTINUOUS
  0
LAYER
  2
6
 70
    64
 62
     7
  6
CONTINUOUS
  0
LAYER
  2
DEFPOINTS
 70
    64
 62
     7
  6
CONTINUOUS
  0
LAYER
  2
1
 70
    64
 62
     7
  6
CONTINUOUS
  0
LAYER
  2
19
 70
    64
 62
     7
  6
CONTINUOUS
  0
LAYER
  2
58
 70
    64
 62
     7
  6
CONTINUOUS
  0
ENDTAB
  0
TABLE
  2
STYLE
 70
     4
  0
STYLE
  2
STANDARD
 70
     0
 40
0.0
 41
1.0
 50
0.0
 71
     0
 42
0.0
  3
txt
  4

  0
STYLE
  2
MONOTXT
 70
     0
 40
0.2
 41
1.0
 50
0.0
 71
     0
 42
0.2
  3
MONOTXT
  4

  0
STYLE
  2
ROMANC
 70
     0
 40
0.2
 41
1.0
 50
0.0
 71
     0
 42
0.2
  3
ROMANC
  4

  0
STYLE
  2
ROMANS
 70
     0
 40
0.2
 41
1.0
 50
0.0
 71
     0
 42
0.2
  3
ROMANS
  4

  0
ENDTAB
  0
TABLE
  2
VIEW
 70
     0
  0
ENDTAB
  0
TABLE
  2
UCS
 70
     0
  0
ENDTAB
  0
TABLE
  2
APPID
 70
     1
  0
APPID
  2
ACAD
 70
     0
  0
ENDTAB
  0
TABLE
  2
DIMSTYLE
 70
     2
  0
DIMSTYLE
  2
STANDARD
 70
     0
  3

  4

  5

  6

  7

 40
1.0
 41
0.18
 42
0.0625
 43
0.38
 44
0.18
 45
0.0
 46
0.0
 47
0.0
 48
0.0
140
0.18
141
0.09
142
0.0
143
25.4
144
1.0
145
0.0
146
1.0
147
0.09
 71
     0
 72
     0
 73
     1
 74
     1
 75
     0
 76
     0
 77
     0
 78
     0
170
     0
171
     2
172
     0
173
     0
174
     0
175
     0
176
     0
177
     0
178
     0
  0
DIMSTYLE
  2
MSADIM
 70
     0
  3

  4

  5

  6

  7

 40
1.0
 41
8.0
 42
4.0
 43
0.0
 44
4.0
 45
0.0
 46
0.0
 47
0.0
 48
0.0
140
8.0
141
4.0
142
0.0
143
25.4
144
1.0
145
4.0
146
1.0
147
4.0
 71
     0
 72
     0
 73
     1
 74
     1
 75
     1
 76
     1
 77
     0
 78
     2
170
     0
171
     2
172
     0
173
     1
174
     0
175
     0
176
     0
177
     0
178
     0
  0
ENDTAB
  0
ENDSEC
  0
SECTION
  2
BLOCKS
  0
BLOCK
  8
0
  6
CONTINUOUS
 62
     7
  5
4CF
  2
*D0
 70
     1
 10
0.0
 20
0.0
 30
0.0
  3
*N0
  0
POLYLINE
  8
0
  6
CONTINUOUS
 62
     7
  5
4D0
 66
     1
 10
0.0
 20
0.0
 30
0.0
  0
VERTEX
  8
0
  6
CONTINUOUS
 62
     7
  5
4D1
 10
961926.298
 20
7302951.493
 30
0.0
  0
VERTEX
  8
0
  6
CONTINUOUS
 62
     7
  5
4D2
 10
961923.455
 20
7302959.234
 30
0.0
  0
VERTEX
  8
0
  6
CONTINUOUS
 62
     7
  5
4D3
 10
961929.606
 20
7302953.742
 30
0.0
  0
SEQEND
  8
0
  6
CONTINUOUS
 62
     7
  5
4D4
  0
LINE
  8
0
  6
CONTINUOUS
 62
     7
  5
4D5
 10
961923.455
 20
7302959.234
 30
0.0
 11
961948.249
 21
7302922.751
 31
0.0
  0
LINE
  8
0
  6
CONTINUOUS
 62
     7
  5
4D6
 10
961948.249
 20
7302922.751
 30
0.0
 11
961964.242
 21
7302922.282
 31
0.0
  0
TEXT
  8
0
  6
CONTINUOUS
 62
     7
  5
4D7
 10
961968.123
 20
7302918.166
 30
0.0
 40
8.0
  1
90'
 50
358.318914
  7
ROMANS
 11
961968.240345
 21
7302922.164278
 31
0.0
210
0.0
220
0.0
230
1.0
 73
     2
  0
ENDBLK
  8
0
  6
CONTINUOUS
 62
     7
  5
4D8
  0
BLOCK
  8
0
  6
CONTINUOUS
 62
     7
  5
4DB
  2
*D1
 70
     1
 10
0.0
 20
0.0
 30
0.0
  3
*N1
  0
POLYLINE
  8
0
  6
CONTINUOUS
 62
     7
  5
4DC
 66
     1
 10
0.0
 20
0.0
 30
0.0
  0
VERTEX
  8
0
  6
CONTINUOUS
 62
     7
  5
4DD
 10
961873.727
 20
7303046.37
 30
0.0
  0
VERTEX
  8
0
  6
CONTINUOUS
 62
     7
  5
4DE
 10
961876.503
 20
7303038.605
 30
0.0
  0
VERTEX
  8
0
  6
CONTINUOUS
 62
     7
  5
4DF
 10
961870.399
 20
7303044.15
 30
0.0
  0
SEQEND
  8
0
  6
CONTINUOUS
 62
     7
  5
4E0
  0
LINE
  8
0
  6
CONTINUOUS
 62
     7
  5
4E1
 10
961876.503
 20
7303038.605
 30
0.0
 11
961857.15
 21
7303067.613
 31
0.0
  0
ENDBLK
  8
0
  6
CONTINUOUS
 62
     7
  5
4E2
  0
BLOCK
  8
0
  6
CONTINUOUS
 62
     7
  5
4E5
  2
*D2
 70
     1
 10
0.0
 20
0.0
 30
0.0
  3
*N2
  0
POLYLINE
  8
0
  6
CONTINUOUS
 62
     7
  5
4E6
 66
     1
 10
0.0
 20
0.0
 30
0.0
  0
VERTEX
  8
0
  6
CONTINUOUS
 62
     7
  5
4E7
 10
963707.064
 20
7303251.763
 30
0.0
  0
VERTEX
  8
0
  6
CONTINUOUS
 62
     7
  5
4E8
 10
963699.131
 20
7303254.014
 30
0.0
  0
VERTEX
  8
0
  6
CONTINUOUS
 62
     7
  5
4E9
 10
963707.19
 20
7303255.761
 30
0.0
  0
SEQEND
  8
0
  6
CONTINUOUS
 62
     7
  5
4EA
  0
LINE
  8
0
  6
CONTINUOUS
 62
     7
  5
4EB
 10
963699.131
 20
7303254.014
 30
0.0
 11
963781.746
 21
7303251.407
 31
0.0
  0
ENDBLK
  8
0
  6
CONTINUOUS
 62
     7
  5
4EC
  0
BLOCK
  8
0
  6
CONTINUOUS
 62
     7
  5
4EF
  2
*D3
 70
     1
 10
0.0
 20
0.0
 30
0.0
  3
*N3
  0
POLYLINE
  8
0
  6
CONTINUOUS
 62
     7
  5
4F0
 66
     1
 10
0.0
 20
0.0
 30
0.0
  0
VERTEX
  8
0
  6
CONTINUOUS
 62
     7
  5
4F1
 10
963600.483
 20
7303259.127
 30
0.0
  0
VERTEX
  8
0
  6
CONTINUOUS
 62
     7
  5
4F2
 10
963608.416
 20
7303256.876
 30
0.0
  0
VERTEX
  8
0
  6
CONTINUOUS
 62
     7
  5
4F3
 10
963600.357
 20
7303255.129
 30
0.0
  0
SEQEND
  8
0
  6
CONTINUOUS
 62
     7
  5
4F4
  0
LINE
  8
0
  6
CONTINUOUS
 62
     7
  5
4F5
 10
963608.416
 20
7303256.876
 30
0.0
 11
963576.018
 21
7303257.899
 31
0.0
  0
LINE
  8
0
  6
CONTINUOUS
 62
     7
  5
4F6
 10
963576.018
 20
7303257.899
 30
0.0
 11
963560.025
 21
7303258.368
 31
0.0
  0
TEXT
  8
0
  6
CONTINUOUS
 62
     7
  5
4F7
 10
963537.251
 20
7303255.035
 30
0.0
 40
8.0
  1
90'
 50
358.318914
  7
ROMANS
 11
963537.368345
 21
7303259.033278
 31
0.0
210
0.0
220
0.0
230
1.0
 73
     2
  0
ENDBLK
  8
0
  6
CONTINUOUS
 62
     7
  5
4F8
  0
BLOCK
  8
0
  6
CONTINUOUS
 62
     7
  5
4FB
  2
*D4
 70
     1
 10
0.0
 20
0.0
 30
0.0
  3
*N4
  0
POLYLINE
  8
0
  6
CONTINUOUS
 62
     7
  5
4FC
 66
     1
 10
0.0
 20
0.0
 30
0.0
  0
VERTEX
  8
0
  6
CONTINUOUS
 62
     7
  5
4FD
 10
962551.93
 20
7303441.237
 30
0.0
  0
VERTEX
  8
0
  6
CONTINUOUS
 62
     7
  5
4FE
 10
962554.181
 20
7303449.17
 30
0.0
  0
VERTEX
  8
0
  6
CONTINUOUS
 62
     7
  5
4FF
 10
962555.928
 20
7303441.111
 30
0.0
  0
SEQEND
  8
0
  6
CONTINUOUS
 62
     7
  5
500
  0
LINE
  8
0
  6
CONTINUOUS
 62
     7
  5
501
 10
962554.181
 20
7303449.17
 30
0.0
 11
962552.033
 21
7303381.084
 31
0.0
  0
ENDBLK
  8
0
  6
CONTINUOUS
 62
     7
  5
502
  0
BLOCK
  8
0
  6
CONTINUOUS
 62
     7
  5
505
  2
*D5
 70
     1
 10
0.0
 20
0.0
 30
0.0
  3
*N5
  0
POLYLINE
  8
0
  6
CONTINUOUS
 62
     7
  5
506
 66
     1
 10
0.0
 20
0.0
 30
0.0
  0
VERTEX
  8
0
  6
CONTINUOUS
 62
     7
  5
507
 10
962557.9
 20
7303606.345
 30
0.0
  0
VERTEX
  8
0
  6
CONTINUOUS
 62
     7
  5
508
 10
962555.649
 20
7303598.412
 30
0.0
  0
VERTEX
  8
0
  6
CONTINUOUS
 62
     7
  5
509
 10
962553.902
 20
7303606.471
 30
0.0
  0
SEQEND
  8
0
  6
CONTINUOUS
 62
     7
  5
50A
  0
LINE
  8
0
  6
CONTINUOUS
 62
     7
  5
50B
 10
962555.649
 20
7303598.412
 30
0.0
 11
962558.206
 21
7303679.467
 31
0.0
  0
LINE
  8
0
  6
CONTINUOUS
 62
     7
  5
50C
 10
962558.206
 20
7303679.467
 30
0.0
 11
962574.199
 21
7303678.998
 31
0.0
  0
TEXT
  8
0
  6
CONTINUOUS
 62
     7
  5
50D
 10
962578.08
 20
7303674.882
 30
0.0
 40
8.0
  1
150'
 50
358.318914
  7
ROMANS
 11
962578.197345
 21
7303678.880278
 31
0.0
210
0.0
220
0.0
230
1.0
 73
     2
  0
ENDBLK
  8
0
  6
CONTINUOUS
 62
     7
  5
50E
  0
BLOCK
  8
0
  6
CONTINUOUS
 62
     7
  5
511
  2
*D6
 70
     1
 10
0.0
 20
0.0
 30
0.0
  3
*N6
  0
POLYLINE
  8
0
  6
CONTINUOUS
 62
     7
  5
512
 66
     1
 10
0.0
 20
0.0
 30
0.0
  0
VERTEX
  8
0
  6
CONTINUOUS
 62
     7
  5
513
 10
963247.129
 20
7303146.465
 30
0.0
  0
VERTEX
  8
0
  6
CONTINUOUS
 62
     7
  5
514
 10
963244.878
 20
7303138.532
 30
0.0
  0
VERTEX
  8
0
  6
CONTINUOUS
 62
     7
  5
515
 10
963243.131
 20
7303146.591
 30
0.0
  0
SEQEND
  8
0
  6
CONTINUOUS
 62
     7
  5
516
  0
LINE
  8
0
  6
CONTINUOUS
 62
     7
  5
517
 10
963244.878
 20
7303138.532
 30
0.0
 11
963247.129
 21
7303209.861
 31
0.0
  0
LINE
  8
0
  6
CONTINUOUS
 62
     7
  5
518
 10
963247.129
 20
7303209.861
 30
0.0
 11
963263.122
 21
7303209.392
 31
0.0
  0
TEXT
  8
0
  6
CONTINUOUS
 62
     7
  5
519
 10
963267.003
 20
7303205.276
 30
0.0
 40
8.0
  1
75'
 50
358.318914
  7
ROMANS
 11
963267.120345
 21
7303209.274278
 31
0.0
210
0.0
220
0.0
230
1.0
 73
     2
  0
ENDBLK
  8
0
  6
CONTINUOUS
 62
     7
  5
51A
  0
BLOCK
  8
0
  6
CONTINUOUS
 62
     7
  5
51D
  2
*D7
 70
     1
 10
0.0
 20
0.0
 30
0.0
  3
*N7
  0
POLYLINE
  8
0
  6
CONTINUOUS
 62
     7
  5
51E
 66
     1
 10
0.0
 20
0.0
 30
0.0
  0
VERTEX
  8
0
  6
CONTINUOUS
 62
     7
  5
51F
 10
962382.402
 20
7302875.177
 30
0.0
  0
VERTEX
  8
0
  6
CONTINUOUS
 62
     7
  5
520
 10
962380.151
 20
7302867.244
 30
0.0
  0
VERTEX
  8
0
  6
CONTINUOUS
 62
     7
  5
521
 10
962378.404
 20
7302875.303
 30
0.0
  0
SEQEND
  8
0
  6
CONTINUOUS
 62
     7
  5
522
  0
LINE
  8
0
  6
CONTINUOUS
 62
     7
  5
523
 10
962380.151
 20
7302867.244
 30
0.0
 11
962382.197
 21
7302932.087
 31
0.0
  0
ENDBLK
  8
0
  6
CONTINUOUS
 62
     7
  5
524
  0
BLOCK
  8
0
  6
CONTINUOUS
 62
     7
  5
527
  2
*D8
 70
     1
 10
0.0
 20
0.0
 30
0.0
  3
*N8
  0
POLYLINE
  8
0
  6
CONTINUOUS
 62
     7
  5
528
 66
     1
 10
0.0
 20
0.0
 30
0.0
  0
VERTEX
  8
0
  6
CONTINUOUS
 62
     7
  5
529
 10
963240.172
 20
7303052.787
 30
0.0
  0
VERTEX
  8
0
  6
CONTINUOUS
 62
     7
  5
52A
 10
963242.423
 20
7303060.72
 30
0.0
  0
VERTEX
  8
0
  6
CONTINUOUS
 62
     7
  5
52B
 10
963244.17
 20
7303052.661
 30
0.0
  0
SEQEND
  8
0
  6
CONTINUOUS
 62
     7
  5
52C
  0
LINE
  8
0
  6
CONTINUOUS
 62
     7
  5
52D
 10
963242.423
 20
7303060.72
 30
0.0
 11
963240.786
 21
7303008.846
 31
0.0
  0
ENDBLK
  8
0
  6
CONTINUOUS
 62
     7
  5
52E
  0
BLOCK
  8
0
  6
CONTINUOUS
 62
     7
  5
531
  2
*D9
 70
     1
 10
0.0
 20
0.0
 30
0.0
  3
*N9
  0
POLYLINE
  8
0
  6
CONTINUOUS
 62
     7
  5
532
 66
     1
 10
0.0
 20
0.0
 30
0.0
  0
VERTEX
  8
0
  6
CONTINUOUS
 62
     7
  5
533
 10
962375.547
 20
7302784.74
 30
0.0
  0
VERTEX
  8
0
  6
CONTINUOUS
 62
     7
  5
534
 10
962377.798
 20
7302792.673
 30
0.0
  0
VERTEX
  8
0
  6
CONTINUOUS
 62
     7
  5
535
 10
962379.545
 20
7302784.614
 30
0.0
  0
SEQEND
  8
0
  6
CONTINUOUS
 62
     7
  5
536
  0
LINE
  8
0
  6
CONTINUOUS
 62
     7
  5
537
 10
962377.798
 20
7302792.673
 30
0.0
 11
962375.24
 21
7302711.619
 31
0.0
  0
LINE
  8
0
  6
CONTINUOUS
 62
     7
  5
538
 10
962375.24
 20
7302711.619
 30
0.0
 11
962359.247
 21
7302712.088
 31
0.0
  0
TEXT
  8
0
  6
CONTINUOUS
 62
     7
  5
539
 10
962336.473
 20
7302708.755
 30
0.0
 40
8.0
  1
75'
 50
358.318914
  7
ROMANS
 11
962336.590345
 21
7302712.753278
 31
0.0
210
0.0
220
0.0
230
1.0
 73
     2
  0
ENDBLK
  8
0
  6
CONTINUOUS
 62
     7
  5
53A
  0
BLOCK
  8
0
  6
CONTINUOUS
 62
     7
  5
53D
  2
*D10
 70
     1
 10
0.0
 20
0.0
 30
0.0
  3
*N10
  0
POLYLINE
  8
0
  6
CONTINUOUS
 62
     7
  5
53E
 66
     1
 10
0.0
 20
0.0
 30
0.0
  0
VERTEX
  8
0
  6
CONTINUOUS
 62
     7
  5
53F
 10
959890.257
 20
7303525.232
 30
0.0
  0
VERTEX
  8
0
  6
CONTINUOUS
 62
     7
  5
540
 10
959892.508
 20
7303533.165
 30
0.0
  0
VERTEX
  8
0
  6
CONTINUOUS
 62
     7
  5
541
 10
959894.255
 20
7303525.106
 30
0.0
  0
SEQEND
  8
0
  6
CONTINUOUS
 62
     7
  5
542
  0
LINE
  8
0
  6
CONTINUOUS
 62
     7
  5
543
 10
959892.508
 20
7303533.165
 30
0.0
 11
959890.36
 21
7303465.079
 31
0.0
  0
ENDBLK
  8
0
  6
CONTINUOUS
 62
     7
  5
544
  0
BLOCK
  8
0
  6
CONTINUOUS
 62
     7
  5
547
  2
*D11
 70
     1
 10
0.0
 20
0.0
 30
0.0
  3
*N11
  0
POLYLINE
  8
0
  6
CONTINUOUS
 62
     7
  5
548
 66
     1
 10
0.0
 20
0.0
 30
0.0
  0
VERTEX
  8
0
  6
CONTINUOUS
 62
     7
  5
549
 10
959896.227
 20
7303690.34
 30
0.0
  0
VERTEX
  8
0
  6
CONTINUOUS
 62
     7
  5
54A
 10
959893.976
 20
7303682.407
 30
0.0
  0
VERTEX
  8
0
  6
CONTINUOUS
 62
     7
  5
54B
 10
959892.229
 20
7303690.466
 30
0.0
  0
SEQEND
  8
0
  6
CONTINUOUS
 62
     7
  5
54C
  0
LINE
  8
0
  6
CONTINUOUS
 62
     7
  5
54D
 10
959893.976
 20
7303682.407
 30
0.0
 11
959896.533
 21
7303763.462
 31
0.0
  0
LINE
  8
0
  6
CONTINUOUS
 62
     7
  5
54E
 10
959896.533
 20
7303763.462
 30
0.0
 11
959912.526
 21
7303762.993
 31
0.0
  0
TEXT
  8
0
  6
CONTINUOUS
 62
     7
  5
54F
 10
959916.407
 20
7303758.877
 30
0.0
 40
8.0
  1
150'
 50
358.318914
  7
ROMANS
 11
959916.524345
 21
7303762.875278
 31
0.0
210
0.0
220
0.0
230
1.0
 73
     2
  0
ENDBLK
  8
0
  6
CONTINUOUS
 62
     7
  5
550
  0
BLOCK
  8
0
  6
CONTINUOUS
 62
     7
  5
553
  2
*D12
 70
     1
 10
0.0
 20
0.0
 30
0.0
  3
*N12
  0
POLYLINE
  8
0
  6
CONTINUOUS
 62
     7
  5
554
 66
     1
 10
0.0
 20
0.0
 30
0.0
  0
VERTEX
  8
0
  6
CONTINUOUS
 62
     7
  5
555
 10
960585.456
 20
7303230.46
 30
0.0
  0
VERTEX
  8
0
  6
CONTINUOUS
 62
     7
  5
556
 10
960583.205
 20
7303222.527
 30
0.0
  0
VERTEX
  8
0
  6
CONTINUOUS
 62
     7
  5
557
 10
960581.458
 20
7303230.586
 30
0.0
  0
SEQEND
  8
0
  6
CONTINUOUS
 62
     7
  5
558
  0
LINE
  8
0
  6
CONTINUOUS
 62
     7
  5
559
 10
960583.205
 20
7303222.527
 30
0.0
 11
960585.456
 21
7303293.856
 31
0.0
  0
LINE
  8
0
  6
CONTINUOUS
 62
     7
  5
55A
 10
960585.456
 20
7303293.856
 30
0.0
 11
960601.449
 21
7303293.387
 31
0.0
  0
TEXT
  8
0
  6
CONTINUOUS
 62
     7
  5
55B
 10
960605.33
 20
7303289.271
 30
0.0
 40
8.0
  1
75'
 50
358.318914
  7
ROMANS
 11
960605.447345
 21
7303293.269278
 31
0.0
210
0.0
220
0.0
230
1.0
 73
     2
  0
ENDBLK
  8
0
  6
CONTINUOUS
 62
     7
  5
55C
  0
BLOCK
  8
0
  6
CONTINUOUS
 62
     7
  5
55F
  2
*D13
 70
     1
 10
0.0
 20
0.0
 30
0.0
  3
*N13
  0
POLYLINE
  8
0
  6
CONTINUOUS
 62
     7
  5
560
 66
     1
 10
0.0
 20
0.0
 30
0.0
  0
VERTEX
  8
0
  6
CONTINUOUS
 62
     7
  5
561
 10
959720.729
 20
7302959.172
 30
0.0
  0
VERTEX
  8
0
  6
CONTINUOUS
 62
     7
  5
562
 10
959718.478
 20
7302951.239
 30
0.0
  0
VERTEX
  8
0
  6
CONTINUOUS
 62
     7
  5
563
 10
959716.731
 20
7302959.298
 30
0.0
  0
SEQEND
  8
0
  6
CONTINUOUS
 62
     7
  5
564
  0
LINE
  8
0
  6
CONTINUOUS
 62
     7
  5
565
 10
959718.478
 20
7302951.239
 30
0.0
 11
959720.524
 21
7303016.082
 31
0.0
  0
ENDBLK
  8
0
  6
CONTINUOUS
 62
     7
  5
566
  0
BLOCK
  8
0
  6
CONTINUOUS
 62
     7
  5
569
  2
*D14
 70
     1
 10
0.0
 20
0.0
 30
0.0
  3
*N14
  0
POLYLINE
  8
0
  6
CONTINUOUS
 62
     7
  5
56A
 66
     1
 10
0.0
 20
0.0
 30
0.0
  0
VERTEX
  8
0
  6
CONTINUOUS
 62
     7
  5
56B
 10
960578.499
 20
7303136.782
 30
0.0
  0
VERTEX
  8
0
  6
CONTINUOUS
 62
     7
  5
56C
 10
960580.75
 20
7303144.715
 30
0.0
  0
VERTEX
  8
0
  6
CONTINUOUS
 62
     7
  5
56D
 10
960582.497
 20
7303136.656
 30
0.0
  0
SEQEND
  8
0
  6
CONTINUOUS
 62
     7
  5
56E
  0
LINE
  8
0
  6
CONTINUOUS
 62
     7
  5
56F
 10
960580.75
 20
7303144.715
 30
0.0
 11
960579.113
 21
7303092.841
 31
0.0
  0
ENDBLK
  8
0
  6
CONTINUOUS
 62
     7
  5
570
  0
BLOCK
  8
0
  6
CONTINUOUS
 62
     7
  5
573
  2
*D15
 70
     1
 10
0.0
 20
0.0
 30
0.0
  3
*N15
  0
POLYLINE
  8
0
  6
CONTINUOUS
 62
     7
  5
574
 66
     1
 10
0.0
 20
0.0
 30
0.0
  0
VERTEX
  8
0
  6
CONTINUOUS
 62
     7
  5
575
 10
959713.874
 20
7302868.735
 30
0.0
  0
VERTEX
  8
0
  6
CONTINUOUS
 62
     7
  5
576
 10
959716.125
 20
7302876.668
 30
0.0
  0
VERTEX
  8
0
  6
CONTINUOUS
 62
     7
  5
577
 10
959717.872
 20
7302868.609
 30
0.0
  0
SEQEND
  8
0
  6
CONTINUOUS
 62
     7
  5
578
  0
LINE
  8
0
  6
CONTINUOUS
 62
     7
  5
579
 10
959716.125
 20
7302876.668
 30
0.0
 11
959713.567
 21
7302795.615
 31
0.0
  0
LINE
  8
0
  6
CONTINUOUS
 62
     7
  5
57A
 10
959713.567
 20
7302795.615
 30
0.0
 11
959697.574
 21
7302796.084
 31
0.0
  0
TEXT
  8
0
  6
CONTINUOUS
 62
     7
  5
57B
 10
959674.8
 20
7302792.751
 30
0.0
 40
8.0
  1
75'
 50
358.318914
  7
ROMANS
 11
959674.917345
 21
7302796.749278
 31
0.0
210
0.0
220
0.0
230
1.0
 73
     2
  0
ENDBLK
  8
0
  6
CONTINUOUS
 62
     7
  5
57C
  0
BLOCK
  8
0
  6
CONTINUOUS
 62
   230
  5
66C
  2
*D16
 70
     1
 10
0.0
 20
0.0
 30
0.0
  3
*N16
  0
POLYLINE
  8
0
  6
CONTINUOUS
 62
   230
  5
66D
 66
     1
 10
0.0
 20
0.0
 30
0.0
  0
VERTEX
  8
0
  6
CONTINUOUS
 62
   230
  5
66E
 10
963856.139
 20
7299521.09
 30
0.0
  0
VERTEX
  8
0
  6
CONTINUOUS
 62
   230
  5
66F
 10
963848.206
 20
7299523.341
 30
0.0
  0
VERTEX
  8
0
  6
CONTINUOUS
 62
   230
  5
670
 10
963856.265
 20
7299525.088
 30
0.0
  0
SEQEND
  8
0
  6
CONTINUOUS
 62
   230
  5
671
  0
LINE
  8
0
  6
CONTINUOUS
 62
   230
  5
672
 10
963848.206
 20
7299523.341
 30
0.0
 11
963864.009
 21
7299522.843
 31
0.0
  0
ENDBLK
  8
0
  6
CONTINUOUS
 62
   230
  5
673
  0
BLOCK
  8
0
  6
CONTINUOUS
 62
   230
  5
676
  2
*D17
 70
     1
 10
0.0
 20
0.0
 30
0.0
  3
*N17
  0
POLYLINE
  8
0
  6
CONTINUOUS
 62
   230
  5
677
 66
     1
 10
0.0
 20
0.0
 30
0.0
  0
VERTEX
  8
0
  6
CONTINUOUS
 62
   230
  5
678
 10
963919.217
 20
7299523.101
 30
0.0
  0
VERTEX
  8
0
  6
CONTINUOUS
 62
   230
  5
679
 10
963927.15
 20
7299520.85
 30
0.0
  0
VERTEX
  8
0
  6
CONTINUOUS
 62
   230
  5
67A
 10
963919.091
 20
7299519.103
 30
0.0
  0
SEQEND
  8
0
  6
CONTINUOUS
 62
   230
  5
67B
  0
LINE
  8
0
  6
CONTINUOUS
 62
   230
  5
67C
 10
963927.15
 20
7299520.85
 30
0.0
 11
963912.665
 21
7299521.307
 31
0.0
  0
ENDBLK
  8
0
  6
CONTINUOUS
 62
   230
  5
67D
  0
BLOCK
  8
0
  6
CONTINUOUS
 62
   230
  5
681
  2
*D18
 70
     1
 10
0.0
 20
0.0
 30
0.0
  3
*N18
  0
POLYLINE
  8
0
  6
CONTINUOUS
 62
   230
  5
682
 66
     1
 10
0.0
 20
0.0
 30
0.0
  0
VERTEX
  8
0
  6
CONTINUOUS
 62
   230
  5
683
 10
963933.212
 20
7301963.404
 30
0.0
  0
VERTEX
  8
0
  6
CONTINUOUS
 62
   230
  5
684
 10
963925.279
 20
7301965.656
 30
0.0
  0
VERTEX
  8
0
  6
CONTINUOUS
 62
   230
  5
685
 10
963933.338
 20
7301967.403
 30
0.0
  0
SEQEND
  8
0
  6
CONTINUOUS
 62
   230
  5
686
  0
LINE
  8
0
  6
CONTINUOUS
 62
   230
  5
687
 10
963925.279
 20
7301965.656
 30
0.0
 11
963941.081
 21
7301965.157
 31
0.0
  0
ENDBLK
  8
0
  6
CONTINUOUS
 62
   230
  5
688
  0
BLOCK
  8
0
  6
CONTINUOUS
 62
   230
  5
68B
  2
*D19
 70
     1
 10
0.0
 20
0.0
 30
0.0
  3
*N19
  0
POLYLINE
  8
0
  6
CONTINUOUS
 62
   230
  5
68C
 66
     1
 10
0.0
 20
0.0
 30
0.0
  0
VERTEX
  8
0
  6
CONTINUOUS
 62
   230
  5
68D
 10
963996.29
 20
7301965.415
 30
0.0
  0
VERTEX
  8
0
  6
CONTINUOUS
 62
   230
  5
68E
 10
964004.223
 20
7301963.164
 30
0.0
  0
VERTEX
  8
0
  6
CONTINUOUS
 62
   230
  5
68F
 10
963996.164
 20
7301961.417
 30
0.0
  0
SEQEND
  8
0
  6
CONTINUOUS
 62
   230
  5
690
  0
LINE
  8
0
  6
CONTINUOUS
 62
   230
  5
691
 10
964004.223
 20
7301963.164
 30
0.0
 11
963989.738
 21
7301963.621
 31
0.0
  0
ENDBLK
  8
0
  6
CONTINUOUS
 62
   230
  5
692
  0
BLOCK
  8
0
  6
CONTINUOUS
 62
   230
  5
696
  2
*D20
 70
     1
 10
0.0
 20
0.0
 30
0.0
  3
*N20
  0
POLYLINE
  8
0
  6
CONTINUOUS
 62
   230
  5
697
 66
     1
 10
0.0
 20
0.0
 30
0.0
  0
VERTEX
  8
0
  6
CONTINUOUS
 62
   230
  5
698
 10
963989.165
 20
7303612.205
 30
0.0
  0
VERTEX
  8
0
  6
CONTINUOUS
 62
   230
  5
699
 10
963981.232
 20
7303614.457
 30
0.0
  0
VERTEX
  8
0
  6
CONTINUOUS
 62
   230
  5
69A
 10
963989.291
 20
7303616.204
 30
0.0
  0
SEQEND
  8
0
  6
CONTINUOUS
 62
   230
  5
69B
  0
LINE
  8
0
  6
CONTINUOUS
 62
   230
  5
69C
 10
963981.232
 20
7303614.457
 30
0.0
 11
963997.034
 21
7303613.958
 31
0.0
  0
ENDBLK
  8
0
  6
CONTINUOUS
 62
   230
  5
69D
  0
BLOCK
  8
0
  6
CONTINUOUS
 62
   230
  5
6A0
  2
*D21
 70
     1
 10
0.0
 20
0.0
 30
0.0
  3
*N21
  0
POLYLINE
  8
0
  6
CONTINUOUS
 62
   230
  5
6A1
 66
     1
 10
0.0
 20
0.0
 30
0.0
  0
VERTEX
  8
0
  6
CONTINUOUS
 62
   230
  5
6A2
 10
964048.326
 20
7303614.341
 30
0.0
  0
VERTEX
  8
0
  6
CONTINUOUS
 62
   230
  5
6A3
 10
964056.259
 20
7303612.089
 30
0.0
  0
VERTEX
  8
0
  6
CONTINUOUS
 62
   230
  5
6A4
 10
964048.2
 20
7303610.343
 30
0.0
  0
SEQEND
  8
0
  6
CONTINUOUS
 62
   230
  5
6A5
  0
LINE
  8
0
  6
CONTINUOUS
 62
   230
  5
6A6
 10
964056.259
 20
7303612.089
 30
0.0
 11
964041.774
 21
7303612.547
 31
0.0
  0
ENDBLK
  8
0
  6
CONTINUOUS
 62
   230
  5
6A7
  0
ENDSEC
  0
SECTION
  2
ENTITIES
  0
LINE
  8
0
  6
CONTINUOUS
 62
     2
  5
28
 10
958779.967
 20
7303718.148
 30
0.0
 11
961198.062
 21
7303641.839
 31
0.0
  0
LINE
  8
0
  6
CENTER
 62
     7
  5
29
 10
958755.523
 20
7302943.561
 30
0.0
 11
963504.975
 21
7302793.682
 31
0.0
  0
LINE
  8
0
  6
CONTINUOUS
 62
     2
  5
2A
 10
963709.338
 20
7303562.59
 30
0.0
 11
963689.151
 21
7302922.907
 31
0.0
  0
LINE
  8
0
  6
CONTINUOUS
 62
     2
  5
2B
 10
963610.709
 20
7303290.626
 30
0.0
 11
963608.894
 21
7303233.101
 31
0.0
  0
LINE
  8
0
  6
CENTER
 62
     7
  5
2C
 10
963644.203
 20
7302924.325
 30
0.0
 11
963663.394
 21
7303532.443
 31
0.0
  0
LINE
  8
0
  6
CONTINUOUS
 62
     2
  5
2D
 10
959427.625
 20
7303022.361
 30
0.0
 11
959431.175
 21
7303134.868
 31
0.0
  0
LINE
  8
0
  6
CONTINUOUS
 62
     2
  5
2E
 10
959352.668
 20
7303024.726
 30
0.0
 11
959356.218
 21
7303137.233
 31
0.0
  0
LINE
  8
0
  6
CONTINUOUS
 62
     2
  5
2F
 10
959519.142
 20
7303544.751
 30
0.0
 11
961193.331
 21
7303491.918
 31
0.0
  0
LINE
  8
0
  6
CONTINUOUS
 62
     2
  5
30
 10
959488.165
 20
7302958.015
 30
0.0
 11
961387.219
 21
7302898.086
 31
0.0
  0
LINE
  8
0
  6
CENTER
 62
     7
  5
31
 10
962150.005
 20
7303131.641
 30
0.0
 11
962163.777
 21
7303568.05
 31
0.0
  0
LINE
  8
0
  6
CONTINUOUS
 62
     2
  5
32
 10
958766.169
 20
7303280.928
 30
0.0
 11
959310.237
 21
7303263.758
 31
0.0
  0
LINE
  8
0
  6
CONTINUOUS
 62
     2
  5
33
 10
958763.801
 20
7303205.902
 30
0.0
 11
959307.87
 21
7303188.733
 31
0.0
  0
LINE
  8
0
  6
CENTER
 62
     7
  5
34
 10
958764.986
 20
7303243.445
 30
0.0
 11
963669.534
 21
7303088.671
 31
0.0
  0
LINE
  8
0
  6
CONTINUOUS
 62
     2
  5
35
 10
958775.235
 20
7303568.227
 30
0.0
 11
959294.277
 21
7303551.847
 31
0.0
  0
LINE
  8
0
  6
CONTINUOUS
 62
     2
  5
36
 10
958756.707
 20
7302981.098
 30
0.0
 11
959288.259
 21
7302964.323
 31
0.0
  0
LINE
  8
0
  6
CONTINUOUS
 62
     2
  5
37
 10
959415.481
 20
7302795.638
 30
0.0
 11
959416.335
 21
7302822.686
 31
0.0
  0
LINE
  8
0
  6
CONTINUOUS
 62
     2
  5
38
 10
959351.105
 20
7302815.18
 30
0.0
 11
959351.406
 21
7302824.735
 31
0.0
  0
LINE
  8
0
  6
CONTINUOUS
 62
     2
  5
39
 10
959480.814
 20
7302883.155
 30
0.0
 11
960439.632
 21
7302852.897
 31
0.0
  0
LINE
  8
0
  6
CONTINUOUS
 62
     2
  5
3A
 10
959482.811
 20
7303183.212
 30
0.0
 11
961181.897
 21
7303129.593
 31
0.0
  0
LINE
  8
0
  6
CONTINUOUS
 62
     2
  5
3B
 10
959436.696
 20
7303309.808
 30
0.0
 11
959441.819
 21
7303472.166
 31
0.0
  0
LINE
  8
0
  6
CONTINUOUS
 62
     2
  5
3C
 10
959485.178
 20
7303258.238
 30
0.0
 11
961351.108
 21
7303199.354
 31
0.0
  0
LINE
  8
0
  6
CONTINUOUS
 62
     2
  5
3D
 10
959361.739
 20
7303312.174
 30
0.0
 11
959366.863
 21
7303474.531
 31
0.0
  0
ARC
  8
0
  6
CONTINUOUS
 62
     2
  5
3E
 10
959516.819241
 20
7303469.800138
 30
0.0
 40
75.000247
 50
88.1925
 51
178.1925
210
0.0
220
0.0
230
1.0
  0
ARC
  8
0
  6
CONTINUOUS
 62
     2
  5
3F
 10
959291.930453
 20
7303476.89702
 30
0.0
 40
75.000247
 50
358.1925
 51
88.1925
210
0.0
220
0.0
230
1.0
  0
ARC
  8
0
  6
CONTINUOUS
 62
     2
  5
40
 10
959486.706072
 20
7303308.169
 30
0.0
 40
50.000164
 50
178.1925
 51
268.1925
210
0.0
220
0.0
230
1.0
  0
ARC
  8
0
  6
CONTINUOUS
 62
     2
  5
41
 10
959311.79257
 20
7303313.688797
 30
0.0
 40
50.000164
 50
268.1925
 51
358.1925
210
0.0
220
0.0
230
1.0
  0
ARC
  8
0
  6
CONTINUOUS
 62
     2
  5
42
 10
959481.186275
 20
7303133.255498
 30
0.0
 40
50.000164
 50
88.1925
 51
178.1925
210
0.0
220
0.0
230
1.0
  0
ARC
  8
0
  6
CONTINUOUS
 62
     2
  5
43
 10
959306.272773
 20
7303138.775295
 30
0.0
 40
50.000164
 50
358.1925
 51
88.1925
210
0.0
220
0.0
230
1.0
  0
ARC
  8
0
  6
CONTINUOUS
 62
     2
  5
44
 10
959490.131656
 20
7303020.416832
 30
0.0
 40
62.500205
 50
178.1925
 51
268.1925
210
0.0
220
0.0
230
1.0
  0
ARC
  8
0
  6
CONTINUOUS
 62
     2
  5
45
 10
959290.230511
 20
7303026.725172
 30
0.0
 40
62.500205
 50
268.1925
 51
358.1925
210
0.0
220
0.0
230
1.0
  0
ARC
  8
0
  6
CONTINUOUS
 62
     2
  5
46
 10
959478.825788
 20
7302820.673395
 30
0.0
 40
62.500205
 50
88.1925
 51
178.1925
210
0.0
220
0.0
230
1.0
  0
ARC
  8
0
  6
CONTINUOUS
 62
     2
  5
47
 10
959288.9197
 20
7302826.666318
 30
0.0
 40
62.500205
 50
358.1925
 51
88.1925
210
0.0
220
0.0
230
1.0
  0
ARC
  8
0
  6
CONTINUOUS
 62
     2
  5
48
 10
959465.48034
 20
7302794.081012
 30
0.0
 40
50.000164
 50
178.1925
 51
268.1925
210
0.0
220
0.0
230
1.0
  0
ARC
  8
0
  6
CONTINUOUS
 62
     2
  5
49
 10
959283.622525
 20
7302817.328722
 30
0.0
 40
67.500222
 50
272.2446
 51
358.1925
210
0.0
220
0.0
230
1.0
  0
LINE
  8
0
  6
CENTER
 62
     7
  5
4A
 10
960477.654
 20
7302393.091
 30
0.0
 11
960493.795
 21
7302904.593
 31
0.0
  0
LINE
  8
0
  6
CONTINUOUS
 62
     7
  5
4B
 10
960490.998
 20
7302419.15
 30
0.0
 11
960503.36
 21
7302810.882
 31
0.0
  0
LINE
  8
0
  6
CONTINUOUS
 62
     7
  5
4C
 10
960466.81
 20
7302446.507
 30
0.0
 11
960478.334
 21
7302811.672
 31
0.0
  0
LINE
  8
0
  6
CONTINUOUS
 62
     2
  5
4D
 10
960544.593
 20
7302849.585
 30
0.0
 11
960838.897
 21
7302840.297
 31
0.0
  0
LINE
  8
0
  6
CENTER
 62
     7
  5
4E
 10
961629.874
 20
7302852.855
 30
0.0
 11
962150.005
 21
7303131.641
 31
0.0
  0
LINE
  8
0
  6
CONTINUOUS
 62
     2
  5
4F
 10
962197.87
 20
7303222.673
 30
0.0
 11
962203.782
 21
7303409.996
 31
0.0
  0
LINE
  8
0
  6
CONTINUOUS
 62
     2
  5
50
 10
962109.41
 20
7303272.88
 30
0.0
 11
962109.885
 21
7303287.953
 31
0.0
  0
LINE
  8
0
  6
CONTINUOUS
 62
     2
  5
51
 10
961868.233
 20
7302929.523
 30
0.0
 11
961993.531
 21
7302996.689
 31
0.0
  0
LINE
  8
0
  6
CONTINUOUS
 62
     2
  5
52
 10
961794.981
 20
7302992.381
 30
0.0
 11
961920.423
 21
7303059.61
 31
0.0
  0
LINE
  8
0
  6
CONTINUOUS
 62
     2
  5
53
 10
962396.793
 20
7303091.254
 30
0.0
 11
963553.292
 21
7303054.759
 31
0.0
  0
LINE
  8
0
  6
CONTINUOUS
 62
     2
  5
54
 10
961879.205
 20
7302882.56
 30
0.0
 11
963498.695
 21
7302831.453
 31
0.0
  0
LINE
  8
0
  6
CONTINUOUS
 62
     2
  5
55
 10
962246.224
 20
7303171.106
 30
0.0
 11
963500.617
 21
7303131.521
 31
0.0
  0
LINE
  8
0
  6
CONTINUOUS
 62
     2
  5
56
 10
962255.29
 20
7303458.405
 30
0.0
 11
963489.702
 21
7303419.451
 31
0.0
  0
LINE
  8
0
  6
CONTINUOUS
 62
     2
  5
57
 10
963601.641
 20
7303003.259
 30
0.0
 11
963599.195
 21
7302925.745
 31
0.0
  0
ARC
  8
0
  6
CONTINUOUS
 62
     2
  5
58
 10
963485.778654
 20
7303294.525458
 30
0.0
 40
125.000411
 50
358.1925
 51
88.1925
210
0.0
220
0.0
230
1.0
  0
ARC
  8
0
  6
CONTINUOUS
 62
     2
  5
59
 10
963503.955121
 20
7303236.423044
 30
0.0
 40
105.000345
 50
268.1925
 51
358.1925
210
0.0
220
0.0
230
1.0
  0
ARC
  8
0
  6
CONTINUOUS
 62
     2
  5
5A
 10
963551.673345
 20
7303004.801934
 30
0.0
 40
50.000164
 50
358.1925
 51
88.1925
210
0.0
220
0.0
230
1.0
  0
ARC
  8
0
  6
CONTINUOUS
 62
     2
  5
5B
 10
963501.752342
 20
7302928.838471
 30
0.0
 40
97.500321
 50
268.1925
 51
358.1925
210
0.0
220
0.0
230
1.0
  0
ARC
  8
0
  6
CONTINUOUS
 62
     2
  5
5C
 10
963516.744927
 20
7302928.365345
 30
0.0
 40
172.500567
 50
268.1925
 51
358.1925
210
0.0
220
0.0
230
1.0
  0
ARC
  8
0
  6
CENTER
 62
     7
  5
5D
 10
963509.248635
 20
7302928.601908
 30
0.0
 40
135.000444
 50
268.1925
 51
358.1925
210
0.0
220
0.0
230
1.0
  0
ARC
  8
0
  6
CONTINUOUS
 62
     2
  5
5E
 10
962371.571646
 20
7302291.66693
 30
0.0
 40
800.00263
 50
88.1925
 51
118.1925
210
0.0
220
0.0
230
1.0
  0
ARC
  8
0
  6
CONTINUOUS
 62
     2
  5
5F
 10
961879.979609
 20
7302907.480903
 30
0.0
 40
25.000082
 50
118.1925
 51
268.1925
210
0.0
220
0.0
230
1.0
  0
ARC
  8
0
  6
CONTINUOUS
 62
     2
  5
60
 10
961417.004839
 20
7303697.479485
 30
0.0
 40
800.00263
 50
268.1925
 51
298.1925
210
0.0
220
0.0
230
1.0
  0
ARC
  8
0
  6
CONTINUOUS
 62
     2
  5
61
 10
961908.596876
 20
7303081.665511
 30
0.0
 40
25.000082
 50
298.1925
 51
88.1925
210
0.0
220
0.0
230
1.0
  0
ARC
  8
0
  6
CONTINUOUS
 62
     2
  5
62
 10
961934.967693
 20
7303293.439803
 30
0.0
 40
175.000575
 50
358.1925
 51
88.1925
210
0.0
220
0.0
230
1.0
  0
ARC
  8
0
  6
CONTINUOUS
 62
     2
  5
63
 10
962253.754709
 20
7303408.442384
 30
0.0
 40
50.000164
 50
88.1925
 51
178.1925
210
0.0
220
0.0
230
1.0
  0
ARC
  8
0
  6
CONTINUOUS
 62
     2
  5
64
 10
962011.956262
 20
7303276.002735
 30
0.0
 40
97.500321
 50
268.1925
 51
358.1925
210
0.0
220
0.0
230
1.0
  0
ARC
  8
0
  6
CONTINUOUS
 62
     2
  5
65
 10
962247.840641
 20
7303221.03506
 30
0.0
 40
50.000164
 50
178.1925
 51
268.1925
210
0.0
220
0.0
230
1.0
  0
ARC
  8
0
  6
CONTINUOUS
 62
     2
  5
66
 10
960543.319415
 20
7302809.59213
 30
0.0
 40
40.000132
 50
88.1925
 51
178.1925
210
0.0
220
0.0
230
1.0
  0
ARC
  8
0
  6
CONTINUOUS
 62
     2
  5
67
 10
960438.371314
 20
7302812.904008
 30
0.0
 40
40.000132
 50
358.1925
 51
88.1925
210
0.0
220
0.0
230
1.0
  0
LINE
  8
0
  6
CONTINUOUS
 62
     2
  5
68
 10
958923.308
 20
7302124.45
 30
0.0
 11
958765.689
 21
7301756.761
 31
0.0
  0
ARC
  8
0
  6
CONTINUOUS
 62
     2
  5
69
 10
958560.734846
 20
7301278.859141
 30
0.0
 40
920.003025
 50
66.7925
 51
79.301983
210
0.0
220
0.0
230
1.0
  0
ARC
  8
0
  6
CONTINUOUS
 62
     2
  5
6A
 10
958560.734846
 20
7301278.859141
 30
0.0
 40
520.00171
 50
66.7925
 51
72.324081
210
0.0
220
0.0
230
1.0
  0
LINE
  8
6
  6
CONTINUOUS
 62
     7
  5
6C
 10
958828.331
 20
7301283.048
 30
0.0
 11
958803.783
 21
7300505.169
 31
0.0
  0
ARC
  8
6
  6
CONTINUOUS
 62
     7
  5
6D
 10
958565.911973
 20
7301283.034875
 30
0.0
 40
262.309207
 50
358.1925
 51
56.670836
210
0.0
220
0.0
230
1.0
  0
LINE
  8
6
  6
CONTINUOUS
 62
     7
  5
6E
 10
958679.375
 20
7300530.553
 30
0.0
 11
958728.779
 21
7300301.237
 31
0.0
  0
ARC
  8
6
  6
CONTINUOUS
 62
     7
  5
6F
 10
958243.259985
 20
7300522.839746
 30
0.0
 40
560.822889
 50
336.405133
 51
358.1925
210
0.0
220
0.0
230
1.0
  0
ARC
  8
6
  6
CONTINUOUS
 62
     7
  5
70
 10
958743.451264
 20
7300304.364903
 30
0.0
 40
15.000049
 50
192.154947
 51
336.405131
210
0.0
220
0.0
230
1.0
  0
LINE
  8
6
  6
CONTINUOUS
 62
     7
  5
71
 10
958674.347
 20
7300371.223
 30
0.0
 11
958703.029
 21
7300238.083
 31
0.0
  0
LINE
  8
6
  6
CONTINUOUS
 62
     7
  5
72
 10
958703.029
 20
7300238.083
 30
0.0
 11
958668.344
 21
7300181.002
 31
0.0
  0
POLYLINE
  8
0
  6
CONTINUOUS
 62
     2
  5
73
 66
     1
 10
0.0
 20
0.0
 30
0.0
 70
     1
  0
VERTEX
  8
0
  6
CONTINUOUS
 62
     2
  5
74
 10
959478.368
 20
7300156.881
 30
0.0
  0
VERTEX
  8
0
  6
CONTINUOUS
 62
     2
  5
75
 10
959490.322
 20
7300535.698
 30
0.0
  0
VERTEX
  8
0
  6
CONTINUOUS
 62
     2
  5
76
 10
959532.51
 20
7300534.366
 30
0.0
  0
VERTEX
  8
0
  6
CONTINUOUS
 62
     2
  5
77
 10
959520.556
 20
7300155.55
 30
0.0
  0
SEQEND
  8
0
  6
CONTINUOUS
 62
     2
  5
78
  0
POLYLINE
  8
0
  6
CONTINUOUS
 62
     2
  5
79
 66
     1
 10
0.0
 20
0.0
 30
0.0
 70
     1
  0
VERTEX
  8
0
  6
CONTINUOUS
 62
     2
  5
7A
 10
959635.001
 20
7300531.734
 30
0.0
  0
VERTEX
  8
0
  6
CONTINUOUS
 62
     2
  5
7B
 10
959623.402
 20
7300164.163
 30
0.0
  0
VERTEX
  8
0
  6
CONTINUOUS
 62
     2
  5
7C
 10
959576.778
 20
7300165.635
 30
0.0
  0
VERTEX
  8
0
  6
CONTINUOUS
 62
     2
  5
7D
 10
959588.378
 20
7300533.206
 30
0.0
  0
SEQEND
  8
0
  6
CONTINUOUS
 62
     2
  5
7E
  0
POLYLINE
  8
0
  6
CONTINUOUS
 62
     2
  5
7F
 66
     1
 10
0.0
 20
0.0
 30
0.0
 70
     1
  0
VERTEX
  8
0
  6
CONTINUOUS
 62
     2
  5
80
 10
959682.186
 20
7300172.204
 30
0.0
  0
VERTEX
  8
0
  6
CONTINUOUS
 62
     2
  5
81
 10
959693.527
 20
7300531.58
 30
0.0
  0
VERTEX
  8
0
  6
CONTINUOUS
 62
     2
  5
82
 10
959735.512
 20
7300530.255
 30
0.0
  0
VERTEX
  8
0
  6
CONTINUOUS
 62
     2
  5
83
 10
959724.171
 20
7300170.879
 30
0.0
  0
SEQEND
  8
0
  6
CONTINUOUS
 62
     2
  5
84
  0
POLYLINE
  8
0
  6
CONTINUOUS
 62
     2
  5
85
 66
     1
 10
0.0
 20
0.0
 30
0.0
 70
     1
  0
VERTEX
  8
0
  6
CONTINUOUS
 62
     2
  5
86
 10
959600.652
 20
7300602.124
 30
0.0
  0
VERTEX
  8
0
  6
CONTINUOUS
 62
     2
  5
87
 10
959601.478
 20
7300628.307
 30
0.0
  0
VERTEX
  8
0
  6
CONTINUOUS
 62
     2
  5
88
 10
959631.285
 20
7300627.366
 30
0.0
  0
VERTEX
  8
0
  6
CONTINUOUS
 62
     2
  5
89
 10
959630.459
 20
7300601.183
 30
0.0
  0
SEQEND
  8
0
  6
CONTINUOUS
 62
     2
  5
8A
  0
POLYLINE
  8
0
  6
CONTINUOUS
 62
     2
  5
8B
 66
     1
 10
0.0
 20
0.0
 30
0.0
 70
     1
  0
VERTEX
  8
0
  6
CONTINUOUS
 62
     2
  5
8C
 10
959497.08
 20
7300611.051
 30
0.0
  0
VERTEX
  8
0
  6
CONTINUOUS
 62
     2
  5
8D
 10
959507.159
 20
7300930.456
 30
0.0
  0
VERTEX
  8
0
  6
CONTINUOUS
 62
     2
  5
8E
 10
959547.867
 20
7300929.171
 30
0.0
  0
VERTEX
  8
0
  6
CONTINUOUS
 62
     2
  5
8F
 10
959537.787
 20
7300609.766
 30
0.0
  0
SEQEND
  8
0
  6
CONTINUOUS
 62
     2
  5
90
  0
POLYLINE
  8
0
  6
CONTINUOUS
 62
     2
  5
91
 66
     1
 10
0.0
 20
0.0
 30
0.0
 70
     1
  0
VERTEX
  8
0
  6
CONTINUOUS
 62
     2
  5
92
 10
959814.161
 20
7299765.473
 30
0.0
  0
VERTEX
  8
0
  6
CONTINUOUS
 62
     2
  5
93
 10
959820.789
 20
7299975.474
 30
0.0
  0
VERTEX
  8
0
  6
CONTINUOUS
 62
     2
  5
94
 10
959980.921
 20
7299970.421
 30
0.0
  0
VERTEX
  8
0
  6
CONTINUOUS
 62
     2
  5
95
 10
959974.294
 20
7299760.42
 30
0.0
  0
SEQEND
  8
0
  6
CONTINUOUS
 62
     2
  5
96
  0
POLYLINE
  8
0
  6
CONTINUOUS
 62
     2
  5
97
 66
     1
 10
0.0
 20
0.0
 30
0.0
 70
     1
  0
VERTEX
  8
0
  6
CONTINUOUS
 62
     2
  5
98
 10
959998.699
 20
7299767.399
 30
0.0
  0
VERTEX
  8
0
  6
CONTINUOUS
 62
     2
  5
99
 10
959999.941
 20
7299806.762
 30
0.0
  0
VERTEX
  8
0
  6
CONTINUOUS
 62
     2
  5
9A
 10
960032.169
 20
7299805.745
 30
0.0
  0
VERTEX
  8
0
  6
CONTINUOUS
 62
     2
  5
9B
 10
960030.927
 20
7299766.382
 30
0.0
  0
SEQEND
  8
0
  6
CONTINUOUS
 62
     2
  5
9C
  0
POLYLINE
  8
0
  6
CONTINUOUS
 62
     2
  5
9D
 66
     1
 10
0.0
 20
0.0
 30
0.0
 70
     1
  0
VERTEX
  8
0
  6
CONTINUOUS
 62
     2
  5
9E
 10
960112.181
 20
7299671.208
 30
0.0
  0
VERTEX
  8
0
  6
CONTINUOUS
 62
     2
  5
9F
 10
960113.105
 20
7299700.474
 30
0.0
  0
VERTEX
  8
0
  6
CONTINUOUS
 62
     2
  5
A0
 10
960174.801
 20
7299698.527
 30
0.0
  0
VERTEX
  8
0
  6
CONTINUOUS
 62
     2
  5
A1
 10
960173.878
 20
7299669.261
 30
0.0
  0
SEQEND
  8
0
  6
CONTINUOUS
 62
     2
  5
A2
  0
POLYLINE
  8
0
  6
CONTINUOUS
 62
     2
  5
A3
 66
     1
 10
0.0
 20
0.0
 30
0.0
 70
     1
  0
VERTEX
  8
0
  6
CONTINUOUS
 62
     2
  5
A4
 10
959818.532
 20
7299423.728
 30
0.0
  0
VERTEX
  8
0
  6
CONTINUOUS
 62
     2
  5
A5
 10
959819.25
 20
7299446.476
 30
0.0
  0
VERTEX
  8
0
  6
CONTINUOUS
 62
     2
  5
A6
 10
959846.156
 20
7299445.627
 30
0.0
  0
VERTEX
  8
0
  6
CONTINUOUS
 62
     2
  5
A7
 10
959845.438
 20
7299422.879
 30
0.0
  0
SEQEND
  8
0
  6
CONTINUOUS
 62
     2
  5
A8
  0
POLYLINE
  8
0
  6
CONTINUOUS
 62
     2
  5
A9
 66
     1
 10
0.0
 20
0.0
 30
0.0
 70
     1
  0
VERTEX
  8
0
  6
CONTINUOUS
 62
     2
  5
AA
 10
959871.325
 20
7299408.592
 30
0.0
  0
VERTEX
  8
0
  6
CONTINUOUS
 62
     2
  5
AB
 10
959872.143
 20
7299434.498
 30
0.0
  0
VERTEX
  8
0
  6
CONTINUOUS
 62
     2
  5
AC
 10
959908.814
 20
7299433.34
 30
0.0
  0
VERTEX
  8
0
  6
CONTINUOUS
 62
     2
  5
AD
 10
959907.996
 20
7299407.435
 30
0.0
  0
SEQEND
  8
0
  6
CONTINUOUS
 62
     2
  5
AE
  0
POLYLINE
  8
0
  6
CONTINUOUS
 62
     2
  5
AF
 66
     1
 10
0.0
 20
0.0
 30
0.0
 70
     1
  0
VERTEX
  8
0
  6
CONTINUOUS
 62
     2
  5
B0
 10
960569.054
 20
7299663.525
 30
0.0
  0
VERTEX
  8
0
  6
CONTINUOUS
 62
     2
  5
B1
 10
960567.447
 20
7299612.586
 30
0.0
  0
VERTEX
  8
0
  6
CONTINUOUS
 62
     2
  5
B2
 10
960353.415
 20
7299619.34
 30
0.0
  0
VERTEX
  8
0
  6
CONTINUOUS
 62
     2
  5
B3
 10
960355.022
 20
7299670.279
 30
0.0
  0
SEQEND
  8
0
  6
CONTINUOUS
 62
     2
  5
B4
  0
CIRCLE
  8
0
  6
CONTINUOUS
 62
     2
  5
B5
 10
960299.582552
 20
7299380.365173
 30
0.0
 40
16.721244
210
0.0
220
0.0
230
1.0
  0
LINE
  8
0
  6
CONTINUOUS
 62
     2
  5
B6
 10
959054.063
 20
7302176.423
 30
0.0
 11
958975.524
 21
7299687.617
 31
0.0
  0
LINE
  8
0
  6
CONTINUOUS
 62
     2
  5
B7
 10
958975.524
 20
7299687.617
 30
0.0
 11
959665.604
 21
7299665.84
 31
0.0
  0
LINE
  8
0
  6
CONTINUOUS
 62
     2
  5
B8
 10
959665.604
 20
7299665.84
 30
0.0
 11
959762.454
 21
7302734.849
 31
0.0
  0
LINE
  8
0
  6
CONTINUOUS
 62
     2
  5
B9
 10
959836.998
 20
7302732.497
 30
0.0
 11
959825.991
 21
7302383.691
 31
0.0
  0
LINE
  8
0
  6
CONTINUOUS
 62
     2
  5
BA
 10
959980.921
 20
7299970.421
 30
0.0
 11
959992.505
 21
7300042.996
 31
0.0
  0
LINE
  8
0
  6
CONTINUOUS
 62
     2
  5
BB
 10
959816.049
 20
7299825.289
 30
0.0
 11
959670.78
 21
7299829.874
 31
0.0
  0
LINE
  8
0
  6
CONTINUOUS
 62
     2
  5
BC
 10
960808.401
 20
7299916.698
 30
0.0
 11
960811.136
 21
7300003.354
 31
0.0
  0
LINE
  8
0
  6
CONTINUOUS
 62
     2
  5
BD
 10
960811.136
 20
7300003.354
 30
0.0
 11
960792.966
 21
7300003.928
 31
0.0
  0
LINE
  8
0
  6
CONTINUOUS
 62
     2
  5
BE
 10
960792.966
 20
7300003.928
 30
0.0
 11
960799.712
 21
7300217.696
 31
0.0
  0
LINE
  8
0
  6
CONTINUOUS
 62
     2
  5
BF
 10
960799.712
 20
7300217.696
 30
0.0
 11
960910.934
 21
7300214.186
 31
0.0
  0
LINE
  8
0
  6
CONTINUOUS
 62
     2
  5
C0
 10
960910.934
 20
7300214.186
 30
0.0
 11
960908.705
 21
7300143.537
 31
0.0
  0
LINE
  8
0
  6
CONTINUOUS
 62
     2
  5
C1
 10
960908.705
 20
7300143.537
 30
0.0
 11
960952.239
 21
7300142.163
 31
0.0
  0
LINE
  8
0
  6
CONTINUOUS
 62
     2
  5
C2
 10
960952.239
 20
7300142.163
 30
0.0
 11
960951.668
 21
7300124.061
 31
0.0
  0
LINE
  8
0
  6
CONTINUOUS
 62
     2
  5
C3
 10
960951.668
 20
7300124.061
 30
0.0
 11
960992.645
 21
7300122.768
 31
0.0
  0
LINE
  8
0
  6
CONTINUOUS
 62
     2
  5
C4
 10
960992.645
 20
7300122.768
 30
0.0
 11
960990.327
 21
7300049.291
 31
0.0
  0
LINE
  8
0
  6
CONTINUOUS
 62
     2
  5
C5
 10
960990.327
 20
7300049.291
 30
0.0
 11
960949.755
 21
7300050.571
 31
0.0
  0
LINE
  8
0
  6
CONTINUOUS
 62
     2
  5
C6
 10
960949.755
 20
7300050.571
 30
0.0
 11
960948.084
 21
7299997.618
 31
0.0
  0
LINE
  8
0
  6
CONTINUOUS
 62
     2
  5
C7
 10
960948.084
 20
7299997.618
 30
0.0
 11
960864.383
 21
7300000.259
 31
0.0
  0
LINE
  8
0
  6
CONTINUOUS
 62
     2
  5
C8
 10
960864.383
 20
7300000.259
 30
0.0
 11
960861.693
 21
7299915.017
 31
0.0
  0
POLYLINE
  8
0
  6
CONTINUOUS
 62
     2
  5
C9
 66
     1
 10
0.0
 20
0.0
 30
0.0
 70
     1
  0
VERTEX
  8
0
  6
CONTINUOUS
 62
     2
  5
CA
 10
961300.903
 20
7299443.695
 30
0.0
  0
VERTEX
  8
0
  6
CONTINUOUS
 62
     2
  5
CB
 10
961302.703
 20
7299500.753
 30
0.0
  0
VERTEX
  8
0
  6
CONTINUOUS
 62
     2
  5
CC
 10
961445.416
 20
7299496.25
 30
0.0
  0
VERTEX
  8
0
  6
CONTINUOUS
 62
     2
  5
CD
 10
961443.616
 20
7299439.191
 30
0.0
  0
SEQEND
  8
0
  6
CONTINUOUS
 62
     2
  5
CE
  0
POLYLINE
  8
0
  6
CONTINUOUS
 62
     2
  5
CF
 66
     1
 10
0.0
 20
0.0
 30
0.0
 70
     1
  0
VERTEX
  8
0
  6
CONTINUOUS
 62
     2
  5
D0
 10
961256.451
 20
7299592.935
 30
0.0
  0
VERTEX
  8
0
  6
CONTINUOUS
 62
     2
  5
D1
 10
961258.131
 20
7299646.159
 30
0.0
  0
VERTEX
  8
0
  6
CONTINUOUS
 62
     2
  5
D2
 10
961452.107
 20
7299640.037
 30
0.0
  0
VERTEX
  8
0
  6
CONTINUOUS
 62
     2
  5
D3
 10
961450.427
 20
7299586.814
 30
0.0
  0
SEQEND
  8
0
  6
CONTINUOUS
 62
     2
  5
D4
  0
POLYLINE
  8
0
  6
CONTINUOUS
 62
     2
  5
D5
 66
     1
 10
0.0
 20
0.0
 30
0.0
 70
     1
  0
VERTEX
  8
0
  6
CONTINUOUS
 62
     2
  5
D6
 10
961639.45
 20
7299884.476
 30
0.0
  0
VERTEX
  8
0
  6
CONTINUOUS
 62
     2
  5
D7
 10
961640.471
 20
7299916.839
 30
0.0
  0
VERTEX
  8
0
  6
CONTINUOUS
 62
     2
  5
D8
 10
961755.46
 20
7299913.21
 30
0.0
  0
VERTEX
  8
0
  6
CONTINUOUS
 62
     2
  5
D9
 10
961754.439
 20
7299880.847
 30
0.0
  0
SEQEND
  8
0
  6
CONTINUOUS
 62
     2
  5
DA
  0
POLYLINE
  8
0
  6
CONTINUOUS
 62
     2
  5
DB
 66
     1
 10
0.0
 20
0.0
 30
0.0
 70
     1
  0
VERTEX
  8
0
  6
CONTINUOUS
 62
     2
  5
DC
 10
961784.447
 20
7299751.794
 30
0.0
  0
VERTEX
  8
0
  6
CONTINUOUS
 62
     2
  5
DD
 10
961785.777
 20
7299793.915
 30
0.0
  0
VERTEX
  8
0
  6
CONTINUOUS
 62
     2
  5
DE
 10
961889.662
 20
7299790.637
 30
0.0
  0
VERTEX
  8
0
  6
CONTINUOUS
 62
     2
  5
DF
 10
961888.333
 20
7299748.516
 30
0.0
  0
SEQEND
  8
0
  6
CONTINUOUS
 62
     2
  5
E0
  0
POLYLINE
  8
0
  6
CONTINUOUS
 62
     2
  5
E1
 66
     1
 10
0.0
 20
0.0
 30
0.0
 70
     1
  0
VERTEX
  8
0
  6
CONTINUOUS
 62
     2
  5
E2
 10
962047.714
 20
7299902.844
 30
0.0
  0
VERTEX
  8
0
  6
CONTINUOUS
 62
     2
  5
E3
 10
962053.319
 20
7300080.476
 30
0.0
  0
VERTEX
  8
0
  6
CONTINUOUS
 62
     2
  5
E4
 10
962223.148
 20
7300075.117
 30
0.0
  0
VERTEX
  8
0
  6
CONTINUOUS
 62
     2
  5
E5
 10
962217.542
 20
7299897.484
 30
0.0
  0
SEQEND
  8
0
  6
CONTINUOUS
 62
     2
  5
E6
  0
POLYLINE
  8
0
  6
CONTINUOUS
 62
     2
  5
E7
 66
     1
 10
0.0
 20
0.0
 30
0.0
 70
     1
  0
VERTEX
  8
0
  6
CONTINUOUS
 62
     2
  5
E8
 10
962056.015
 20
7300182.829
 30
0.0
  0
VERTEX
  8
0
  6
CONTINUOUS
 62
     2
  5
E9
 10
962061.442
 20
7300354.815
 30
0.0
  0
VERTEX
  8
0
  6
CONTINUOUS
 62
     2
  5
EA
 10
962227.836
 20
7300349.565
 30
0.0
  0
VERTEX
  8
0
  6
CONTINUOUS
 62
     2
  5
EB
 10
962222.408
 20
7300177.578
 30
0.0
  0
SEQEND
  8
0
  6
CONTINUOUS
 62
     2
  5
EC
  0
POLYLINE
  8
0
  6
CONTINUOUS
 62
     2
  5
ED
 66
     1
 10
0.0
 20
0.0
 30
0.0
 70
     1
  0
VERTEX
  8
0
  6
CONTINUOUS
 62
     2
  5
EE
 10
962557.085
 20
7299671.847
 30
0.0
  0
VERTEX
  8
0
  6
CONTINUOUS
 62
     2
  5
EF
 10
962559.638
 20
7299752.728
 30
0.0
  0
VERTEX
  8
0
  6
CONTINUOUS
 62
     2
  5
F0
 10
962757.996
 20
7299746.468
 30
0.0
  0
VERTEX
  8
0
  6
CONTINUOUS
 62
     2
  5
F1
 10
962755.443
 20
7299665.588
 30
0.0
  0
SEQEND
  8
0
  6
CONTINUOUS
 62
     2
  5
F2
  0
POLYLINE
  8
0
  6
CONTINUOUS
 62
     2
  5
F3
 66
     1
 10
0.0
 20
0.0
 30
0.0
 70
     1
  0
VERTEX
  8
0
  6
CONTINUOUS
 62
     2
  5
F4
 10
962764.042
 20
7300962.722
 30
0.0
  0
VERTEX
  8
0
  6
CONTINUOUS
 62
     2
  5
F5
 10
962762.645
 20
7300918.444
 30
0.0
  0
VERTEX
  8
0
  6
CONTINUOUS
 62
     2
  5
F6
 10
962795.746
 20
7300917.399
 30
0.0
  0
VERTEX
  8
0
  6
CONTINUOUS
 62
     2
  5
F7
 10
962797.143
 20
7300961.677
 30
0.0
  0
SEQEND
  8
0
  6
CONTINUOUS
 62
     2
  5
F8
  0
POLYLINE
  8
0
  6
CONTINUOUS
 62
     2
  5
F9
 66
     1
 10
0.0
 20
0.0
 30
0.0
 70
     1
  0
VERTEX
  8
0
  6
CONTINUOUS
 62
     2
  5
FA
 10
962741.078
 20
7300623.451
 30
0.0
  0
VERTEX
  8
0
  6
CONTINUOUS
 62
     2
  5
FB
 10
962740.674
 20
7300610.664
 30
0.0
  0
VERTEX
  8
0
  6
CONTINUOUS
 62
     2
  5
FC
 10
962765.701
 20
7300609.874
 30
0.0
  0
VERTEX
  8
0
  6
CONTINUOUS
 62
     2
  5
FD
 10
962766.104
 20
7300622.662
 30
0.0
  0
SEQEND
  8
0
  6
CONTINUOUS
 62
     2
  5
FE
  0
POLYLINE
  8
0
  6
CONTINUOUS
 62
     2
  5
FF
 66
     1
 10
0.0
 20
0.0
 30
0.0
 70
     1
  0
VERTEX
  8
0
  6
CONTINUOUS
 62
     2
  5
100
 10
962758.794
 20
7300604.433
 30
0.0
  0
VERTEX
  8
0
  6
CONTINUOUS
 62
     2
  5
101
 10
962757.227
 20
7300554.78
 30
0.0
  0
VERTEX
  8
0
  6
CONTINUOUS
 62
     2
  5
102
 10
962784.343
 20
7300553.924
 30
0.0
  0
VERTEX
  8
0
  6
CONTINUOUS
 62
     2
  5
103
 10
962785.91
 20
7300603.577
 30
0.0
  0
SEQEND
  8
0
  6
CONTINUOUS
 62
     2
  5
104
  0
POLYLINE
  8
0
  6
CONTINUOUS
 62
     2
  5
105
 66
     1
 10
0.0
 20
0.0
 30
0.0
 70
     1
  0
VERTEX
  8
0
  6
CONTINUOUS
 62
     2
  5
106
 10
962694.108
 20
7300503.088
 30
0.0
  0
VERTEX
  8
0
  6
CONTINUOUS
 62
     2
  5
107
 10
962693.325
 20
7300478.264
 30
0.0
  0
VERTEX
  8
0
  6
CONTINUOUS
 62
     2
  5
108
 10
962726.899
 20
7300477.205
 30
0.0
  0
VERTEX
  8
0
  6
CONTINUOUS
 62
     2
  5
109
 10
962727.682
 20
7300502.028
 30
0.0
  0
SEQEND
  8
0
  6
CONTINUOUS
 62
     2
  5
10A
  0
LINE
  8
0
  6
CONTINUOUS
 62
     7
  5
10B
 10
961200.982
 20
7299595.971
 30
0.0
 11
961208.116
 21
7299822.047
 31
0.0
  0
LINE
  8
0
  6
CONTINUOUS
 62
     7
  5
10C
 10
961220.957
 20
7299595.341
 30
0.0
 11
961228.092
 21
7299821.416
 31
0.0
  0
LINE
  8
0
  6
CONTINUOUS
 62
     7
  5
10D
 10
960317.013
 20
7300540.394
 30
0.0
 11
961219.841
 21
7300511.903
 31
0.0
  0
LINE
  8
0
  6
CONTINUOUS
 62
     7
  5
10E
 10
960316.382
 20
7300520.406
 30
0.0
 11
961219.211
 21
7300491.915
 31
0.0
  0
LINE
  8
0
  6
CONTINUOUS
 62
     7
  5
10F
 10
961805.761
 20
7300531.67
 30
0.0
 11
961827.975
 21
7300497.091
 31
0.0
  0
LINE
  8
0
  6
CONTINUOUS
 62
     7
  5
110
 10
961836.114
 20
7300492.455
 30
0.0
 11
962833.347
 21
7300460.985
 31
0.0
  0
LINE
  8
0
  6
CONTINUOUS
 62
     7
  5
111
 10
961230.191
 20
7300521.54
 30
0.0
 11
961259.293
 21
7301443.748
 31
0.0
  0
LINE
  8
0
  6
CONTINUOUS
 62
     7
  5
112
 10
961250.166
 20
7300520.91
 30
0.0
 11
961279.268
 21
7301443.118
 31
0.0
  0
LINE
  8
0
  6
CONTINUOUS
 62
     7
  5
113
 10
961259.812
 20
7300510.642
 30
0.0
 11
961769.434
 21
7300494.559
 31
0.0
  0
LINE
  8
0
  6
CONTINUOUS
 62
     7
  5
114
 10
961259.181
 20
7300490.654
 30
0.0
 11
961971.062
 21
7300468.189
 31
0.0
  0
LINE
  8
0
  6
CONTINUOUS
 62
     7
  5
115
 10
960296.327
 20
7299884.894
 30
0.0
 11
961199.156
 21
7299856.403
 31
0.0
  0
LINE
  8
0
  6
CONTINUOUS
 62
     7
  5
116
 10
960295.569
 20
7299860.882
 30
0.0
 11
961198.398
 21
7299832.391
 31
0.0
  0
LINE
  8
0
  6
CONTINUOUS
 62
     7
  5
117
 10
961229.48
 20
7299865.424
 30
0.0
 11
961248.904
 21
7300480.94
 31
0.0
  0
LINE
  8
0
  6
CONTINUOUS
 62
     7
  5
118
 10
961239.126
 20
7299855.142
 30
0.0
 11
961951.007
 21
7299832.677
 31
0.0
  0
LINE
  8
0
  6
CONTINUOUS
 62
     7
  5
119
 10
961209.505
 20
7299866.055
 30
0.0
 11
961228.929
 21
7300481.57
 31
0.0
  0
LINE
  8
0
  6
CONTINUOUS
 62
     7
  5
11A
 10
961238.368
 20
7299831.13
 30
0.0
 11
963917.999
 21
7299746.568
 31
0.0
  0
POLYLINE
  8
0
  6
CONTINUOUS
 62
     2
  5
11B
 66
     1
 10
0.0
 20
0.0
 30
0.0
 70
     1
  0
VERTEX
  8
0
  6
CONTINUOUS
 62
     2
  5
11C
 10
959602.057
 20
7300646.673
 30
0.0
  0
VERTEX
  8
0
  6
CONTINUOUS
 62
     2
  5
11D
 10
959602.881
 20
7300672.774
 30
0.0
  0
VERTEX
  8
0
  6
CONTINUOUS
 62
     2
  5
11E
 10
959632.688
 20
7300671.833
 30
0.0
  0
VERTEX
  8
0
  6
CONTINUOUS
 62
     2
  5
11F
 10
959631.865
 20
7300645.732
 30
0.0
  0
SEQEND
  8
0
  6
CONTINUOUS
 62
     2
  5
120
  0
LINE
  8
0
  6
CONTINUOUS
 62
     2
  5
121
 10
962763.331
 20
7300846.22
 30
0.0
 11
962764.748
 21
7300891.1
 31
0.0
  0
LINE
  8
0
  6
CONTINUOUS
 62
     2
  5
122
 10
962764.748
 20
7300891.1
 30
0.0
 11
962790.179
 21
7300890.297
 31
0.0
  0
LINE
  8
0
  6
CONTINUOUS
 62
     2
  5
123
 10
962790.179
 20
7300890.297
 30
0.0
 11
962789.814
 21
7300878.727
 31
0.0
  0
LINE
  8
0
  6
CONTINUOUS
 62
     2
  5
124
 10
962788.763
 20
7300845.418
 30
0.0
 11
962763.331
 21
7300846.22
 31
0.0
  0
LINE
  8
0
  6
CONTINUOUS
 62
     2
  5
125
 10
962789.425
 20
7300866.413
 30
0.0
 11
962794.944
 21
7300866.239
 31
0.0
  0
LINE
  8
0
  6
CONTINUOUS
 62
     2
  5
126
 10
962794.944
 20
7300866.239
 30
0.0
 11
962795.332
 21
7300878.553
 31
0.0
  0
LINE
  8
0
  6
CONTINUOUS
 62
     2
  5
127
 10
962795.332
 20
7300878.553
 30
0.0
 11
962789.814
 21
7300878.727
 31
0.0
  0
LINE
  8
0
  6
CONTINUOUS
 62
     2
  5
128
 10
962759.286
 20
7300809.844
 30
0.0
 11
962739.365
 21
7300810.472
 31
0.0
  0
LINE
  8
0
  6
CONTINUOUS
 62
     2
  5
129
 10
962739.365
 20
7300810.472
 30
0.0
 11
962738.492
 21
7300782.822
 31
0.0
  0
LINE
  8
0
  6
CONTINUOUS
 62
     2
  5
12A
 10
962738.492
 20
7300782.822
 30
0.0
 11
962758.413
 21
7300782.194
 31
0.0
  0
LINE
  8
0
  6
CONTINUOUS
 62
     2
  5
12B
 10
962759.507
 20
7300816.842
 30
0.0
 11
962759.286
 21
7300809.844
 31
0.0
  0
LINE
  8
0
  6
CONTINUOUS
 62
     2
  5
12C
 10
962758.067
 20
7300771.226
 30
0.0
 11
962787.543
 21
7300770.296
 31
0.0
  0
LINE
  8
0
  6
CONTINUOUS
 62
     2
  5
12D
 10
962787.543
 20
7300770.296
 30
0.0
 11
962788.982
 21
7300815.912
 31
0.0
  0
LINE
  8
0
  6
CONTINUOUS
 62
     2
  5
12E
 10
962788.982
 20
7300815.912
 30
0.0
 11
962759.507
 21
7300816.842
 31
0.0
  0
LINE
  8
0
  6
CONTINUOUS
 62
     2
  5
12F
 10
962757.483
 20
7300752.718
 30
0.0
 11
962755.899
 21
7300702.523
 31
0.0
  0
LINE
  8
0
  6
CONTINUOUS
 62
     2
  5
130
 10
962755.899
 20
7300702.523
 30
0.0
 11
962778.167
 21
7300701.82
 31
0.0
  0
LINE
  8
0
  6
CONTINUOUS
 62
     2
  5
131
 10
962778.167
 20
7300701.82
 30
0.0
 11
962778.528
 21
7300713.262
 31
0.0
  0
LINE
  8
0
  6
CONTINUOUS
 62
     2
  5
132
 10
962779.751
 20
7300752.015
 30
0.0
 11
962757.483
 21
7300752.718
 31
0.0
  0
LINE
  8
0
  6
CONTINUOUS
 62
     2
  5
133
 10
962779.238
 20
7300750.549
 30
0.0
 11
962791.213
 21
7300750.171
 31
0.0
  0
LINE
  8
0
  6
CONTINUOUS
 62
     2
  5
134
 10
962791.213
 20
7300750.171
 30
0.0
 11
962790.036
 21
7300712.899
 31
0.0
  0
LINE
  8
0
  6
CONTINUOUS
 62
     2
  5
135
 10
962790.036
 20
7300712.899
 30
0.0
 11
962778.061
 21
7300713.276
 31
0.0
  0
LINE
  8
0
  6
CONTINUOUS
 62
     2
  5
136
 10
962752.94
 20
7300493.352
 30
0.0
 11
962753.441
 21
7300509.237
 31
0.0
  0
LINE
  8
0
  6
CONTINUOUS
 62
     2
  5
137
 10
962759.84
 20
7300524.319
 30
0.0
 11
962778.347
 21
7300523.735
 31
0.0
  0
LINE
  8
0
  6
CONTINUOUS
 62
     2
  5
138
 10
962778.347
 20
7300523.735
 30
0.0
 11
962777.364
 21
7300492.582
 31
0.0
  0
LINE
  8
0
  6
CONTINUOUS
 62
     2
  5
139
 10
962777.364
 20
7300492.582
 30
0.0
 11
962752.94
 21
7300493.352
 31
0.0
  0
LINE
  8
0
  6
CONTINUOUS
 62
     2
  5
13A
 10
962722.62
 20
7300510.209
 30
0.0
 11
962723.397
 21
7300534.83
 31
0.0
  0
LINE
  8
0
  6
CONTINUOUS
 62
     2
  5
13B
 10
962723.397
 20
7300534.83
 30
0.0
 11
962760.135
 21
7300533.671
 31
0.0
  0
LINE
  8
0
  6
CONTINUOUS
 62
     2
  5
13C
 10
962760.135
 20
7300533.671
 30
0.0
 11
962759.84
 21
7300524.319
 31
0.0
  0
LINE
  8
0
  6
CONTINUOUS
 62
     2
  5
13D
 10
962753.441
 20
7300509.237
 30
0.0
 11
962722.62
 21
7300510.209
 31
0.0
  0
LINE
  8
0
  6
CONTINUOUS
 62
     2
  5
13E
 10
962779.704
 20
7300750.534
 30
0.0
 11
962779.751
 21
7300752.015
 31
0.0
  0
LINE
  8
0
  6
CONTINUOUS
 62
     2
  5
13F
 10
962758.413
 20
7300782.194
 30
0.0
 11
962758.067
 21
7300771.226
 31
0.0
  0
LINE
  8
0
  6
CONTINUOUS
 62
     2
  5
140
 10
962789.425
 20
7300866.413
 30
0.0
 11
962788.763
 21
7300845.418
 31
0.0
  0
LINE
  8
0
  6
CONTINUOUS
 62
     7
  5
141
 10
963923.672
 20
7300242.298
 30
0.0
 11
963559.191
 21
7300253.8
 31
0.0
  0
LINE
  8
0
  6
CONTINUOUS
 62
     7
  5
142
 10
963510.707
 20
7300305.311
 30
0.0
 11
963542.963
 21
7301327.435
 31
0.0
  0
LINE
  8
0
  6
CONTINUOUS
 62
     7
  5
143
 10
963562.249
 20
7301306.688
 30
0.0
 11
963531.229
 21
7300323.724
 31
0.0
  0
LINE
  8
0
  6
CONTINUOUS
 62
     7
  5
144
 10
963579.704
 20
7300272.146
 30
0.0
 11
963924.271
 21
7300261.272
 31
0.0
  0
LINE
  8
0
  6
CONTINUOUS
 62
     7
  5
145
 10
962822.615
 20
7299805.171
 30
0.0
 11
962842.353
 21
7300430.655
 31
0.0
  0
LINE
  8
0
  6
CONTINUOUS
 62
     7
  5
146
 10
962842.604
 20
7299804.541
 30
0.0
 11
962849.454
 21
7300021.61
 31
0.0
  0
LINE
  8
0
  6
CONTINUOUS
 62
     7
  5
147
 10
962843.614
 20
7300470.625
 30
0.0
 11
962872.717
 21
7301392.833
 31
0.0
  0
LINE
  8
0
  6
CONTINUOUS
 62
     7
  5
148
 10
963929.099
 20
7299780.232
 30
0.0
 11
963943.028
 21
7300221.617
 31
0.0
  0
LINE
  8
0
  6
CONTINUOUS
 62
     7
  5
149
 10
963944.891
 20
7300280.63
 30
0.0
 11
963947.598
 21
7300366.413
 31
0.0
  0
CIRCLE
  8
0
  6
CONTINUOUS
 62
     7
  5
14A
 10
963581.213164
 20
7300330.827653
 30
0.0
 40
27.514329
210
0.0
220
0.0
230
1.0
  0
POLYLINE
  8
0
  6
CONTINUOUS
 62
     2
  5
14B
 66
     1
 10
0.0
 20
0.0
 30
0.0
 70
     1
  0
VERTEX
  8
0
  6
CONTINUOUS
 62
     2
  5
14C
 10
963541.221
 20
7300495.356
 30
0.0
  0
VERTEX
  8
0
  6
CONTINUOUS
 62
     2
  5
14D
 10
963538.396
 20
7300405.86
 30
0.0
  0
VERTEX
  8
0
  6
CONTINUOUS
 62
     2
  5
14E
 10
963617.52
 20
7300403.363
 30
0.0
  0
VERTEX
  8
0
  6
CONTINUOUS
 62
     2
  5
14F
 10
963620.344
 20
7300492.859
 30
0.0
  0
SEQEND
  8
0
  6
CONTINUOUS
 62
     2
  5
150
  0
POLYLINE
  8
0
  6
CONTINUOUS
 62
     7
  5
151
 66
     1
 10
0.0
 20
0.0
 30
0.0
 70
     1
  0
VERTEX
  8
0
  6
CONTINUOUS
 62
     7
  5
152
 10
963617.218
 20
7300521.847
 30
0.0
  0
VERTEX
  8
0
  6
CONTINUOUS
 62
     7
  5
153
 10
963618.229
 20
7300553.878
 30
0.0
  0
VERTEX
  8
0
  6
CONTINUOUS
 62
     7
  5
154
 10
963849.694
 20
7300546.574
 30
0.0
  0
VERTEX
  8
0
  6
CONTINUOUS
 62
     7
  5
155
 10
963848.683
 20
7300514.543
 30
0.0
  0
SEQEND
  8
0
  6
CONTINUOUS
 62
     7
  5
156
  0
LINE
  8
0
  6
CONTINUOUS
 62
     7
  5
157
 10
963652.688
 20
7300552.791
 30
0.0
 11
963651.734
 21
7300522.578
 31
0.0
  0
LINE
  8
0
  6
CONTINUOUS
 62
     7
  5
158
 10
963686.532
 20
7300551.723
 30
0.0
 11
963685.521
 21
7300519.691
 31
0.0
  0
LINE
  8
0
  6
CONTINUOUS
 62
     7
  5
159
 10
963719.429
 20
7300550.684
 30
0.0
 11
963718.419
 21
7300518.653
 31
0.0
  0
LINE
  8
0
  6
CONTINUOUS
 62
     7
  5
15A
 10
963754.145
 20
7300549.589
 30
0.0
 11
963753.134
 21
7300517.558
 31
0.0
  0
LINE
  8
0
  6
CONTINUOUS
 62
     7
  5
15B
 10
963786.448
 20
7300548.569
 30
0.0
 11
963785.437
 21
7300516.538
 31
0.0
  0
LINE
  8
0
  6
CONTINUOUS
 62
     7
  5
15C
 10
963817.999
 20
7300547.574
 30
0.0
 11
963816.989
 21
7300515.543
 31
0.0
  0
LINE
  8
0
  6
CONTINUOUS
 62
     7
  5
15D
 10
963819.993
 20
7300610.758
 30
0.0
 11
963818.98
 21
7300578.659
 31
0.0
  0
LINE
  8
0
  6
CONTINUOUS
 62
     7
  5
15E
 10
963788.442
 20
7300611.754
 30
0.0
 11
963787.429
 21
7300579.655
 31
0.0
  0
LINE
  8
0
  6
CONTINUOUS
 62
     7
  5
15F
 10
963721.423
 20
7300613.869
 30
0.0
 11
963720.41
 21
7300581.77
 31
0.0
  0
LINE
  8
0
  6
CONTINUOUS
 62
     7
  5
160
 10
963688.526
 20
7300614.907
 30
0.0
 11
963687.513
 21
7300582.808
 31
0.0
  0
LINE
  8
0
  6
CONTINUOUS
 62
     7
  5
161
 10
963654.682
 20
7300615.975
 30
0.0
 11
963653.726
 21
7300585.688
 31
0.0
  0
LINE
  8
0
  6
CONTINUOUS
 62
     7
  5
162
 10
963735.5
 20
7300650.268
 30
0.0
 11
963734.339
 21
7300613.461
 31
0.0
  0
LINE
  8
0
  6
CONTINUOUS
 62
     7
  5
163
 10
963756.139
 20
7300612.773
 30
0.0
 11
963757.301
 21
7300649.58
 31
0.0
  0
LINE
  8
0
  6
CONTINUOUS
 62
     7
  5
164
 10
963757.301
 20
7300649.58
 30
0.0
 11
963735.5
 21
7300650.268
 31
0.0
  0
LINE
  8
0
  6
CONTINUOUS
 62
     7
  5
165
 10
963619.21
 20
7300584.963
 30
0.0
 11
963620.223
 21
7300617.063
 31
0.0
  0
LINE
  8
0
  6
CONTINUOUS
 62
     7
  5
166
 10
963620.223
 20
7300617.063
 30
0.0
 11
963734.339
 21
7300613.461
 31
0.0
  0
LINE
  8
0
  6
CONTINUOUS
 62
     7
  5
167
 10
963851.687
 20
7300609.758
 30
0.0
 11
963850.675
 21
7300577.659
 31
0.0
  0
LINE
  8
0
  6
CONTINUOUS
 62
     7
  5
168
 10
963850.675
 20
7300577.659
 30
0.0
 11
963619.21
 21
7300584.963
 31
0.0
  0
LINE
  8
0
  6
CONTINUOUS
 62
     7
  5
169
 10
963756.139
 20
7300612.773
 30
0.0
 11
963851.687
 21
7300609.758
 31
0.0
  0
LINE
  8
0
  6
CONTINUOUS
 62
     2
  5
16A
 10
963857.372
 20
7300548.822
 30
0.0
 11
963818.146
 21
7300550.06
 31
0.0
  0
LINE
  8
0
  6
CONTINUOUS
 62
     2
  5
16B
 10
963818.146
 20
7300550.06
 30
0.0
 11
963818.925
 21
7300574.755
 31
0.0
  0
LINE
  8
0
  6
CONTINUOUS
 62
     2
  5
16C
 10
963818.925
 20
7300574.755
 30
0.0
 11
963858.152
 21
7300573.517
 31
0.0
  0
LINE
  8
0
  6
CONTINUOUS
 62
     2
  5
16D
 10
963856.744
 20
7300528.908
 30
0.0
 11
963857.372
 21
7300548.822
 31
0.0
  0
LINE
  8
0
  6
CONTINUOUS
 62
     2
  5
16E
 10
963858.496
 20
7300584.418
 30
0.0
 11
963898.061
 21
7300583.169
 31
0.0
  0
LINE
  8
0
  6
CONTINUOUS
 62
     2
  5
16F
 10
963898.061
 20
7300583.169
 30
0.0
 11
963896.309
 21
7300527.66
 31
0.0
  0
LINE
  8
0
  6
CONTINUOUS
 62
     2
  5
170
 10
963896.309
 20
7300527.66
 30
0.0
 11
963856.744
 21
7300528.908
 31
0.0
  0
LINE
  8
0
  6
CONTINUOUS
 62
     2
  5
171
 10
963858.152
 20
7300573.517
 30
0.0
 11
963858.496
 21
7300584.418
 31
0.0
  0
LINE
  8
0
  6
CONTINUOUS
 62
     2
  5
172
 10
963609.473
 20
7300536.84
 30
0.0
 11
963610.023
 21
7300554.273
 31
0.0
  0
LINE
  8
0
  6
CONTINUOUS
 62
     2
  5
173
 10
963611.728
 20
7300608.301
 30
0.0
 11
963576.404
 21
7300609.416
 31
0.0
  0
LINE
  8
0
  6
CONTINUOUS
 62
     2
  5
174
 10
963576.404
 20
7300609.416
 30
0.0
 11
963574.149
 21
7300537.954
 31
0.0
  0
LINE
  8
0
  6
CONTINUOUS
 62
     2
  5
175
 10
963574.149
 20
7300537.954
 30
0.0
 11
963609.473
 21
7300536.84
 31
0.0
  0
LINE
  8
0
  6
CONTINUOUS
 62
     2
  5
176
 10
963610.989
 20
7300584.891
 30
0.0
 11
963642.549
 21
7300583.895
 31
0.0
  0
LINE
  8
0
  6
CONTINUOUS
 62
     2
  5
177
 10
963642.549
 20
7300583.895
 30
0.0
 11
963641.582
 21
7300553.277
 31
0.0
  0
LINE
  8
0
  6
CONTINUOUS
 62
     2
  5
178
 10
963641.582
 20
7300553.277
 30
0.0
 11
963610.023
 21
7300554.273
 31
0.0
  0
LINE
  8
0
  6
CONTINUOUS
 62
     2
  5
179
 10
963610.989
 20
7300584.891
 30
0.0
 11
963611.728
 21
7300608.301
 31
0.0
  0
LINE
  8
0
  6
CONTINUOUS
 62
     7
  5
17A
 10
963581.438
 20
7301184.847
 30
0.0
 11
963564.76
 21
7300656.325
 31
0.0
  0
LINE
  8
0
  6
CONTINUOUS
 62
     7
  5
17B
 10
963564.76
 20
7300656.325
 30
0.0
 11
963908.92
 21
7300645.465
 31
0.0
  0
LINE
  8
0
  6
CONTINUOUS
 62
     7
  5
17C
 10
963908.92
 20
7300645.465
 30
0.0
 11
963925.599
 21
7301173.987
 31
0.0
  0
LINE
  8
0
  6
CONTINUOUS
 62
     7
  5
17D
 10
963629.649
 20
7300766.281
 30
0.0
 11
963568.291
 21
7300768.218
 31
0.0
  0
LINE
  8
0
  6
CONTINUOUS
 62
     7
  5
17E
 10
963745.082
 20
7300761.697
 30
0.0
 11
963847.019
 21
7300758.48
 31
0.0
  0
LINE
  8
0
  6
CONTINUOUS
 62
     7
  5
17F
 10
963683.177
 20
7300652.589
 30
0.0
 11
963699.855
 21
7301181.11
 31
0.0
  0
LINE
  8
0
  6
CONTINUOUS
 62
     7
  5
180
 10
963793.188
 20
7300649.117
 30
0.0
 11
963809.867
 21
7301177.639
 31
0.0
  0
LINE
  8
0
  6
CONTINUOUS
 62
     7
  5
181
 10
963571.762
 20
7300878.229
 30
0.0
 11
963915.923
 21
7300867.368
 31
0.0
  0
LINE
  8
0
  6
CONTINUOUS
 62
     7
  5
182
 10
963714.642
 20
7300889.952
 30
0.0
 11
963762.49
 21
7300888.442
 31
0.0
  0
LINE
  8
0
  6
CONTINUOUS
 62
     7
  5
183
 10
963714.642
 20
7300889.952
 30
0.0
 11
963700.207
 21
7300874.176
 31
0.0
  0
LINE
  8
0
  6
CONTINUOUS
 62
     7
  5
184
 10
963762.49
 20
7300888.442
 30
0.0
 11
963775.834
 21
7300871.789
 31
0.0
  0
ARC
  8
0
  6
CONTINUOUS
 62
     7
  5
185
 10
963965.645866
 20
7300555.921072
 30
0.0
 40
38.366447
 50
106.449647
 51
249.93535
210
0.0
220
0.0
230
1.0
  0
LINE
  8
0
  6
CONTINUOUS
 62
     7
  5
186
 10
963954.741
 20
7300592.759
 30
0.0
 11
963973.127
 21
7301175.384
 31
0.0
  0
LINE
  8
0
  6
CONTINUOUS
 62
     7
  5
187
 10
963948.469
 20
7300366.385
 30
0.0
 11
963904.53
 21
7300367.772
 31
0.0
  0
LINE
  8
0
  6
CONTINUOUS
 62
     7
  5
188
 10
963904.53
 20
7300367.772
 30
0.0
 11
963907.762
 21
7300470.183
 31
0.0
  0
LINE
  8
0
  6
CONTINUOUS
 62
     7
  5
189
 10
963907.762
 20
7300470.183
 30
0.0
 11
963951.701
 21
7300468.796
 31
0.0
  0
LINE
  8
0
  6
CONTINUOUS
 62
     7
  5
18A
 10
963950.83
 20
7300468.824
 30
0.0
 11
963952.441
 21
7300519.891
 31
0.0
  0
LINE
  8
0
  6
CONTINUOUS
 62
     7
  5
18B
 10
963845.933
 20
7300267.385
 30
0.0
 11
963848.544
 21
7300350.146
 31
0.0
  0
LINE
  8
0
  6
CONTINUOUS
 62
     7
  5
18C
 10
963848.544
 20
7300350.146
 30
0.0
 11
963947.588
 21
7300347.021
 31
0.0
  0
LINE
  8
0
  6
CONTINUOUS
 62
     7
  5
18D
 10
963656.594
 20
7300486.732
 30
0.0
 11
963649.867
 21
7300273.573
 31
0.0
  0
LINE
  8
0
  6
CONTINUOUS
 62
     7
  5
18E
 10
963649.867
 20
7300273.573
 30
0.0
 11
963845.933
 21
7300267.385
 31
0.0
  0
LINE
  8
0
  6
CONTINUOUS
 62
     7
  5
18F
 10
963845.933
 20
7300267.385
 30
0.0
 11
963852.659
 21
7300480.545
 31
0.0
  0
LINE
  8
0
  6
CONTINUOUS
 62
     7
  5
190
 10
963852.659
 20
7300480.545
 30
0.0
 11
963656.594
 21
7300486.732
 31
0.0
  0
LINE
  8
0
  6
CONTINUOUS
 62
     7
  5
191
 10
963441.189
 20
7300552.527
 30
0.0
 11
963444.61
 21
7300660.922
 31
0.0
  0
LINE
  8
0
  6
CONTINUOUS
 62
     7
  5
192
 10
963419.238
 20
7300661.723
 30
0.0
 11
963415.818
 21
7300553.328
 31
0.0
  0
LINE
  8
0
  6
CONTINUOUS
 62
     7
  5
193
 10
963371.08
 20
7300554.74
 30
0.0
 11
963374.501
 21
7300663.135
 31
0.0
  0
LINE
  8
0
  6
CONTINUOUS
 62
     7
  5
194
 10
963374.501
 20
7300663.135
 30
0.0
 11
963486.128
 21
7300659.612
 31
0.0
  0
LINE
  8
0
  6
CONTINUOUS
 62
     7
  5
195
 10
963486.128
 20
7300659.612
 30
0.0
 11
963482.707
 21
7300551.217
 31
0.0
  0
LINE
  8
0
  6
CONTINUOUS
 62
     7
  5
196
 10
963482.707
 20
7300551.217
 30
0.0
 11
963371.08
 21
7300554.74
 31
0.0
  0
LINE
  8
0
  6
CONTINUOUS
 62
     7
  5
197
 10
963373.367
 20
7300627.202
 30
0.0
 11
963418.104
 21
7300625.79
 31
0.0
  0
LINE
  8
0
  6
CONTINUOUS
 62
     7
  5
198
 10
963372.292
 20
7300593.155
 30
0.0
 11
963417.03
 21
7300591.743
 31
0.0
  0
LINE
  8
0
  6
CONTINUOUS
 62
     7
  5
199
 10
963443.476
 20
7300624.989
 30
0.0
 11
963484.994
 21
7300623.679
 31
0.0
  0
LINE
  8
0
  6
CONTINUOUS
 62
     7
  5
19A
 10
963442.401
 20
7300590.942
 30
0.0
 11
963483.92
 21
7300589.632
 31
0.0
  0
POLYLINE
  8
0
  6
CONTINUOUS
 62
     2
  5
19B
 66
     1
 10
0.0
 20
0.0
 30
0.0
 70
     1
  0
VERTEX
  8
0
  6
CONTINUOUS
 62
     2
  5
19C
 10
963064.59
 20
7299840.714
 30
0.0
  0
VERTEX
  8
0
  6
CONTINUOUS
 62
     2
  5
19D
 10
963067.149
 20
7299921.79
 30
0.0
  0
VERTEX
  8
0
  6
CONTINUOUS
 62
     2
  5
19E
 10
963273.378
 20
7299915.282
 30
0.0
  0
VERTEX
  8
0
  6
CONTINUOUS
 62
     2
  5
19F
 10
963270.819
 20
7299834.206
 30
0.0
  0
SEQEND
  8
0
  6
CONTINUOUS
 62
     2
  5
1A0
  0
POLYLINE
  8
0
  6
CONTINUOUS
 62
     2
  5
1A1
 66
     1
 10
0.0
 20
0.0
 30
0.0
 70
     1
  0
VERTEX
  8
0
  6
CONTINUOUS
 62
     2
  5
1A2
 10
963069.204
 20
7299986.93
 30
0.0
  0
VERTEX
  8
0
  6
CONTINUOUS
 62
     2
  5
1A3
 10
963071.762
 20
7300068.0
 30
0.0
  0
VERTEX
  8
0
  6
CONTINUOUS
 62
     2
  5
1A4
 10
963277.992
 20
7300061.492
 30
0.0
  0
VERTEX
  8
0
  6
CONTINUOUS
 62
     2
  5
1A5
 10
963275.433
 20
7299980.422
 30
0.0
  0
SEQEND
  8
0
  6
CONTINUOUS
 62
     2
  5
1A6
  0
POLYLINE
  8
0
  6
CONTINUOUS
 62
     2
  5
1A7
 66
     1
 10
0.0
 20
0.0
 30
0.0
 70
     1
  0
VERTEX
  8
0
  6
CONTINUOUS
 62
     2
  5
1A8
 10
962895.183
 20
7300132.508
 30
0.0
  0
VERTEX
  8
0
  6
CONTINUOUS
 62
     2
  5
1A9
 10
962897.744
 20
7300213.653
 30
0.0
  0
VERTEX
  8
0
  6
CONTINUOUS
 62
     2
  5
1AA
 10
963103.899
 20
7300207.147
 30
0.0
  0
VERTEX
  8
0
  6
CONTINUOUS
 62
     2
  5
1AB
 10
963101.339
 20
7300126.003
 30
0.0
  0
SEQEND
  8
0
  6
CONTINUOUS
 62
     2
  5
1AC
  0
POLYLINE
  8
0
  6
CONTINUOUS
 62
     2
  5
1AD
 66
     1
 10
0.0
 20
0.0
 30
0.0
 70
     1
  0
VERTEX
  8
0
  6
CONTINUOUS
 62
     2
  5
1AE
 10
962899.09
 20
7300271.537
 30
0.0
  0
VERTEX
  8
0
  6
CONTINUOUS
 62
     2
  5
1AF
 10
962901.651
 20
7300352.682
 30
0.0
  0
VERTEX
  8
0
  6
CONTINUOUS
 62
     2
  5
1B0
 10
963107.82
 20
7300346.176
 30
0.0
  0
VERTEX
  8
0
  6
CONTINUOUS
 62
     2
  5
1B1
 10
963105.259
 20
7300265.031
 30
0.0
  0
SEQEND
  8
0
  6
CONTINUOUS
 62
     2
  5
1B2
  0
LINE
  8
0
  6
CONTINUOUS
 62
     7
  5
1B3
 10
963910.499
 20
7299190.811
 30
0.0
 11
963927.711
 21
7299736.224
 31
0.0
  0
LINE
  8
0
  6
CONTINUOUS
 62
     7
  5
1B4
 10
960270.184
 20
7299374.318
 30
0.0
 11
960285.232
 21
7299851.17
 31
0.0
  0
LINE
  8
0
  6
CONTINUOUS
 62
     7
  5
1B5
 10
960235.203
 20
7299373.669
 30
0.0
 11
960331.67
 21
7302430.567
 31
0.0
  0
LINE
  8
0
  6
CONTINUOUS
 62
     7
  5
1B6
 10
960307.306
 20
7300550.664
 30
0.0
 11
960336.408
 21
7301472.872
 31
0.0
  0
LINE
  8
0
  6
CONTINUOUS
 62
     7
  5
1B7
 10
960286.621
 20
7299895.178
 30
0.0
 11
960306.045
 21
7300510.694
 31
0.0
  0
ARC
  8
0
  6
CONTINUOUS
 62
     7
  5
1B8
 10
960175.245137
 20
7299375.548441
 30
0.0
 40
60.000197
 50
319.652464
 51
358.1925
210
0.0
220
0.0
230
1.0
  0
LINE
  8
0
  6
CONTINUOUS
 62
     2
  5
1B9
 10
959285.127
 20
7302749.913
 30
0.0
 11
959286.338
 21
7302749.874
 31
0.0
  0
LINE
  8
0
  6
CONTINUOUS
 62
     2
  5
1BA
 10
959905.972
 20
7302738.938
 30
0.0
 11
959906.615
 21
7302759.325
 31
0.0
  0
LINE
  8
0
  6
CONTINUOUS
 62
     2
  5
1BB
 10
959906.615
 20
7302759.325
 30
0.0
 11
959950.616
 21
7302757.936
 31
0.0
  0
LINE
  8
0
  6
CONTINUOUS
 62
     2
  5
1BC
 10
959950.616
 20
7302757.936
 30
0.0
 11
959949.973
 21
7302737.549
 31
0.0
  0
POLYLINE
  8
0
  6
CONTINUOUS
 62
     2
  5
1BD
 66
     1
 10
0.0
 20
0.0
 30
0.0
  0
VERTEX
  8
0
  6
CONTINUOUS
 62
     2
  5
1BE
 10
959986.574
 20
7302657.193
 30
0.0
  0
VERTEX
  8
0
  6
CONTINUOUS
 62
     2
  5
1BF
 10
959989.071
 20
7302736.315
 30
0.0
  0
VERTEX
  8
0
  6
CONTINUOUS
 62
     2
  5
1C0
 10
959949.973
 20
7302737.549
 30
0.0
  0
SEQEND
  8
0
  6
CONTINUOUS
 62
     2
  5
1C1
  0
POLYLINE
  8
0
  6
CONTINUOUS
 62
     2
  5
1C2
 66
     1
 10
0.0
 20
0.0
 30
0.0
  0
VERTEX
  8
0
  6
CONTINUOUS
 62
     2
  5
1C3
 10
959905.972
 20
7302738.938
 30
0.0
  0
VERTEX
  8
0
  6
CONTINUOUS
 62
     2
  5
1C4
 10
959903.475
 20
7302659.815
 30
0.0
  0
VERTEX
  8
0
  6
CONTINUOUS
 62
     2
  5
1C5
 10
959986.574
 20
7302657.193
 30
0.0
  0
SEQEND
  8
0
  6
CONTINUOUS
 62
     2
  5
1C6
  0
POLYLINE
  8
0
  6
CONTINUOUS
 62
     2
  5
1C7
 66
     1
 10
0.0
 20
0.0
 30
0.0
 70
     1
  0
VERTEX
  8
0
  6
CONTINUOUS
 62
     2
  5
1C8
 10
959873.563
 20
7301626.563
 30
0.0
  0
VERTEX
  8
0
  6
CONTINUOUS
 62
     2
  5
1C9
 10
959870.771
 20
7301538.088
 30
0.0
  0
VERTEX
  8
0
  6
CONTINUOUS
 62
     2
  5
1CA
 10
959930.919
 20
7301536.19
 30
0.0
  0
VERTEX
  8
0
  6
CONTINUOUS
 62
     2
  5
1CB
 10
959933.711
 20
7301624.665
 30
0.0
  0
SEQEND
  8
0
  6
CONTINUOUS
 62
     2
  5
1CC
  0
POLYLINE
  8
0
  6
CONTINUOUS
 62
     2
  5
1CD
 66
     1
 10
0.0
 20
0.0
 30
0.0
 70
     1
  0
VERTEX
  8
0
  6
CONTINUOUS
 62
     2
  5
1CE
 10
959859.531
 20
7301248.218
 30
0.0
  0
VERTEX
  8
0
  6
CONTINUOUS
 62
     2
  5
1CF
 10
959855.641
 20
7301124.953
 30
0.0
  0
VERTEX
  8
0
  6
CONTINUOUS
 62
     2
  5
1D0
 10
959937.402
 20
7301122.373
 30
0.0
  0
VERTEX
  8
0
  6
CONTINUOUS
 62
     2
  5
1D1
 10
959941.291
 20
7301245.638
 30
0.0
  0
SEQEND
  8
0
  6
CONTINUOUS
 62
     2
  5
1D2
  0
LINE
  8
0
  6
CONTINUOUS
 62
     7
  5
1D3
 10
960433.055
 20
7302341.432
 30
0.0
 11
960434.637
 21
7302391.559
 31
0.0
  0
LINE
  8
0
  6
CONTINUOUS
 62
     7
  5
1D4
 10
960436.216
 20
7302396.762
 30
0.0
 11
960465.231
 21
7302441.305
 31
0.0
  0
LINE
  8
0
  6
CONTINUOUS
 62
     7
  5
1D5
 10
960511.537
 20
7302295.242
 30
0.0
 11
960525.473
 21
7302294.803
 31
0.0
  0
LINE
  8
0
  6
CONTINUOUS
 62
     7
  5
1D6
 10
960525.473
 20
7302294.803
 30
0.0
 11
960529.043
 21
7302407.904
 31
0.0
  0
LINE
  8
0
  6
CONTINUOUS
 62
     7
  5
1D7
 10
960529.043
 20
7302407.904
 30
0.0
 11
960500.649
 21
7302408.8
 31
0.0
  0
POLYLINE
  8
0
  6
CONTINUOUS
 62
     2
  5
1D8
 66
     1
 10
0.0
 20
0.0
 30
0.0
 70
     1
  0
VERTEX
  8
0
  6
CONTINUOUS
 62
     2
  5
1D9
 10
960252.441
 20
7302124.459
 30
0.0
  0
VERTEX
  8
0
  6
CONTINUOUS
 62
     2
  5
1DA
 10
960252.874
 20
7302138.186
 30
0.0
  0
VERTEX
  8
0
  6
CONTINUOUS
 62
     2
  5
1DB
 10
960268.954
 20
7302137.678
 30
0.0
  0
VERTEX
  8
0
  6
CONTINUOUS
 62
     2
  5
1DC
 10
960268.521
 20
7302123.951
 30
0.0
  0
SEQEND
  8
0
  6
CONTINUOUS
 62
     2
  5
1DD
  0
LINE
  8
0
  6
CONTINUOUS
 62
     2
  5
1DE
 10
959054.063
 20
7302176.423
 30
0.0
 11
959255.112
 21
7302170.079
 31
0.0
  0
LINE
  8
0
  6
CONTINUOUS
 62
     2
  5
1DF
 10
959950.37
 20
7301949.651
 30
0.0
 11
959973.05
 21
7301948.935
 31
0.0
  0
LINE
  8
0
  6
CONTINUOUS
 62
     2
  5
1E0
 10
959973.05
 20
7301948.935
 30
0.0
 11
959971.184
 21
7301889.793
 31
0.0
  0
LINE
  8
0
  6
CONTINUOUS
 62
     2
  5
1E1
 10
959971.184
 20
7301889.793
 30
0.0
 11
959948.503
 21
7301890.509
 31
0.0
  0
LINE
  8
0
  6
CONTINUOUS
 62
     2
  5
1E2
 10
959891.572
 20
7302073.486
 30
0.0
 11
959885.861
 21
7301892.486
 31
0.0
  0
LINE
  8
0
  6
CONTINUOUS
 62
     2
  5
1E3
 10
959885.861
 20
7301892.486
 30
0.0
 11
959948.639
 21
7301890.505
 31
0.0
  0
LINE
  8
0
  6
CONTINUOUS
 62
     2
  5
1E4
 10
959950.506
 20
7301949.646
 30
0.0
 11
959954.351
 21
7302071.505
 31
0.0
  0
LINE
  8
0
  6
CONTINUOUS
 62
     2
  5
1E5
 10
959954.351
 20
7302071.505
 30
0.0
 11
959891.572
 21
7302073.486
 31
0.0
  0
LINE
  8
0
  6
CONTINUOUS
 62
     2
  5
1E6
 10
959894.505
 20
7302341.458
 30
0.0
 11
959864.766
 21
7302342.396
 31
0.0
  0
LINE
  8
0
  6
CONTINUOUS
 62
     2
  5
1E7
 10
959890.058
 20
7302206.75
 30
0.0
 11
959860.515
 21
7302207.682
 31
0.0
  0
ARC
  8
0
  6
CONTINUOUS
 62
     2
  5
1E8
 10
959866.011306
 20
7302382.389986
 30
0.0
 40
40.000132
 50
178.1925
 51
268.1925
210
0.0
220
0.0
230
1.0
  0
ARC
  8
0
  6
CONTINUOUS
 62
     2
  5
1E9
 10
959859.237028
 20
7302167.723993
 30
0.0
 40
40.000132
 50
88.1925
 51
178.1925
210
0.0
220
0.0
230
1.0
  0
LINE
  8
0
  6
CONTINUOUS
 62
     2
  5
1EA
 10
959890.058
 20
7302206.75
 30
0.0
 11
959894.309
 21
7302341.464
 31
0.0
  0
LINE
  8
0
  6
CONTINUOUS
 62
     2
  5
1EB
 10
959894.186
 20
7302337.555
 30
0.0
 11
959980.375
 21
7302334.835
 31
0.0
  0
LINE
  8
0
  6
CONTINUOUS
 62
     2
  5
1EC
 10
959980.375
 20
7302334.835
 30
0.0
 11
959976.411
 21
7302209.209
 31
0.0
  0
LINE
  8
0
  6
CONTINUOUS
 62
     2
  5
1ED
 10
959976.411
 20
7302209.209
 30
0.0
 11
959890.221
 21
7302211.929
 31
0.0
  0
LINE
  8
0
  6
CONTINUOUS
 62
     2
  5
1EE
 10
959855.685
 20
7301117.54
 30
0.0
 11
959859.934
 21
7301252.179
 31
0.0
  0
ARC
  8
0
  6
CONTINUOUS
 62
     2
  5
1EF
 10
959824.863226
 20
7301078.473416
 30
0.0
 40
40.000132
 50
88.1925
 51
178.1925
210
0.0
220
0.0
230
1.0
  0
ARC
  8
0
  6
CONTINUOUS
 62
     2
  5
1F0
 10
959831.637504
 20
7301293.13941
 30
0.0
 40
40.000132
 50
178.1925
 51
268.1925
210
0.0
220
0.0
230
1.0
  0
LINE
  8
0
  6
CONTINUOUS
 62
     2
  5
1F1
 10
959855.685
 20
7301117.54
 30
0.0
 11
959826.142
 21
7301118.472
 31
0.0
  0
LINE
  8
0
  6
CONTINUOUS
 62
     2
  5
1F2
 10
959860.13
 20
7301252.173
 30
0.0
 11
959830.391
 21
7301253.111
 31
0.0
  0
LINE
  8
0
  6
CONTINUOUS
 62
     2
  5
1F3
 10
959836.998
 20
7302732.497
 30
0.0
 11
959825.991
 21
7302383.691
 31
0.0
  0
POLYLINE
  8
0
  6
CONTINUOUS
 62
     2
  5
1F4
 66
     1
 10
0.0
 20
0.0
 30
0.0
  0
VERTEX
  8
0
  6
CONTINUOUS
 62
     2
  5
1F5
 10
960373.843
 20
7302296.426
 30
0.0
  0
VERTEX
  8
0
  6
CONTINUOUS
 62
     2
  5
1F6
 10
960372.633
 20
7302258.065
 30
0.0
  0
VERTEX
  8
0
  6
CONTINUOUS
 62
     2
  5
1F7
 10
960410.582
 20
7302256.868
 30
0.0
  0
SEQEND
  8
0
  6
CONTINUOUS
 62
     2
  5
1F8
  0
LINE
  8
0
  6
CONTINUOUS
 62
     2
  5
1F9
 10
960411.792
 20
7302295.229
 30
0.0
 11
960373.843
 21
7302296.426
 31
0.0
  0
LINE
  8
0
  6
CONTINUOUS
 62
     2
  5
1FA
 10
960413.27
 20
7302342.056
 30
0.0
 11
960411.792
 21
7302295.229
 31
0.0
  0
POLYLINE
  8
0
  6
CONTINUOUS
 62
     2
  5
1FB
 66
     1
 10
0.0
 20
0.0
 30
0.0
  0
VERTEX
  8
0
  6
CONTINUOUS
 62
     2
  5
1FC
 10
960410.582
 20
7302256.868
 30
0.0
  0
VERTEX
  8
0
  6
CONTINUOUS
 62
     2
  5
1FD
 10
960410.314
 20
7302248.395
 30
0.0
  0
VERTEX
  8
0
  6
CONTINUOUS
 62
     2
  5
1FE
 10
960509.96
 20
7302245.25
 30
0.0
  0
VERTEX
  8
0
  6
CONTINUOUS
 62
     2
  5
1FF
 10
960512.915
 20
7302338.912
 30
0.0
  0
VERTEX
  8
0
  6
CONTINUOUS
 62
     2
  5
200
 10
960413.27
 20
7302342.056
 30
0.0
  0
SEQEND
  8
0
  6
CONTINUOUS
 62
     2
  5
201
  0
LINE
  8
0
  6
CONTINUOUS
 62
     7
  5
202
 10
960373.881
 20
7302660.322
 30
0.0
 11
959987.058
 21
7302672.529
 31
0.0
  0
LINE
  8
0
  6
CONTINUOUS
 62
     7
  5
203
 10
960141.99
 20
7302632.685
 30
0.0
 11
959902.993
 21
7302640.228
 31
0.0
  0
ARC
  8
0
  6
CONTINUOUS
 62
     7
  5
204
 10
960135.778832
 20
7302436.705723
 30
0.0
 40
196.000644
 50
358.1925
 51
88.1925
210
0.0
220
0.0
230
1.0
  0
LINE
  8
0
  6
CONTINUOUS
 62
     7
  5
205
 10
960347.376
 20
7301502.566
 30
0.0
 11
960801.685
 21
7301488.229
 31
0.0
  0
LINE
  8
0
  6
CONTINUOUS
 62
     7
  5
206
 10
960346.746
 20
7301482.584
 30
0.0
 11
961249.574
 21
7301454.093
 31
0.0
  0
LINE
  8
0
  6
CONTINUOUS
 62
     7
  5
207
 10
960337.67
 20
7301512.842
 30
0.0
 11
960346.441
 21
7301790.797
 31
0.0
  0
LINE
  8
0
  6
CONTINUOUS
 62
     7
  5
208
 10
962873.978
 20
7301432.803
 30
0.0
 11
962880.11
 21
7301627.124
 31
0.0
  0
LINE
  8
0
  6
CONTINUOUS
 62
     7
  5
209
 10
962893.901
 20
7301430.083
 30
0.0
 11
962900.099
 21
7301626.494
 31
0.0
  0
LINE
  8
0
  6
CONTINUOUS
 62
     7
  5
20A
 10
961781.424
 20
7301427.271
 30
0.0
 11
961755.15
 21
7300594.688
 31
0.0
  0
LINE
  8
0
  6
CONTINUOUS
 62
     7
  5
20B
 10
961816.344
 20
7301426.169
 30
0.0
 11
961789.923
 21
7300588.94
 31
0.0
  0
LINE
  8
0
  6
CONTINUOUS
 62
     7
  5
20C
 10
961826.681
 20
7301435.881
 30
0.0
 11
962863.08
 21
7301403.175
 31
0.0
  0
LINE
  8
0
  6
CONTINUOUS
 62
     7
  5
20D
 10
961289.545
 20
7301452.832
 30
0.0
 11
961771.78
 21
7301437.614
 31
0.0
  0
ARC
  8
0
  6
CONTINUOUS
 62
     7
  5
20E
 10
961905.050788
 20
7300589.914963
 30
0.0
 40
150.000493
 50
178.1925
 51
212.249378
210
0.0
220
0.0
230
1.0
  0
ARC
  8
0
  6
CONTINUOUS
 62
     7
  5
20F
 10
961889.911221
 20
7300585.730491
 30
0.0
 40
100.000329
 50
178.1925
 51
212.708361
210
0.0
220
0.0
230
1.0
  0
LINE
  8
0
  6
CONTINUOUS
 62
     7
  5
210
 10
961980.7
 20
7300457.846
 30
0.0
 11
961961.276
 21
7299842.331
 31
0.0
  0
LINE
  8
0
  6
CONTINUOUS
 62
     7
  5
211
 10
962000.688
 20
7300457.216
 30
0.0
 11
961981.264
 21
7299841.7
 31
0.0
  0
LINE
  8
0
  6
CONTINUOUS
 62
     7
  5
212
 10
962011.026
 20
7300466.927
 30
0.0
 11
962832.716
 21
7300440.997
 31
0.0
  0
LINE
  8
0
  6
CONTINUOUS
 62
     7
  5
213
 10
961990.971
 20
7299831.416
 30
0.0
 11
962822.615
 21
7299805.171
 31
0.0
  0
LINE
  8
0
  6
CONTINUOUS
 62
     7
  5
214
 10
962860.757
 20
7300061.933
 30
0.0
 11
962880.746
 21
7300061.302
 31
0.0
  0
LINE
  8
0
  6
CONTINUOUS
 62
     7
  5
215
 10
962859.789
 20
7300031.247
 30
0.0
 11
962879.778
 21
7300030.617
 31
0.0
  0
LINE
  8
0
  6
CONTINUOUS
 62
     7
  5
216
 10
962857.484
 20
7299806.765
 30
0.0
 11
962889.867
 21
7299835.993
 31
0.0
  0
LINE
  8
0
  6
CONTINUOUS
 62
     7
  5
217
 10
962921.057
 20
7299819.244
 30
0.0
 11
962944.21
 21
7299840.133
 31
0.0
  0
LINE
  8
0
  6
CONTINUOUS
 62
     7
  5
218
 10
962842.604
 20
7299804.541
 30
0.0
 11
962850.401
 21
7299804.295
 31
0.0
  0
LINE
  8
0
  6
CONTINUOUS
 62
     7
  5
219
 10
962927.447
 20
7299801.863
 30
0.0
 11
963918.757
 21
7299770.58
 31
0.0
  0
LINE
  8
0
  6
CONTINUOUS
 62
     7
  5
21A
 10
962851.05
 20
7300072.203
 30
0.0
 11
962892.891
 21
7301398.058
 31
0.0
  0
LINE
  8
0
  6
CONTINUOUS
 62
     2
  5
21B
 10
960808.401
 20
7299916.698
 30
0.0
 11
960861.693
 21
7299915.017
 31
0.0
  0
LINE
  8
0
  6
CONTINUOUS
 62
     7
  5
21C
 10
962861.542
 20
7301038.718
 30
0.0
 11
962704.23
 21
7301043.683
 31
0.0
  0
LINE
  8
0
  6
CONTINUOUS
 62
     7
  5
21D
 10
962704.23
 20
7301043.683
 30
0.0
 11
962686.173
 21
7300471.484
 31
0.0
  0
POLYLINE
  8
0
  6
CONTINUOUS
 62
     2
  5
21E
 66
     1
 10
0.0
 20
0.0
 30
0.0
 70
     1
  0
VERTEX
  8
0
  6
CONTINUOUS
 62
     2
  5
21F
 10
962043.47
 20
7301597.353
 30
0.0
  0
VERTEX
  8
0
  6
CONTINUOUS
 62
     2
  5
220
 10
962044.598
 20
7301633.083
 30
0.0
  0
VERTEX
  8
0
  6
CONTINUOUS
 62
     2
  5
221
 10
962141.552
 20
7301630.023
 30
0.0
  0
VERTEX
  8
0
  6
CONTINUOUS
 62
     2
  5
222
 10
962140.425
 20
7301594.293
 30
0.0
  0
SEQEND
  8
0
  6
CONTINUOUS
 62
     2
  5
223
  0
POLYLINE
  8
0
  6
CONTINUOUS
 62
     2
  5
224
 66
     1
 10
0.0
 20
0.0
 30
0.0
 70
     1
  0
VERTEX
  8
0
  6
CONTINUOUS
 62
     2
  5
225
 10
961196.258
 20
7301409.978
 30
0.0
  0
VERTEX
  8
0
  6
CONTINUOUS
 62
     2
  5
226
 10
961190.751
 20
7301235.443
 30
0.0
  0
VERTEX
  8
0
  6
CONTINUOUS
 62
     2
  5
227
 10
961220.22
 20
7301234.513
 30
0.0
  0
VERTEX
  8
0
  6
CONTINUOUS
 62
     2
  5
228
 10
961225.728
 20
7301409.048
 30
0.0
  0
SEQEND
  8
0
  6
CONTINUOUS
 62
     2
  5
229
  0
LINE
  8
0
  6
CONTINUOUS
 62
     7
  5
22A
 10
963581.438
 20
7301184.847
 30
0.0
 11
963925.599
 21
7301173.987
 31
0.0
  0
LINE
  8
0
  6
CONTINUOUS
 62
     7
  5
22B
 10
963577.877
 20
7301072.01
 30
0.0
 11
963632.643
 21
7301070.281
 31
0.0
  0
LINE
  8
0
  6
CONTINUOUS
 62
     7
  5
22C
 10
963739.761
 20
7301066.901
 30
0.0
 11
963855.892
 21
7301063.236
 31
0.0
  0
LINE
  8
0
  6
CONTINUOUS
 62
     7
  5
22D
 10
963741.044
 20
7300953.977
 30
0.0
 11
963853.551
 21
7300950.427
 31
0.0
  0
LINE
  8
0
  6
CONTINUOUS
 62
     7
  5
22E
 10
963574.289
 20
7300958.298
 30
0.0
 11
963630.806
 21
7300956.515
 31
0.0
  0
LINE
  8
0
  6
CONTINUOUS
 62
     7
  5
22F
 10
963594.598
 20
7301375.785
 30
0.0
 11
963953.095
 21
7301364.472
 31
0.0
  0
LINE
  8
0
  6
CONTINUOUS
 62
     7
  5
230
 10
963613.877
 20
7301355.033
 30
0.0
 11
963717.161
 21
7301351.773
 31
0.0
  0
LINE
  8
0
  6
CONTINUOUS
 62
     7
  5
231
 10
963726.807
 20
7301341.499
 30
0.0
 11
963726.17
 21
7301321.321
 31
0.0
  0
LINE
  8
0
  6
CONTINUOUS
 62
     7
  5
232
 10
963826.396
 20
7301306.571
 30
0.0
 11
963826.581
 21
7301312.42
 31
0.0
  0
LINE
  8
0
  6
CONTINUOUS
 62
     7
  5
233
 10
963826.581
 20
7301312.42
 30
0.0
 11
963810.095
 21
7301312.94
 31
0.0
  0
LINE
  8
0
  6
CONTINUOUS
 62
     7
  5
234
 10
963800.382
 20
7301323.216
 30
0.0
 11
963800.946
 21
7301341.115
 31
0.0
  0
LINE
  8
0
  6
CONTINUOUS
 62
     7
  5
235
 10
963811.291
 20
7301350.821
 30
0.0
 11
963928.504
 21
7301347.122
 31
0.0
  0
LINE
  8
0
  6
CONTINUOUS
 62
     7
  5
236
 10
963834.962
 20
7301274.913
 30
0.0
 11
963833.987
 21
7301244.024
 31
0.0
  0
LINE
  8
0
  6
CONTINUOUS
 62
     7
  5
237
 10
963833.987
 20
7301244.024
 30
0.0
 11
963850.135
 21
7301243.514
 31
0.0
  0
LINE
  8
0
  6
CONTINUOUS
 62
     7
  5
238
 10
963850.135
 20
7301243.514
 30
0.0
 11
963849.409
 21
7301220.503
 31
0.0
  0
LINE
  8
0
  6
CONTINUOUS
 62
     7
  5
239
 10
963849.409
 20
7301220.503
 30
0.0
 11
963954.437
 21
7301217.188
 31
0.0
  0
LINE
  8
0
  6
CONTINUOUS
 62
     7
  5
23A
 10
963774.742
 20
7301187.235
 30
0.0
 11
963846.331
 21
7301184.976
 31
0.0
  0
LINE
  8
0
  6
CONTINUOUS
 62
     7
  5
23B
 10
963846.331
 20
7301184.976
 30
0.0
 11
963861.189
 21
7301198.918
 31
0.0
  0
LINE
  8
0
  6
CONTINUOUS
 62
     7
  5
23C
 10
963861.189
 20
7301198.918
 30
0.0
 11
963953.768
 21
7301195.996
 31
0.0
  0
POLYLINE
  8
0
  6
CONTINUOUS
 62
     2
  5
23D
 66
     1
 10
0.0
 20
0.0
 30
0.0
 70
     1
  0
VERTEX
  8
0
  6
CONTINUOUS
 62
     2
  5
23E
 10
963815.582
 20
7301275.524
 30
0.0
  0
VERTEX
  8
0
  6
CONTINUOUS
 62
     2
  5
23F
 10
963816.571
 20
7301306.881
 30
0.0
  0
VERTEX
  8
0
  6
CONTINUOUS
 62
     2
  5
240
 10
963895.43
 20
7301304.392
 30
0.0
  0
VERTEX
  8
0
  6
CONTINUOUS
 62
     2
  5
241
 10
963894.441
 20
7301273.036
 30
0.0
  0
SEQEND
  8
0
  6
CONTINUOUS
 62
     2
  5
242
  0
POLYLINE
  8
0
  6
CONTINUOUS
 62
     2
  5
243
 66
     1
 10
0.0
 20
0.0
 30
0.0
 70
     1
  0
VERTEX
  8
0
  6
CONTINUOUS
 62
     2
  5
244
 10
963478.351
 20
7301211.473
 30
0.0
  0
VERTEX
  8
0
  6
CONTINUOUS
 62
     2
  5
245
 10
963479.372
 20
7301243.836
 30
0.0
  0
VERTEX
  8
0
  6
CONTINUOUS
 62
     2
  5
246
 10
963453.602
 20
7301244.649
 30
0.0
  0
VERTEX
  8
0
  6
CONTINUOUS
 62
     2
  5
247
 10
963452.581
 20
7301212.286
 30
0.0
  0
SEQEND
  8
0
  6
CONTINUOUS
 62
     2
  5
248
  0
POLYLINE
  8
0
  6
CONTINUOUS
 62
     2
  5
249
 66
     1
 10
0.0
 20
0.0
 30
0.0
 70
     1
  0
VERTEX
  8
0
  6
CONTINUOUS
 62
     2
  5
24A
 10
962762.639
 20
7300990.715
 30
0.0
  0
VERTEX
  8
0
  6
CONTINUOUS
 62
     2
  5
24B
 10
962763.738
 20
7301025.567
 30
0.0
  0
VERTEX
  8
0
  6
CONTINUOUS
 62
     2
  5
24C
 10
962807.069
 20
7301024.199
 30
0.0
  0
VERTEX
  8
0
  6
CONTINUOUS
 62
     2
  5
24D
 10
962805.969
 20
7300989.348
 30
0.0
  0
SEQEND
  8
0
  6
CONTINUOUS
 62
     2
  5
24E
  0
POLYLINE
  8
0
  6
CONTINUOUS
 62
     2
  5
24F
 66
     1
 10
0.0
 20
0.0
 30
0.0
 70
     1
  0
VERTEX
  8
0
  6
CONTINUOUS
 62
     2
  5
250
 10
962736.909
 20
7300645.135
 30
0.0
  0
VERTEX
  8
0
  6
CONTINUOUS
 62
     2
  5
251
 10
962738.06
 20
7300681.608
 30
0.0
  0
VERTEX
  8
0
  6
CONTINUOUS
 62
     2
  5
252
 10
962746.945
 20
7300681.328
 30
0.0
  0
VERTEX
  8
0
  6
CONTINUOUS
 62
     2
  5
253
 10
962747.179
 20
7300688.726
 30
0.0
  0
VERTEX
  8
0
  6
CONTINUOUS
 62
     2
  5
254
 10
962786.405
 20
7300687.488
 30
0.0
  0
VERTEX
  8
0
  6
CONTINUOUS
 62
     2
  5
255
 10
962785.191
 20
7300649.006
 30
0.0
  0
VERTEX
  8
0
  6
CONTINUOUS
 62
     2
  5
256
 10
962783.582
 20
7300649.056
 30
0.0
  0
VERTEX
  8
0
  6
CONTINUOUS
 62
     2
  5
257
 10
962782.965
 20
7300629.534
 30
0.0
  0
VERTEX
  8
0
  6
CONTINUOUS
 62
     2
  5
258
 10
962745.348
 20
7300630.721
 30
0.0
  0
VERTEX
  8
0
  6
CONTINUOUS
 62
     2
  5
259
 10
962745.794
 20
7300644.854
 30
0.0
  0
SEQEND
  8
0
  6
CONTINUOUS
 62
     2
  5
25A
  0
POLYLINE
  8
0
  6
CONTINUOUS
 62
     2
  5
25B
 66
     1
 10
0.0
 20
0.0
 30
0.0
  0
VERTEX
  8
0
  6
CONTINUOUS
 62
     2
  5
25C
 10
963803.287
 20
7301255.038
 30
0.0
  0
VERTEX
  8
0
  6
CONTINUOUS
 62
     2
  5
25D
 10
963802.138
 20
7301218.631
 30
0.0
  0
VERTEX
  8
0
  6
CONTINUOUS
 62
     2
  5
25E
 10
963780.27
 20
7301219.321
 30
0.0
  0
SEQEND
  8
0
  6
CONTINUOUS
 62
     2
  5
25F
  0
LINE
  8
0
  6
CONTINUOUS
 62
     2
  5
260
 10
963781.418
 20
7301255.728
 30
0.0
 11
963803.287
 21
7301255.038
 31
0.0
  0
LINE
  8
0
  6
CONTINUOUS
 62
     2
  5
261
 10
963704.809
 20
7301288.984
 30
0.0
 11
963703.847
 21
7301258.507
 31
0.0
  0
POLYLINE
  8
0
  6
CONTINUOUS
 62
     2
  5
262
 66
     1
 10
0.0
 20
0.0
 30
0.0
  0
VERTEX
  8
0
  6
CONTINUOUS
 62
     2
  5
263
 10
963734.933
 20
7301257.526
 30
0.0
  0
VERTEX
  8
0
  6
CONTINUOUS
 62
     2
  5
264
 10
963735.895
 20
7301288.003
 30
0.0
  0
VERTEX
  8
0
  6
CONTINUOUS
 62
     2
  5
265
 10
963704.809
 20
7301288.984
 30
0.0
  0
SEQEND
  8
0
  6
CONTINUOUS
 62
     2
  5
266
  0
LINE
  8
0
  6
CONTINUOUS
 62
     2
  5
267
 10
963779.227
 20
7301186.288
 30
0.0
 11
963780.27
 21
7301219.321
 31
0.0
  0
POLYLINE
  8
0
  6
CONTINUOUS
 62
     2
  5
268
 66
     1
 10
0.0
 20
0.0
 30
0.0
  0
VERTEX
  8
0
  6
CONTINUOUS
 62
     2
  5
269
 10
963781.418
 20
7301255.728
 30
0.0
  0
VERTEX
  8
0
  6
CONTINUOUS
 62
     2
  5
26A
 10
963781.429
 20
7301256.059
 30
0.0
  0
VERTEX
  8
0
  6
CONTINUOUS
 62
     2
  5
26B
 10
963734.933
 20
7301257.526
 30
0.0
  0
SEQEND
  8
0
  6
CONTINUOUS
 62
     2
  5
26C
  0
LINE
  8
0
  6
CONTINUOUS
 62
     2
  5
26D
 10
963703.847
 20
7301258.507
 30
0.0
 11
963677.745
 21
7301259.331
 31
0.0
  0
LINE
  8
0
  6
CONTINUOUS
 62
     2
  5
26E
 10
963676.435
 20
7301217.812
 30
0.0
 11
963675.544
 21
7301189.56
 31
0.0
  0
LINE
  8
0
  6
CONTINUOUS
 62
     2
  5
26F
 10
963675.544
 20
7301189.56
 30
0.0
 11
963779.227
 21
7301186.288
 31
0.0
  0
LINE
  8
0
  6
CONTINUOUS
 62
     2
  5
270
 10
963676.435
 20
7301217.812
 30
0.0
 11
963663.311
 21
7301218.227
 31
0.0
  0
LINE
  8
0
  6
CONTINUOUS
 62
     2
  5
271
 10
963663.311
 20
7301218.227
 30
0.0
 11
963664.615
 21
7301259.542
 31
0.0
  0
LINE
  8
0
  6
CONTINUOUS
 62
     2
  5
272
 10
963664.615
 20
7301259.542
 30
0.0
 11
963677.53
 21
7301259.134
 31
0.0
  0
CIRCLE
  8
0
  6
CONTINUOUS
 62
     2
  5
273
 10
963631.420163
 20
7301325.399339
 30
0.0
 40
16.244332
210
0.0
220
0.0
230
1.0
  0
CIRCLE
  8
0
  6
CONTINUOUS
 62
     2
  5
274
 10
963712.105214
 20
7301330.396256
 30
0.0
 40
13.446441
210
0.0
220
0.0
230
1.0
  0
ARC
  8
0
  6
CONTINUOUS
 62
     7
  5
275
 10
963581.20081
 20
7300322.084302
 30
0.0
 40
50.000164
 50
178.1925
 51
268.1925
210
0.0
220
0.0
230
1.0
  0
ARC
  8
0
  6
CONTINUOUS
 62
     7
  5
276
 10
963612.222333
 20
7301305.106531
 30
0.0
 40
50.000164
 50
88.1925
 51
178.1925
210
0.0
220
0.0
230
1.0
  0
ARC
  8
0
  6
CONTINUOUS
 62
     7
  5
277
 10
963926.986958
 20
7301297.165168
 30
0.0
 40
50.000164
 50
358.1925
 51
88.1925
210
0.0
220
0.0
230
1.0
  0
ARC
  8
0
  6
CONTINUOUS
 62
     7
  5
278
 10
963592.9269
 20
7301325.873687
 30
0.0
 40
50.000164
 50
88.1925
 51
178.1925
210
0.0
220
0.0
230
1.0
  0
ARC
  8
0
  6
CONTINUOUS
 62
     7
  5
279
 10
963951.547811
 20
7301314.556581
 30
0.0
 40
50.000164
 50
43.489322
 51
88.1925
210
0.0
220
0.0
230
1.0
  0
ARC
  8
0
  6
CONTINUOUS
 62
     7
  5
27A
 10
963560.669889
 20
7300303.700809
 30
0.0
 40
50.000164
 50
178.1925
 51
268.1925
210
0.0
220
0.0
230
1.0
  0
ARC
  8
0
  6
CONTINUOUS
 62
     7
  5
27B
 10
963955.108965
 20
7301237.1782
 30
0.0
 40
20.000066
 50
268.1925
 51
358.1925
210
0.0
220
0.0
230
1.0
  0
ARC
  8
0
  6
CONTINUOUS
 62
     7
  5
27C
 10
963953.17832
 20
7301175.999178
 30
0.0
 40
20.000066
 50
358.1925
 51
88.1925
210
0.0
220
0.0
230
1.0
  0
ARC
  8
0
  6
CONTINUOUS
 62
     7
  5
27D
 10
963924.941564
 20
7300281.22174
 30
0.0
 40
20.000066
 50
268.1925
 51
358.1925
210
0.0
220
0.0
230
1.0
  0
ARC
  8
0
  6
CONTINUOUS
 62
     7
  5
27E
 10
963923.079915
 20
7300222.229052
 30
0.0
 40
20.000066
 50
358.1925
 51
88.1925
210
0.0
220
0.0
230
1.0
  0
LINE
  8
0
  6
CONTINUOUS
 62
     2
  5
27F
 10
959459.804
 20
7302744.4
 30
0.0
 11
959905.7
 21
7302730.329
 31
0.0
  0
LINE
  8
0
  6
CONTINUOUS
 62
     7
  5
280
 10
960337.67
 20
7301512.842
 30
0.0
 11
960346.441
 21
7301790.797
 31
0.0
  0
SOLID
  8
0
  6
CONTINUOUS
 62
     2
  5
281
 10
963895.43
 20
7301304.392
 30
0.0
 11
963894.441
 21
7301273.036
 31
0.0
 12
963816.571
 22
7301306.881
 32
0.0
 13
963815.582
 23
7301275.524
 33
0.0
  0
SOLID
  8
0
  6
CONTINUOUS
 62
     2
  5
282
 10
963803.287
 20
7301255.038
 30
0.0
 11
963802.138
 21
7301218.631
 31
0.0
 12
963664.615
 22
7301259.542
 32
0.0
 13
963663.311
 23
7301218.227
 33
0.0
  0
SOLID
  8
0
  6
CONTINUOUS
 62
     2
  5
283
 10
963780.248
 20
7301218.644
 30
0.0
 11
963779.253
 21
7301187.093
 31
0.0
 12
963676.435
 22
7301217.812
 32
0.0
 13
963675.544
 23
7301189.56
 33
0.0
  0
SOLID
  8
0
  6
CONTINUOUS
 62
     2
  5
284
 10
963719.202
 20
7301341.813
 30
0.0
 11
963722.997
 21
7301338.12
 31
0.0
 12
963709.358
 22
7301343.471
 32
0.0
 13
963724.865
 23
7301326.946
 33
0.0
  0
SOLID
  8
0
  6
CONTINUOUS
 62
     2
  5
285
 10
963709.358
 20
7301343.471
 30
0.0
 11
963724.865
 21
7301326.946
 31
0.0
 12
963702.657
 22
7301340.244
 32
0.0
 13
963721.227
 23
7301320.598
 33
0.0
  0
SOLID
  8
0
  6
CONTINUOUS
 62
     2
  5
286
 10
963702.657
 20
7301340.244
 30
0.0
 11
963721.227
 21
7301320.598
 31
0.0
 12
963699.238
 22
7301334.429
 32
0.0
 13
963714.998
 23
7301317.356
 33
0.0
  0
SOLID
  8
0
  6
CONTINUOUS
 62
     2
  5
287
 10
963699.238
 20
7301334.429
 30
0.0
 11
963714.998
 21
7301317.356
 31
0.0
 12
963698.774
 22
7301328.312
 32
0.0
 13
963708.937
 23
7301317.479
 33
0.0
  0
SOLID
  8
0
  6
CONTINUOUS
 62
     2
  5
288
 10
963698.774
 20
7301328.312
 30
0.0
 11
963708.937
 21
7301317.479
 31
0.0
 12
963700.709
 22
7301323.336
 32
0.0
 13
963704.557
 23
7301319.37
 33
0.0
  0
SOLID
  8
0
  6
CONTINUOUS
 62
     2
  5
289
 10
963722.997
 20
7301338.12
 30
0.0
 11
963724.865
 21
7301326.946
 31
0.0
 12
963725.244
 22
7301332.526
 32
0.0
 13
963725.4
 23
7301331.038
 33
0.0
  0
SOLID
  8
0
  6
CONTINUOUS
 62
     2
  5
28A
 10
963709.358
 20
7301343.471
 30
0.0
 11
963718.872
 21
7301341.892
 31
0.0
 12
963712.265
 22
7301343.779
 32
0.0
 13
963715.687
 23
7301343.272
 33
0.0
  0
SOLID
  8
0
  6
CONTINUOUS
 62
     2
  5
28B
 10
963642.676
 20
7301336.952
 30
0.0
 11
963647.238
 21
7301329.87
 31
0.0
 12
963628.391
 22
7301341.173
 32
0.0
 13
963645.419
 23
7301317.067
 33
0.0
  0
SOLID
  8
0
  6
CONTINUOUS
 62
     2
  5
28C
 10
963628.391
 20
7301341.173
 30
0.0
 11
963645.419
 21
7301317.067
 31
0.0
 12
963628.391
 22
7301341.173
 32
0.0
 13
963645.346
 23
7301317.069
 33
0.0
  0
SOLID
  8
0
  6
CONTINUOUS
 62
     2
  5
28D
 10
963628.391
 20
7301341.173
 30
0.0
 11
963645.346
 21
7301317.069
 31
0.0
 12
963616.683
 22
7301332.858
 32
0.0
 13
963640.262
 23
7301311.706
 33
0.0
  0
SOLID
  8
0
  6
CONTINUOUS
 62
     2
  5
28E
 10
963616.683
 20
7301332.858
 30
0.0
 11
963640.262
 21
7301311.706
 31
0.0
 12
963616.683
 22
7301332.858
 32
0.0
 13
963640.262
 23
7301311.706
 33
0.0
  0
SOLID
  8
0
  6
CONTINUOUS
 62
     2
  5
28F
 10
963616.683
 20
7301332.858
 30
0.0
 11
963640.262
 21
7301311.706
 31
0.0
 12
963615.575
 22
7301321.102
 32
0.0
 13
963631.095
 23
7301309.302
 33
0.0
  0
SOLID
  8
0
  6
CONTINUOUS
 62
     2
  5
290
 10
963615.575
 20
7301321.102
 30
0.0
 11
963631.095
 21
7301309.302
 31
0.0
 12
963618.689
 22
7301315.345
 32
0.0
 13
963624.671
 23
7301310.783
 33
0.0
  0
SOLID
  8
0
  6
CONTINUOUS
 62
     2
  5
291
 10
963628.391
 20
7301341.173
 30
0.0
 11
963642.676
 21
7301336.952
 31
0.0
 12
963632.919
 22
7301341.565
 32
0.0
 13
963638.323
 23
7301339.912
 33
0.0
  0
SOLID
  8
0
  6
CONTINUOUS
 62
     2
  5
292
 10
963632.919
 20
7301341.565
 30
0.0
 11
963638.323
 21
7301339.912
 31
0.0
 12
963617.093
 22
7301333.177
 32
0.0
 13
963628.391
 23
7301341.173
 33
0.0
  0
SOLID
  8
0
  6
CONTINUOUS
 62
     2
  5
293
 10
963617.093
 20
7301333.177
 30
0.0
 11
963628.391
 21
7301341.173
 31
0.0
 12
963620.259
 22
7301337.186
 32
0.0
 13
963621.571
 23
7301338.227
 33
0.0
  0
SOLID
  8
0
  6
CONTINUOUS
 62
     2
  5
294
 10
963615.657
 20
7301321.566
 30
0.0
 11
963616.662
 21
7301332.182
 31
0.0
 12
963615.279
 22
7301324.821
 32
0.0
 13
963615.372
 23
7301327.775
 33
0.0
  0
SOLID
  8
0
  6
CONTINUOUS
 62
     2
  5
295
 10
963647.223
 20
7301329.396
 30
0.0
 11
963645.424
 21
7301317.195
 31
0.0
 12
963647.442
 22
7301323.671
 32
0.0
 13
963647.183
 23
7301321.919
 33
0.0
  0
SOLID
  8
0
  6
CONTINUOUS
 62
     2
  5
296
 10
963479.372
 20
7301243.836
 30
0.0
 11
963478.351
 21
7301211.473
 31
0.0
 12
963453.602
 22
7301244.649
 32
0.0
 13
963452.581
 23
7301212.286
 33
0.0
  0
SOLID
  8
0
  6
CONTINUOUS
 62
     2
  5
297
 10
963642.549
 20
7300583.895
 30
0.0
 11
963641.582
 21
7300553.277
 31
0.0
 12
963610.989
 22
7300584.891
 32
0.0
 13
963610.023
 23
7300554.273
 33
0.0
  0
SOLID
  8
0
  6
CONTINUOUS
 62
     2
  5
298
 10
963642.549
 20
7300583.895
 30
0.0
 11
963641.582
 21
7300553.277
 31
0.0
 12
963610.989
 22
7300584.891
 32
0.0
 13
963610.023
 23
7300554.273
 33
0.0
  0
SOLID
  8
0
  6
CONTINUOUS
 62
     2
  5
299
 10
963610.989
 20
7300584.891
 30
0.0
 11
963610.023
 21
7300554.273
 31
0.0
 12
963611.728
 22
7300608.301
 32
0.0
 13
963609.473
 23
7300536.84
 33
0.0
  0
SOLID
  8
0
  6
CONTINUOUS
 62
     2
  5
29A
 10
963611.728
 20
7300608.301
 30
0.0
 11
963609.473
 21
7300536.84
 31
0.0
 12
963576.404
 22
7300609.416
 32
0.0
 13
963574.149
 23
7300537.954
 33
0.0
  0
SOLID
  8
0
  6
CONTINUOUS
 62
     2
  5
29B
 10
963620.344
 20
7300492.859
 30
0.0
 11
963617.52
 21
7300403.363
 31
0.0
 12
963541.221
 22
7300495.356
 32
0.0
 13
963538.396
 23
7300405.86
 33
0.0
  0
SOLID
  8
0
  6
CONTINUOUS
 62
     2
  5
29C
 10
963898.061
 20
7300583.169
 30
0.0
 11
963896.309
 21
7300527.66
 31
0.0
 12
963858.496
 22
7300584.418
 32
0.0
 13
963856.744
 23
7300528.908
 33
0.0
  0
SOLID
  8
0
  6
CONTINUOUS
 62
     2
  5
29D
 10
963858.496
 20
7300584.418
 30
0.0
 11
963856.744
 21
7300528.908
 31
0.0
 12
963858.152
 22
7300573.517
 32
0.0
 13
963857.372
 23
7300548.822
 33
0.0
  0
SOLID
  8
0
  6
CONTINUOUS
 62
     2
  5
29E
 10
963858.152
 20
7300573.517
 30
0.0
 11
963857.372
 21
7300548.822
 31
0.0
 12
963818.925
 22
7300574.755
 32
0.0
 13
963818.146
 23
7300550.06
 33
0.0
  0
SOLID
  8
0
  6
CONTINUOUS
 62
     2
  5
29F
 10
963277.992
 20
7300061.492
 30
0.0
 11
963275.433
 21
7299980.422
 31
0.0
 12
963071.762
 22
7300068.0
 32
0.0
 13
963069.204
 23
7299986.93
 33
0.0
  0
SOLID
  8
0
  6
CONTINUOUS
 62
     2
  5
2A0
 10
963273.378
 20
7299915.282
 30
0.0
 11
963270.819
 21
7299834.206
 31
0.0
 12
963067.149
 22
7299921.79
 32
0.0
 13
963064.59
 23
7299840.714
 33
0.0
  0
SOLID
  8
0
  6
CONTINUOUS
 62
     2
  5
2A1
 10
963107.82
 20
7300346.176
 30
0.0
 11
963105.259
 21
7300265.031
 31
0.0
 12
962901.651
 22
7300352.682
 32
0.0
 13
962899.09
 23
7300271.537
 33
0.0
  0
SOLID
  8
0
  6
CONTINUOUS
 62
     2
  5
2A2
 10
963103.899
 20
7300207.147
 30
0.0
 11
963101.339
 21
7300126.003
 31
0.0
 12
962897.744
 22
7300213.653
 32
0.0
 13
962895.183
 23
7300132.508
 33
0.0
  0
SOLID
  8
0
  6
CONTINUOUS
 62
     2
  5
2A3
 10
962757.996
 20
7299746.468
 30
0.0
 11
962755.443
 21
7299665.588
 31
0.0
 12
962559.638
 22
7299752.728
 32
0.0
 13
962557.085
 23
7299671.847
 33
0.0
  0
SOLID
  8
0
  6
CONTINUOUS
 62
     2
  5
2A4
 10
962227.836
 20
7300349.565
 30
0.0
 11
962222.408
 21
7300177.578
 31
0.0
 12
962061.442
 22
7300354.815
 32
0.0
 13
962056.015
 23
7300182.829
 33
0.0
  0
SOLID
  8
0
  6
CONTINUOUS
 62
     2
  5
2A5
 10
962223.148
 20
7300075.117
 30
0.0
 11
962217.542
 21
7299897.484
 31
0.0
 12
962053.319
 22
7300080.476
 32
0.0
 13
962047.714
 23
7299902.844
 33
0.0
  0
SOLID
  8
0
  6
CONTINUOUS
 62
     2
  5
2A6
 10
961889.662
 20
7299790.637
 30
0.0
 11
961888.333
 21
7299748.516
 31
0.0
 12
961785.777
 22
7299793.915
 32
0.0
 13
961784.447
 23
7299751.794
 33
0.0
  0
SOLID
  8
0
  6
CONTINUOUS
 62
     2
  5
2A7
 10
962141.552
 20
7301630.023
 30
0.0
 11
962140.425
 21
7301594.293
 31
0.0
 12
962044.598
 22
7301633.083
 32
0.0
 13
962043.47
 23
7301597.353
 33
0.0
  0
SOLID
  8
0
  6
CONTINUOUS
 62
     2
  5
2A8
 10
962807.069
 20
7301024.199
 30
0.0
 11
962805.969
 21
7300989.348
 31
0.0
 12
962763.738
 22
7301025.567
 32
0.0
 13
962762.639
 23
7300990.715
 33
0.0
  0
SOLID
  8
0
  6
CONTINUOUS
 62
     2
  5
2A9
 10
962797.143
 20
7300961.677
 30
0.0
 11
962795.746
 21
7300917.399
 31
0.0
 12
962764.042
 22
7300962.722
 32
0.0
 13
962762.645
 23
7300918.444
 33
0.0
  0
SOLID
  8
0
  6
CONTINUOUS
 62
     2
  5
2AA
 10
962795.332
 20
7300878.553
 30
0.0
 11
962794.944
 21
7300866.239
 31
0.0
 12
962789.814
 22
7300878.727
 32
0.0
 13
962789.425
 23
7300866.413
 33
0.0
  0
SOLID
  8
0
  6
CONTINUOUS
 62
     2
  5
2AB
 10
962789.814
 20
7300878.727
 30
0.0
 11
962789.425
 21
7300866.413
 31
0.0
 12
962790.179
 22
7300890.297
 32
0.0
 13
962788.763
 23
7300845.418
 33
0.0
  0
SOLID
  8
0
  6
CONTINUOUS
 62
     2
  5
2AC
 10
962790.179
 20
7300890.297
 30
0.0
 11
962788.763
 21
7300845.418
 31
0.0
 12
962764.748
 22
7300891.1
 32
0.0
 13
962763.331
 23
7300846.22
 33
0.0
  0
SOLID
  8
0
  6
CONTINUOUS
 62
     2
  5
2AD
 10
962788.982
 20
7300815.912
 30
0.0
 11
962787.543
 21
7300770.296
 31
0.0
 12
962759.507
 22
7300816.842
 32
0.0
 13
962758.067
 23
7300771.226
 33
0.0
  0
SOLID
  8
0
  6
CONTINUOUS
 62
     2
  5
2AE
 10
962759.507
 20
7300816.842
 30
0.0
 11
962758.067
 21
7300771.226
 31
0.0
 12
962759.286
 22
7300809.844
 32
0.0
 13
962758.413
 23
7300782.194
 33
0.0
  0
SOLID
  8
0
  6
CONTINUOUS
 62
     2
  5
2AF
 10
962759.286
 20
7300809.844
 30
0.0
 11
962758.413
 21
7300782.194
 31
0.0
 12
962739.365
 22
7300810.472
 32
0.0
 13
962738.492
 23
7300782.822
 33
0.0
  0
SOLID
  8
0
  6
CONTINUOUS
 62
     2
  5
2B0
 10
962791.213
 20
7300750.171
 30
0.0
 11
962790.036
 21
7300712.899
 31
0.0
 12
962779.704
 22
7300750.534
 32
0.0
 13
962778.528
 23
7300713.262
 33
0.0
  0
SOLID
  8
0
  6
CONTINUOUS
 62
     2
  5
2B1
 10
962779.704
 20
7300750.534
 30
0.0
 11
962778.528
 21
7300713.262
 31
0.0
 12
962773.849
 22
7300752.682
 32
0.0
 13
962778.167
 23
7300701.82
 33
0.0
  0
SOLID
  8
0
  6
CONTINUOUS
 62
     2
  5
2B2
 10
962773.849
 20
7300752.682
 30
0.0
 11
962778.167
 21
7300701.82
 31
0.0
 12
962757.483
 22
7300752.718
 32
0.0
 13
962755.899
 23
7300702.523
 33
0.0
  0
SOLID
  8
0
  6
CONTINUOUS
 62
     2
  5
2B3
 10
962738.06
 20
7300681.608
 30
0.0
 11
962736.909
 21
7300645.135
 31
0.0
 12
962746.945
 22
7300681.328
 32
0.0
 13
962745.794
 23
7300644.854
 33
0.0
  0
SOLID
  8
0
  6
CONTINUOUS
 62
     2
  5
2B4
 10
962746.945
 20
7300681.328
 30
0.0
 11
962745.794
 21
7300644.854
 31
0.0
 12
962747.179
 22
7300688.726
 32
0.0
 13
962745.348
 23
7300630.721
 33
0.0
  0
SOLID
  8
0
  6
CONTINUOUS
 62
     2
  5
2B5
 10
962747.179
 20
7300688.726
 30
0.0
 11
962745.348
 21
7300630.721
 31
0.0
 12
962786.405
 22
7300687.488
 32
0.0
 13
962782.965
 23
7300629.534
 33
0.0
  0
SOLID
  8
0
  6
CONTINUOUS
 62
     2
  5
2B6
 10
962766.104
 20
7300622.662
 30
0.0
 11
962765.701
 21
7300609.874
 31
0.0
 12
962741.078
 22
7300623.451
 32
0.0
 13
962740.674
 23
7300610.664
 33
0.0
  0
SOLID
  8
0
  6
CONTINUOUS
 62
     2
  5
2B7
 10
962785.91
 20
7300603.577
 30
0.0
 11
962784.343
 21
7300553.924
 31
0.0
 12
962758.794
 22
7300604.433
 32
0.0
 13
962757.227
 23
7300554.78
 33
0.0
  0
SOLID
  8
0
  6
CONTINUOUS
 62
     2
  5
2B8
 10
962778.347
 20
7300523.735
 30
0.0
 11
962777.364
 21
7300492.582
 31
0.0
 12
962759.84
 22
7300524.319
 32
0.0
 13
962759.197
 23
7300493.23
 33
0.0
  0
SOLID
  8
0
  6
CONTINUOUS
 62
     2
  5
2B9
 10
962759.84
 20
7300524.319
 30
0.0
 11
962759.197
 21
7300493.23
 31
0.0
 12
962760.135
 22
7300533.671
 32
0.0
 13
962759.197
 23
7300493.23
 33
0.0
  0
SOLID
  8
0
  6
CONTINUOUS
 62
     2
  5
2BA
 10
962760.135
 20
7300533.671
 30
0.0
 11
962759.197
 21
7300493.23
 31
0.0
 12
962723.397
 22
7300534.83
 32
0.0
 13
962753.441
 23
7300509.237
 33
0.0
  0
SOLID
  8
0
  6
CONTINUOUS
 62
     2
  5
2BB
 10
962723.397
 20
7300534.83
 30
0.0
 11
962753.441
 21
7300509.237
 31
0.0
 12
962723.397
 22
7300534.83
 32
0.0
 13
962722.62
 23
7300510.209
 33
0.0
  0
SOLID
  8
0
  6
CONTINUOUS
 62
     2
  5
2BC
 10
962753.441
 20
7300509.237
 30
0.0
 11
962759.197
 21
7300493.23
 31
0.0
 12
962753.441
 22
7300509.237
 32
0.0
 13
962752.94
 23
7300493.352
 33
0.0
  0
SOLID
  8
0
  6
CONTINUOUS
 62
     2
  5
2BD
 10
962727.682
 20
7300502.028
 30
0.0
 11
962726.899
 21
7300477.205
 31
0.0
 12
962694.108
 22
7300503.088
 32
0.0
 13
962693.325
 23
7300478.264
 33
0.0
  0
SOLID
  8
0
  6
CONTINUOUS
 62
     2
  5
2BE
 10
961225.728
 20
7301409.048
 30
0.0
 11
961220.22
 21
7301234.513
 31
0.0
 12
961196.258
 22
7301409.978
 32
0.0
 13
961190.751
 23
7301235.443
 33
0.0
  0
SOLID
  8
0
  6
CONTINUOUS
 62
     2
  5
2BF
 10
960512.915
 20
7302338.912
 30
0.0
 11
960509.96
 21
7302245.25
 31
0.0
 12
960413.27
 22
7302342.056
 32
0.0
 13
960410.314
 23
7302248.395
 33
0.0
  0
SOLID
  8
0
  6
CONTINUOUS
 62
     2
  5
2C0
 10
960413.27
 20
7302342.056
 30
0.0
 11
960410.314
 21
7302248.395
 31
0.0
 12
960411.792
 22
7302295.229
 32
0.0
 13
960410.582
 23
7302256.868
 33
0.0
  0
SOLID
  8
0
  6
CONTINUOUS
 62
     2
  5
2C1
 10
960411.792
 20
7302295.229
 30
0.0
 11
960410.582
 21
7302256.868
 31
0.0
 12
960373.843
 22
7302296.426
 32
0.0
 13
960372.633
 23
7302258.065
 33
0.0
  0
SOLID
  8
0
  6
CONTINUOUS
 62
     2
  5
2C2
 10
961452.107
 20
7299640.037
 30
0.0
 11
961450.427
 21
7299586.814
 31
0.0
 12
961258.131
 22
7299646.159
 32
0.0
 13
961256.451
 23
7299592.935
 33
0.0
  0
SOLID
  8
0
  6
CONTINUOUS
 62
     2
  5
2C3
 10
961445.416
 20
7299496.25
 30
0.0
 11
961443.616
 21
7299439.191
 31
0.0
 12
961302.703
 22
7299500.753
 32
0.0
 13
961300.903
 23
7299443.695
 33
0.0
  0
SOLID
  8
0
  6
CONTINUOUS
 62
     2
  5
2C4
 10
960992.645
 20
7300122.768
 30
0.0
 11
960990.327
 21
7300049.291
 31
0.0
 12
960951.668
 22
7300124.061
 32
0.0
 13
960949.755
 23
7300050.571
 33
0.0
  0
SOLID
  8
0
  6
CONTINUOUS
 62
     2
  5
2C5
 10
960799.712
 20
7300217.696
 30
0.0
 11
960792.966
 21
7300003.928
 31
0.0
 12
960816.999
 22
7300217.016
 32
0.0
 13
960811.136
 23
7300003.354
 33
0.0
  0
SOLID
  8
0
  6
CONTINUOUS
 62
     2
  5
2C6
 10
960952.239
 20
7300142.163
 30
0.0
 11
960948.084
 21
7299997.618
 31
0.0
 12
960908.705
 22
7300143.537
 32
0.0
 13
960904.174
 23
7299999.951
 33
0.0
  0
SOLID
  8
0
  6
CONTINUOUS
 62
     2
  5
2C7
 10
960910.934
 20
7300214.186
 30
0.0
 11
960904.174
 21
7299999.951
 31
0.0
 12
960870.741
 22
7300216.734
 32
0.0
 13
960864.383
 23
7300000.259
 33
0.0
  0
SOLID
  8
0
  6
CONTINUOUS
 62
     2
  5
2C8
 10
960870.741
 20
7300216.734
 30
0.0
 11
960861.693
 21
7299915.017
 31
0.0
 12
960816.999
 22
7300217.016
 32
0.0
 13
960808.401
 23
7299916.698
 33
0.0
  0
SOLID
  8
0
  6
CONTINUOUS
 62
     2
  5
2C9
 10
960569.054
 20
7299663.525
 30
0.0
 11
960567.447
 21
7299612.586
 31
0.0
 12
960355.022
 22
7299670.279
 32
0.0
 13
960353.415
 23
7299619.34
 33
0.0
  0
SOLID
  8
0
  6
CONTINUOUS
 62
     2
  5
2CA
 10
960174.801
 20
7299698.527
 30
0.0
 11
960173.878
 21
7299669.261
 31
0.0
 12
960113.105
 22
7299700.474
 32
0.0
 13
960112.181
 23
7299671.208
 33
0.0
  0
SOLID
  8
0
  6
CONTINUOUS
 62
     2
  5
2CB
 10
960080.48
 20
7299701.781
 30
0.0
 11
960078.925
 21
7299652.52
 31
0.0
 12
959988.631
 22
7299704.68
 32
0.0
 13
959987.076
 23
7299655.418
 33
0.0
  0
SOLID
  8
0
  6
CONTINUOUS
 62
     2
  5
2CC
 10
960032.169
 20
7299805.745
 30
0.0
 11
960030.927
 21
7299766.382
 31
0.0
 12
959999.941
 22
7299806.762
 32
0.0
 13
959998.699
 23
7299767.399
 33
0.0
  0
SOLID
  8
0
  6
CONTINUOUS
 62
     2
  5
2CD
 10
959908.814
 20
7299433.34
 30
0.0
 11
959907.996
 21
7299407.435
 31
0.0
 12
959872.143
 22
7299434.498
 32
0.0
 13
959871.325
 23
7299408.592
 33
0.0
  0
SOLID
  8
0
  6
CONTINUOUS
 62
     2
  5
2CE
 10
960310.25
 20
7299393.258
 30
0.0
 11
960311.236
 21
7299390.398
 31
0.0
 12
960294.84
 22
7299395.904
 32
0.0
 13
960315.478
 23
7299379.833
 33
0.0
  0
SOLID
  8
0
  6
CONTINUOUS
 62
     2
  5
2CF
 10
960294.84
 20
7299395.904
 30
0.0
 11
960315.478
 21
7299379.833
 31
0.0
 12
960294.84
 22
7299395.904
 32
0.0
 13
960315.478
 23
7299379.833
 33
0.0
  0
SOLID
  8
0
  6
CONTINUOUS
 62
     2
  5
2D0
 10
960294.84
 20
7299395.904
 30
0.0
 11
960315.478
 21
7299379.833
 31
0.0
 12
960286.631
 22
7299389.963
 32
0.0
 13
960310.553
 23
7299368.733
 33
0.0
  0
SOLID
  8
0
  6
CONTINUOUS
 62
     2
  5
2D1
 10
960286.631
 20
7299389.963
 30
0.0
 11
960310.553
 21
7299368.733
 31
0.0
 12
960284.213
 22
7299385.599
 32
0.0
 13
960303.978
 23
7299365.244
 33
0.0
  0
SOLID
  8
0
  6
CONTINUOUS
 62
     2
  5
2D2
 10
960284.213
 20
7299385.599
 30
0.0
 11
960303.978
 21
7299365.244
 31
0.0
 12
960284.688
 22
7299375.14
 32
0.0
 13
960296.823
 23
7299364.793
 33
0.0
  0
SOLID
  8
0
  6
CONTINUOUS
 62
     2
  5
2D3
 10
960284.688
 20
7299375.14
 30
0.0
 11
960296.823
 21
7299364.793
 31
0.0
 12
960288.279
 22
7299369.436
 32
0.0
 13
960290.108
 23
7299367.563
 33
0.0
  0
SOLID
  8
0
  6
CONTINUOUS
 62
     2
  5
2D4
 10
960310.25
 20
7299393.258
 30
0.0
 11
960315.478
 21
7299379.833
 31
0.0
 12
960314.392
 22
7299388.085
 32
0.0
 13
960314.949
 23
7299386.443
 33
0.0
  0
SOLID
  8
0
  6
CONTINUOUS
 62
     2
  5
2D5
 10
960315.478
 20
7299379.833
 30
0.0
 11
960310.553
 21
7299368.733
 31
0.0
 12
960315.391
 22
7299374.915
 32
0.0
 13
960313.407
 23
7299371.674
 33
0.0
  0
SOLID
  8
0
  6
CONTINUOUS
 62
     2
  5
2D6
 10
960294.84
 20
7299395.904
 30
0.0
 11
960310.25
 21
7299393.258
 31
0.0
 12
960300.333
 22
7299397.077
 32
0.0
 13
960304.213
 23
7299396.278
 33
0.0
  0
SOLID
  8
0
  6
CONTINUOUS
 62
     2
  5
2D7
 10
960313.407
 20
7299371.674
 30
0.0
 11
960308.516
 21
7299366.171
 31
0.0
 12
960313.407
 22
7299371.674
 32
0.0
 13
960307.124
 23
7299366.891
 33
0.0
  0
SOLID
  8
0
  6
CONTINUOUS
 62
     2
  5
2D8
 10
960308.448
 20
7299366.173
 30
0.0
 11
960300.219
 21
7299363.67
 31
0.0
 12
960307.124
 22
7299366.891
 32
0.0
 13
960296.823
 23
7299364.793
 33
0.0
  0
SOLID
  8
0
  6
CONTINUOUS
 62
     2
  5
2D9
 10
960289.488
 20
7299367.244
 30
0.0
 11
960294.723
 21
7299364.521
 31
0.0
 12
960290.108
 22
7299367.563
 32
0.0
 13
960300.219
 23
7299363.67
 33
0.0
  0
SOLID
  8
0
  6
CONTINUOUS
 62
     2
  5
2DA
 10
960284.213
 20
7299385.599
 30
0.0
 11
960284.688
 21
7299375.14
 31
0.0
 12
960283.441
 22
7299384.743
 32
0.0
 13
960282.951
 23
7299379.912
 33
0.0
  0
SOLID
  8
0
  6
CONTINUOUS
 62
     2
  5
2DB
 10
960282.951
 20
7299379.912
 30
0.0
 11
960284.688
 21
7299375.14
 31
0.0
 12
960282.951
 22
7299379.912
 32
0.0
 13
960283.74
 23
7299374.898
 33
0.0
  0
SOLID
  8
0
  6
CONTINUOUS
 62
     2
  5
2DC
 10
960283.74
 20
7299374.898
 30
0.0
 11
960286.476
 21
7299369.831
 31
0.0
 12
960284.688
 22
7299375.14
 32
0.0
 13
960287.307
 23
7299370.813
 33
0.0
  0
SOLID
  8
0
  6
CONTINUOUS
 62
     2
  5
2DD
 10
960286.476
 20
7299369.831
 30
0.0
 11
960289.488
 21
7299367.244
 31
0.0
 12
960287.307
 22
7299370.813
 32
0.0
 13
960290.108
 23
7299367.563
 33
0.0
  0
SOLID
  8
0
  6
CONTINUOUS
 62
     2
  5
2DE
 10
960294.84
 20
7299395.904
 30
0.0
 11
960299.995
 21
7299397.088
 31
0.0
 12
960295.939
 22
7299396.607
 32
0.0
 13
960297.432
 23
7299396.966
 33
0.0
  0
SOLID
  8
0
  6
CONTINUOUS
 62
     2
  5
2DF
 10
960286.631
 20
7299389.963
 30
0.0
 11
960295.939
 21
7299396.607
 31
0.0
 12
960287.017
 22
7299391.23
 32
0.0
 13
960289.727
 23
7299393.906
 33
0.0
  0
SOLID
  8
0
  6
CONTINUOUS
 62
     2
  5
2E0
 10
960287.017
 20
7299391.23
 30
0.0
 11
960289.727
 21
7299393.906
 31
0.0
 12
960283.585
 22
7299385.016
 32
0.0
 13
960287.017
 23
7299391.23
 33
0.0
  0
SOLID
  8
0
  6
CONTINUOUS
 62
     2
  5
2E1
 10
960283.585
 20
7299385.016
 30
0.0
 11
960287.017
 21
7299391.23
 31
0.0
 12
960286.631
 22
7299389.963
 32
0.0
 13
960284.213
 23
7299385.599
 33
0.0
  0
SOLID
  8
0
  6
CONTINUOUS
 62
     2
  5
2E2
 10
960286.631
 20
7299389.963
 30
0.0
 11
960284.213
 21
7299385.599
 31
0.0
 12
960283.513
 22
7299384.877
 32
0.0
 13
960284.213
 23
7299385.599
 33
0.0
  0
SOLID
  8
0
  6
CONTINUOUS
 62
     2
  5
2E3
 10
960283.513
 20
7299384.877
 30
0.0
 11
960284.213
 21
7299385.599
 31
0.0
 12
960283.585
 22
7299385.016
 32
0.0
 13
960284.037
 23
7299386.478
 33
0.0
  0
SOLID
  8
0
  6
CONTINUOUS
 62
     2
  5
2E4
 10
960283.585
 20
7299385.016
 30
0.0
 11
960284.037
 21
7299386.478
 31
0.0
 12
960284.037
 22
7299386.478
 32
0.0
 13
960285.591
 23
7299388.716
 33
0.0
  0
SOLID
  8
0
  6
CONTINUOUS
 62
     2
  5
2E5
 10
960284.037
 20
7299386.478
 30
0.0
 11
960285.591
 21
7299388.716
 31
0.0
 12
960284.159
 22
7299386.068
 32
0.0
 13
960285.4
 23
7299389.128
 33
0.0
  0
SOLID
  8
0
  6
CONTINUOUS
 62
     2
  5
2E6
 10
960287.017
 20
7299391.23
 30
0.0
 11
960286.631
 21
7299389.963
 31
0.0
 12
960287.017
 22
7299391.23
 32
0.0
 13
960285.356
 23
7299387.715
 33
0.0
  0
SOLID
  8
0
  6
CONTINUOUS
 62
     2
  5
2E7
 10
960287.017
 20
7299391.23
 30
0.0
 11
960285.66
 21
7299388.782
 31
0.0
 12
960287.017
 22
7299391.23
 32
0.0
 13
960285.4
 23
7299389.128
 33
0.0
  0
SOLID
  8
0
  6
CONTINUOUS
 62
     2
  5
2E8
 10
960285.66
 20
7299388.782
 30
0.0
 11
960284.159
 21
7299386.068
 31
0.0
 12
960285.262
 22
7299389.065
 32
0.0
 13
960284.159
 23
7299386.068
 33
0.0
  0
SOLID
  8
0
  6
CONTINUOUS
 62
     2
  5
2E9
 10
960285.262
 20
7299389.065
 30
0.0
 11
960284.037
 21
7299386.478
 31
0.0
 12
960285.262
 22
7299389.065
 32
0.0
 13
960284.037
 23
7299386.478
 33
0.0
  0
SOLID
  8
0
  6
CONTINUOUS
 62
     2
  5
2EA
 10
960314.949
 20
7299386.443
 30
0.0
 11
960315.391
 21
7299374.915
 31
0.0
 12
960316.133
 22
7299381.288
 32
0.0
 13
960316.068
 23
7299379.206
 33
0.0
  0
SOLID
  8
0
  6
CONTINUOUS
 62
     2
  5
2EB
 10
959989.071
 20
7302736.315
 30
0.0
 11
959986.574
 21
7302657.193
 31
0.0
 12
959949.973
 22
7302737.549
 32
0.0
 13
959903.475
 23
7302659.815
 33
0.0
  0
SOLID
  8
0
  6
CONTINUOUS
 62
     2
  5
2EC
 10
959949.973
 20
7302737.549
 30
0.0
 11
959903.475
 21
7302659.815
 31
0.0
 12
959950.616
 22
7302757.936
 32
0.0
 13
959906.615
 23
7302759.325
 33
0.0
  0
SOLID
  8
0
  6
CONTINUOUS
 62
     2
  5
2ED
 10
959980.375
 20
7302334.835
 30
0.0
 11
959976.411
 21
7302209.209
 31
0.0
 12
959894.186
 22
7302337.555
 32
0.0
 13
959890.221
 23
7302211.929
 33
0.0
  0
SOLID
  8
0
  6
CONTINUOUS
 62
     2
  5
2EE
 10
959973.05
 20
7301948.935
 30
0.0
 11
959971.184
 21
7301889.793
 31
0.0
 12
959950.506
 22
7301949.646
 32
0.0
 13
959885.861
 23
7301892.486
 33
0.0
  0
SOLID
  8
0
  6
CONTINUOUS
 62
     2
  5
2EF
 10
959950.506
 20
7301949.646
 30
0.0
 11
959885.861
 21
7301892.486
 31
0.0
 12
959954.351
 22
7302071.505
 32
0.0
 13
959891.572
 23
7302073.486
 33
0.0
  0
SOLID
  8
0
  6
CONTINUOUS
 62
     2
  5
2F0
 10
959933.711
 20
7301624.665
 30
0.0
 11
959930.919
 21
7301536.19
 31
0.0
 12
959873.563
 22
7301626.563
 32
0.0
 13
959870.771
 23
7301538.088
 33
0.0
  0
SOLID
  8
0
  6
CONTINUOUS
 62
     2
  5
2F1
 10
959941.291
 20
7301245.638
 30
0.0
 11
959937.402
 21
7301122.373
 31
0.0
 12
959859.809
 22
7301248.209
 32
0.0
 13
959855.641
 23
7301124.953
 33
0.0
  0
SOLID
  8
0
  6
CONTINUOUS
 62
     2
  5
2F2
 10
959735.512
 20
7300530.255
 30
0.0
 11
959724.171
 21
7300170.879
 31
0.0
 12
959693.527
 22
7300531.58
 32
0.0
 13
959682.186
 23
7300172.204
 33
0.0
  0
SOLID
  8
0
  6
CONTINUOUS
 62
     2
  5
2F3
 10
959635.001
 20
7300531.734
 30
0.0
 11
959623.402
 21
7300164.163
 31
0.0
 12
959588.378
 22
7300533.206
 32
0.0
 13
959576.778
 23
7300165.635
 33
0.0
  0
SOLID
  8
0
  6
CONTINUOUS
 62
     2
  5
2F4
 10
959632.688
 20
7300671.833
 30
0.0
 11
959631.865
 21
7300645.732
 31
0.0
 12
959602.881
 22
7300672.774
 32
0.0
 13
959602.057
 23
7300646.673
 33
0.0
  0
SOLID
  8
0
  6
CONTINUOUS
 62
     2
  5
2F5
 10
959631.285
 20
7300627.366
 30
0.0
 11
959630.459
 21
7300601.183
 31
0.0
 12
959601.478
 22
7300628.307
 32
0.0
 13
959600.652
 23
7300602.124
 33
0.0
  0
SOLID
  8
0
  6
CONTINUOUS
 62
     2
  5
2F6
 10
959547.867
 20
7300929.171
 30
0.0
 11
959537.787
 21
7300609.766
 31
0.0
 12
959507.159
 22
7300930.456
 32
0.0
 13
959497.08
 23
7300611.051
 33
0.0
  0
SOLID
  8
0
  6
CONTINUOUS
 62
     2
  5
2F7
 10
959532.51
 20
7300534.366
 30
0.0
 11
959520.556
 21
7300155.55
 31
0.0
 12
959490.322
 22
7300535.698
 32
0.0
 13
959478.368
 23
7300156.881
 33
0.0
  0
SOLID
  8
0
  6
CONTINUOUS
 62
     2
  5
2F8
 10
959980.921
 20
7299970.421
 30
0.0
 11
959974.294
 21
7299760.42
 31
0.0
 12
959820.789
 22
7299975.474
 32
0.0
 13
959814.161
 23
7299765.473
 33
0.0
  0
LINE
  8
6
  6
CONTINUOUS
 62
     7
  5
2F9
 10
960261.157
 20
7299305.974
 30
0.0
 11
963919.715
 21
7299190.52
 31
0.0
  0
SOLID
  8
0
  6
CONTINUOUS
 62
     2
  5
2FA
 10
961755.46
 20
7299913.21
 30
0.0
 11
961754.439
 21
7299880.847
 31
0.0
 12
961640.471
 22
7299916.839
 32
0.0
 13
961639.45
 23
7299884.476
 33
0.0
  0
LINE
  8
0
  6
CONTINUOUS
 62
     2
  5
2FB
 10
958754.34
 20
7302906.08
 30
0.0
 11
959290.936
 21
7302889.147
 31
0.0
  0
LINE
  8
0
  6
CONTINUOUS
 62
     7
  5
2FC
 10
963955.186
 20
7302506.421
 30
0.0
 11
963930.124
 21
7301712.26
 31
0.0
  0
ARC
  8
0
  6
CONTINUOUS
 62
     7
  5
2FD
 10
963786.164047
 20
7301716.760638
 30
0.0
 40
144.000473
 50
268.1925
 51
358.1925
210
0.0
220
0.0
230
1.0
  0
LINE
  8
0
  6
CONTINUOUS
 62
     7
  5
2FE
 10
963781.589
 20
7301572.812
 30
0.0
 11
963242.701
 21
7301589.818
 31
0.0
  0
ARC
  8
0
  6
CONTINUOUS
 62
     7
  5
2FF
 10
963237.780613
 20
7301433.915807
 30
0.0
 40
156.000513
 50
88.1925
 51
143.003917
210
0.0
220
0.0
230
1.0
  0
LINE
  8
0
  6
CONTINUOUS
 62
     7
  5
300
 10
963113.113
 20
7301527.831
 30
0.0
 11
963075.018
 21
7301477.178
 31
0.0
  0
ARC
  8
0
  6
CONTINUOUS
 62
     7
  5
301
 10
962960.000986
 20
7301563.776265
 30
0.0
 40
144.000473
 50
270.000961
 51
323.003917
210
0.0
220
0.0
230
1.0
  0
LINE
  8
0
  6
CONTINUOUS
 62
     7
  5
302
 10
962959.978
 20
7301419.781
 30
0.0
 11
962903.947
 21
7301419.802
 31
0.0
  0
LINE
  8
0
  6
CONTINUOUS
 62
     7
  5
303
 10
963967.229
 20
7302506.041
 30
0.0
 11
963942.167
 21
7301711.88
 31
0.0
  0
ARC
  8
0
  6
CONTINUOUS
 62
     7
  5
304
 10
963786.164047
 20
7301716.760638
 30
0.0
 40
156.000513
 50
268.1925
 51
358.1925
210
0.0
220
0.0
230
1.0
  0
LINE
  8
0
  6
CONTINUOUS
 62
     7
  5
305
 10
963780.374
 20
7301560.864
 30
0.0
 11
963242.323
 21
7301577.843
 31
0.0
  0
ARC
  8
0
  6
CONTINUOUS
 62
     7
  5
306
 10
963237.780613
 20
7301433.915807
 30
0.0
 40
144.000473
 50
88.1925
 51
143.003917
210
0.0
220
0.0
230
1.0
  0
LINE
  8
0
  6
CONTINUOUS
 62
     7
  5
307
 10
963122.787
 20
7301520.588
 30
0.0
 11
963084.615
 21
7301469.869
 31
0.0
  0
ARC
  8
0
  6
CONTINUOUS
 62
     7
  5
308
 10
962960.000986
 20
7301563.776265
 30
0.0
 40
156.000513
 50
270.000961
 51
323.003917
210
0.0
220
0.0
230
1.0
  0
LINE
  8
0
  6
CONTINUOUS
 62
     7
  5
309
 10
962960.012
 20
7301407.792
 30
0.0
 11
962902.897
 21
7301407.781
 31
0.0
  0
ARC
  8
0
  6
CONTINUOUS
 62
     7
  5
30A
 10
962903.921044
 20
7301429.774883
 30
0.0
 40
10.000033
 50
178.1925
 51
270.000961
210
0.0
220
0.0
230
1.0
  0
ARC
  8
0
  6
CONTINUOUS
 62
     7
  5
30B
 10
962902.911207
 20
7301397.77476
 30
0.0
 40
10.000033
 50
90.000961
 51
178.1925
210
0.0
220
0.0
230
1.0
  0
ARC
  8
0
  6
CONTINUOUS
 62
     7
  5
30C
 10
962864.007962
 20
7301433.164316
 30
0.0
 40
10.000033
 50
268.1925
 51
358.1925
210
0.0
220
0.0
230
1.0
  0
ARC
  8
0
  6
CONTINUOUS
 62
     7
  5
30D
 10
962862.746294
 20
7301393.184087
 30
0.0
 40
10.000033
 50
358.1925
 51
88.1925
210
0.0
220
0.0
230
1.0
  0
ARC
  8
0
  6
CONTINUOUS
 62
     7
  5
30E
 10
962833.643512
 20
7300470.96369
 30
0.0
 40
10.000033
 50
268.1925
 51
358.1925
210
0.0
220
0.0
230
1.0
  0
ARC
  8
0
  6
CONTINUOUS
 62
     7
  5
30F
 10
962832.381844
 20
7300430.983461
 30
0.0
 40
10.000033
 50
358.1925
 51
88.1925
210
0.0
220
0.0
230
1.0
  0
ARC
  8
0
  6
CONTINUOUS
 62
     7
  5
310
 10
961836.4438
 20
7300502.432616
 30
0.0
 40
10.000033
 50
212.708361
 51
268.1925
210
0.0
220
0.0
230
1.0
  0
ARC
  8
0
  6
CONTINUOUS
 62
     7
  5
311
 10
961769.732965
 20
7300504.537829
 30
0.0
 40
10.000033
 50
268.1925
 51
32.249378
210
0.0
220
0.0
230
1.0
  0
ARC
  8
0
  6
CONTINUOUS
 62
     7
  5
312
 10
961260.194557
 20
7300520.617483
 30
0.0
 40
10.000033
 50
178.1925
 51
268.1925
210
0.0
220
0.0
230
1.0
  0
ARC
  8
0
  6
CONTINUOUS
 62
     7
  5
313
 10
961258.932889
 20
7300480.637254
 30
0.0
 40
10.000033
 50
88.1925
 51
178.1925
210
0.0
220
0.0
230
1.0
  0
ARC
  8
0
  6
CONTINUOUS
 62
     7
  5
314
 10
961220.214328
 20
7300521.879151
 30
0.0
 40
10.000033
 50
268.1925
 51
358.1925
210
0.0
220
0.0
230
1.0
  0
ARC
  8
0
  6
CONTINUOUS
 62
     7
  5
315
 10
961218.95266
 20
7300481.898922
 30
0.0
 40
10.000033
 50
358.1925
 51
88.1925
210
0.0
220
0.0
230
1.0
  0
ARC
  8
0
  6
CONTINUOUS
 62
     7
  5
316
 10
961289.297339
 20
7301442.837881
 30
0.0
 40
10.000033
 50
88.1925
 51
178.1925
210
0.0
220
0.0
230
1.0
  0
ARC
  8
0
  6
CONTINUOUS
 62
     7
  5
317
 10
961249.31711
 20
7301444.099548
 30
0.0
 40
10.000033
 50
358.1925
 51
88.1925
210
0.0
220
0.0
230
1.0
  0
ARC
  8
0
  6
CONTINUOUS
 62
     7
  5
318
 10
961970.680679
 20
7300458.176419
 30
0.0
 40
10.000033
 50
358.1925
 51
88.1925
210
0.0
220
0.0
230
1.0
  0
ARC
  8
0
  6
CONTINUOUS
 62
     7
  5
319
 10
962010.660908
 20
7300456.914751
 30
0.0
 40
10.000033
 50
88.1925
 51
178.1925
210
0.0
220
0.0
230
1.0
  0
ARC
  8
0
  6
CONTINUOUS
 62
     7
  5
31A
 10
961826.379254
 20
7301425.889028
 30
0.0
 40
10.000033
 50
88.1925
 51
178.1925
210
0.0
220
0.0
230
1.0
  0
ARC
  8
0
  6
CONTINUOUS
 62
     7
  5
31B
 10
961771.406439
 20
7301427.623821
 30
0.0
 40
10.000033
 50
358.1925
 51
88.1925
210
0.0
220
0.0
230
1.0
  0
ARC
  8
0
  6
CONTINUOUS
 62
     7
  5
31C
 10
962850.763943
 20
7299814.239171
 30
0.0
 40
10.000033
 50
268.1925
 51
312.043125
210
0.0
220
0.0
230
1.0
  0
ARC
  8
0
  6
CONTINUOUS
 62
     7
  5
31D
 10
962927.73337
 20
7299811.810224
 30
0.0
 40
10.000033
 50
132.043125
 51
268.1925
210
0.0
220
0.0
230
1.0
  0
ARC
  8
0
  6
CONTINUOUS
 62
     7
  5
31E
 10
962859.473444
 20
7300021.301826
 30
0.0
 40
10.000033
 50
88.1925
 51
178.1925
210
0.0
220
0.0
230
1.0
  0
ARC
  8
0
  6
CONTINUOUS
 62
     7
  5
31F
 10
962861.070529
 20
7300071.910884
 30
0.0
 40
10.000033
 50
178.1925
 51
268.1925
210
0.0
220
0.0
230
1.0
  0
LINE
  8
0
  6
CONTINUOUS
 62
     7
  5
320
 10
962883.88
 20
7299844.867
 30
0.0
 11
962889.418
 21
7300020.348
 31
0.0
  0
LINE
  8
0
  6
CONTINUOUS
 62
     7
  5
321
 10
962891.014
 20
7300070.942
 30
0.0
 11
962891.04
 21
7300071.754
 31
0.0
  0
LINE
  8
0
  6
CONTINUOUS
 62
     7
  5
322
 10
962891.04
 20
7300071.754
 30
0.0
 11
963032.543
 21
7300067.288
 31
0.0
  0
LINE
  8
0
  6
CONTINUOUS
 62
     7
  5
323
 10
963032.543
 20
7300067.288
 30
0.0
 11
963025.383
 21
7299840.401
 31
0.0
  0
LINE
  8
0
  6
CONTINUOUS
 62
     7
  5
324
 10
963025.383
 20
7299840.401
 30
0.0
 11
962951.23
 21
7299842.741
 31
0.0
  0
ARC
  8
0
  6
CONTINUOUS
 62
     7
  5
325
 10
962950.917127
 20
7299832.716591
 30
0.0
 40
10.000033
 50
88.1925
 51
132.043125
210
0.0
220
0.0
230
1.0
  0
LINE
  8
0
  6
CONTINUOUS
 62
     7
  5
326
 10
962886.707
 20
7299844.778
 30
0.0
 11
962883.88
 21
7299844.867
 31
0.0
  0
ARC
  8
0
  6
CONTINUOUS
 62
     7
  5
327
 10
962886.521298
 20
7299839.751255
 30
0.0
 40
5.000016
 50
312.043125
 51
88.1925
210
0.0
220
0.0
230
1.0
  0
ARC
  8
0
  6
CONTINUOUS
 62
     7
  5
328
 10
962881.005201
 20
7300071.2818
 30
0.0
 40
10.000033
 50
268.1925
 51
358.1925
210
0.0
220
0.0
230
1.0
  0
ARC
  8
0
  6
CONTINUOUS
 62
     7
  5
329
 10
962879.408116
 20
7300020.672742
 30
0.0
 40
10.000033
 50
358.1925
 51
88.1925
210
0.0
220
0.0
230
1.0
  0
ARC
  8
0
  6
CONTINUOUS
 62
     7
  5
32A
 10
961991.235777
 20
7299841.363555
 30
0.0
 40
10.000033
 50
178.1925
 51
268.1925
210
0.0
220
0.0
230
1.0
  0
ARC
  8
0
  6
CONTINUOUS
 62
     7
  5
32B
 10
961951.255548
 20
7299842.625223
 30
0.0
 40
10.000033
 50
268.1925
 51
358.1925
210
0.0
220
0.0
230
1.0
  0
ARC
  8
0
  6
CONTINUOUS
 62
     7
  5
32C
 10
961239.507758
 20
7299865.086058
 30
0.0
 40
10.000033
 50
178.1925
 51
268.1925
210
0.0
220
0.0
230
1.0
  0
ARC
  8
0
  6
CONTINUOUS
 62
     7
  5
32D
 10
961238.119924
 20
7299821.107806
 30
0.0
 40
10.000033
 50
88.1925
 51
178.1925
210
0.0
220
0.0
230
1.0
  0
ARC
  8
0
  6
CONTINUOUS
 62
     7
  5
32E
 10
961199.527529
 20
7299866.347726
 30
0.0
 40
10.000033
 50
268.1925
 51
358.1925
210
0.0
220
0.0
230
1.0
  0
ARC
  8
0
  6
CONTINUOUS
 62
     7
  5
32F
 10
961198.139694
 20
7299822.369474
 30
0.0
 40
10.000033
 50
358.1925
 51
88.1925
210
0.0
220
0.0
230
1.0
  0
ARC
  8
0
  6
CONTINUOUS
 62
     7
  5
330
 10
960296.685157
 20
7299894.83899
 30
0.0
 40
10.000033
 50
178.1925
 51
268.1925
210
0.0
220
0.0
230
1.0
  0
ARC
  8
0
  6
CONTINUOUS
 62
     7
  5
331
 10
960295.297322
 20
7299850.860738
 30
0.0
 40
10.000033
 50
88.1925
 51
178.1925
210
0.0
220
0.0
230
1.0
  0
ARC
  8
0
  6
CONTINUOUS
 62
     7
  5
332
 10
960317.371956
 20
7300550.370415
 30
0.0
 40
10.000033
 50
178.1925
 51
268.1925
210
0.0
220
0.0
230
1.0
  0
ARC
  8
0
  6
CONTINUOUS
 62
     7
  5
333
 10
960316.110288
 20
7300510.390186
 30
0.0
 40
10.000033
 50
88.1925
 51
178.1925
210
0.0
220
0.0
230
1.0
  0
ARC
  8
0
  6
CONTINUOUS
 62
     7
  5
334
 10
960347.736405
 20
7301512.571041
 30
0.0
 40
10.000033
 50
178.1925
 51
268.1925
210
0.0
220
0.0
230
1.0
  0
ARC
  8
0
  6
CONTINUOUS
 62
     7
  5
335
 10
960346.474738
 20
7301472.590812
 30
0.0
 40
10.000033
 50
88.1925
 51
178.1925
210
0.0
220
0.0
230
1.0
  0
ARC
  8
0
  6
CONTINUOUS
 62
     7
  5
336
 10
963919.145906
 20
7299780.523925
 30
0.0
 40
10.000033
 50
268.1925
 51
358.1925
210
0.0
220
0.0
230
1.0
  0
ARC
  8
0
  6
CONTINUOUS
 62
     7
  5
337
 10
963917.758072
 20
7299736.545673
 30
0.0
 40
10.000033
 50
358.1925
 51
88.1925
210
0.0
220
0.0
230
1.0
  0
ARC
  8
0
  6
CONTINUOUS
 62
     7
  5
338
 10
963716.803695
 20
7301341.82627
 30
0.0
 40
10.000033
 50
358.1925
 51
88.1925
210
0.0
220
0.0
230
1.0
  0
ARC
  8
0
  6
CONTINUOUS
 62
     7
  5
339
 10
963811.015334
 20
7301340.844963
 30
0.0
 40
10.000033
 50
88.1925
 51
178.1925
210
0.0
220
0.0
230
1.0
  0
ARC
  8
0
  6
CONTINUOUS
 62
     7
  5
33A
 10
963810.450477
 20
7301322.945538
 30
0.0
 40
10.000033
 50
178.1925
 51
268.1925
210
0.0
220
0.0
230
1.0
  0
LINE
  8
6
  6
CONTINUOUS
 62
     7
  5
33B
 10
959798.775
 20
7299320.566
 30
0.0
 11
960261.157
 21
7299305.974
 31
0.0
  0
ARC
  8
0
  6
CONTINUOUS
 62
     7
  5
33C
 10
960192.127521
 20
7299318.192418
 30
0.0
 40
10.000033
 50
268.1925
 51
319.652464
210
0.0
220
0.0
230
1.0
  0
ARC
  8
0
  6
CONTINUOUS
 62
     7
  5
33D
 10
960261.537698
 20
7299316.002021
 30
0.0
 40
10.000033
 50
146.037764
 51
268.1925
210
0.0
220
0.0
230
1.0
  0
LINE
  8
0
  6
CONTINUOUS
 62
     7
  5
33E
 10
959903.605
 20
7302659.608
 30
0.0
 11
959902.993
 21
7302640.228
 31
0.0
  0
LINE
  8
0
  6
CONTINUOUS
 62
     2
  5
33F
 10
959819.216
 20
7302168.983
 30
0.0
 11
959791.614
 21
7301294.345
 31
0.0
  0
LINE
  8
0
  6
CENTER
 62
     7
  5
340
 10
959381.84
 20
7302758.307
 30
0.0
 11
959410.431
 21
7303664.306
 31
0.0
  0
ARC
  8
0
  6
CONTINUOUS
 62
     7
  5
341
 10
960500.971654
 20
7302418.787782
 30
0.0
 40
10.000033
 50
178.1925
 51
268.1925
210
0.0
220
0.0
230
1.0
  0
ARC
  8
0
  6
CONTINUOUS
 62
     7
  5
342
 10
960456.83222
 20
7302446.772301
 30
0.0
 40
10.000033
 50
326.901044
 51
358.1925
210
0.0
220
0.0
230
1.0
  0
ARC
  8
0
  6
CONTINUOUS
 62
     7
  5
343
 10
960444.561103
 20
7302391.323353
 30
0.0
 40
10.000033
 50
146.901044
 51
178.1925
210
0.0
220
0.0
230
1.0
  0
ARC
  8
6
  6
CONTINUOUS
 62
     7
  5
344
 10
964077.408118
 20
7304446.441515
 30
0.0
 40
10.000033
 50
268.1925
 51
322.866506
210
0.0
220
0.0
230
1.0
  0
LINE
  8
0
  6
CONTINUOUS
 62
     7
  5
345
 10
962723.113
 20
7304459.182
 30
0.0
 11
964076.476
 21
7304416.474
 31
0.0
  0
ARC
  8
6
  6
CONTINUOUS
 62
     7
  5
346
 10
961215.625246
 20
7304225.435509
 30
0.0
 40
301.161305
 50
65.852425
 51
88.239761
210
0.0
220
0.0
230
1.0
  0
ARC
  8
6
  6
CONTINUOUS
 62
     7
  5
347
 10
961626.62952
 20
7304244.796735
 30
0.0
 40
268.845934
 50
88.156222
 51
111.855422
210
0.0
220
0.0
230
1.0
  0
LINE
  8
6
  6
CONTINUOUS
 62
     7
  5
348
 10
961635.27
 20
7304513.514
 30
0.0
 11
964077.107
 21
7304436.456
 31
0.0
  0
LINE
  8
6
  6
CONTINUOUS
 62
     7
  5
349
 10
958807.882
 20
7304602.739
 30
0.0
 11
961224.895
 21
7304526.464
 31
0.0
  0
TEXT
  8
0
  6
CONTINUOUS
 62
     2
  5
34B
 10
963636.975
 20
7303399.452
 30
0.0
 40
80.0
  1
26
 50
88.1925
  7
MONOTXT
210
0.0
220
0.0
230
1.0
  0
LINE
  8
0
  6
CONTINUOUS
 62
     2
  5
34C
 10
963909.25
 20
7303556.282
 30
0.0
 11
963904.519
 21
7303406.36
 31
0.0
  0
LINE
  8
0
  6
CONTINUOUS
 62
     2
  5
34D
 10
963709.338
 20
7303562.59
 30
0.0
 11
963909.25
 21
7303556.282
 31
0.0
  0
LINE
  8
0
  6
CONTINUOUS
 62
     2
  5
34E
 10
963704.607
 20
7303412.669
 30
0.0
 11
963904.519
 21
7303406.36
 31
0.0
  0
LINE
  8
0
  6
DASHED
 62
     3
  5
34F
 10
958795.461
 20
7304209.126
 30
0.0
 11
958654.685
 21
7299748.19
 31
0.0
  0
LINE
  8
0
  6
CONTINUOUS
 62
     7
  5
350
 10
958808.343
 20
7304617.337
 30
0.0
 11
958800.508
 21
7304369.062
 31
0.0
  0
LINE
  8
0
  6
CONTINUOUS
 62
     7
  5
351
 10
963670.989
 20
7299182.137
 30
0.0
 11
963919.197
 21
7299174.305
 31
0.0
  0
LINE
  8
6
  6
CONTINUOUS
 62
     7
  5
352
 10
958649.638
 20
7299588.247
 30
0.0
 11
958641.803
 21
7299339.965
 31
0.0
  0
LINE
  8
0
  6
CONTINUOUS
 62
     7
  5
353
 10
963708.531
 20
7303537.016
 30
0.0
 11
963734.905
 21
7303561.783
 31
0.0
  0
LINE
  8
0
  6
CONTINUOUS
 62
     7
  5
354
 10
963705.414
 20
7303438.242
 30
0.0
 11
963730.174
 21
7303411.862
 31
0.0
  0
LINE
  8
0
  6
CONTINUOUS
 62
     7
  5
355
 10
963707.581
 20
7303487.606
 30
0.0
 11
963784.903
 21
7303560.206
 31
0.0
  0
LINE
  8
0
  6
CONTINUOUS
 62
     7
  5
356
 10
963707.581
 20
7303487.606
 30
0.0
 11
963780.172
 21
7303410.284
 31
0.0
  0
LINE
  8
0
  6
CONTINUOUS
 62
     7
  5
357
 10
963757.572
 20
7303486.029
 30
0.0
 11
963834.895
 21
7303558.628
 31
0.0
  0
LINE
  8
0
  6
CONTINUOUS
 62
     7
  5
358
 10
963757.572
 20
7303486.029
 30
0.0
 11
963830.164
 21
7303408.707
 31
0.0
  0
LINE
  8
0
  6
CONTINUOUS
 62
     7
  5
359
 10
963807.564
 20
7303484.451
 30
0.0
 11
963884.826
 21
7303557.052
 31
0.0
  0
LINE
  8
0
  6
CONTINUOUS
 62
     7
  5
35A
 10
963807.564
 20
7303484.451
 30
0.0
 11
963880.095
 21
7303407.131
 31
0.0
  0
LINE
  8
0
  6
CONTINUOUS
 62
     7
  5
35B
 10
963857.556
 20
7303482.874
 30
0.0
 11
963908.443
 21
7303530.707
 31
0.0
  0
LINE
  8
0
  6
CONTINUOUS
 62
     7
  5
35C
 10
963857.556
 20
7303482.874
 30
0.0
 11
963905.326
 21
7303431.933
 31
0.0
  0
ARC
  8
6
  6
CONTINUOUS
 62
     7
  5
35D
 10
961446.095788
 20
7304711.416103
 30
0.0
 40
256.847209
 50
242.937989
 51
293.447011
210
0.0
220
0.0
230
1.0
  0
LINE
  8
6
  6
CONTINUOUS
 62
     7
  5
35E
 10
961634.64
 20
7304493.532
 30
0.0
 11
964084.624
 21
7304416.217
 31
0.0
  0
LINE
  8
6
  6
CONTINUOUS
 62
     7
  5
35F
 10
958807.251
 20
7304582.756
 30
0.0
 11
961224.264
 21
7304506.482
 31
0.0
  0
POLYLINE
  8
0
  6
DIVIDE
 62
     5
  5
360
 66
     1
 10
0.0
 20
0.0
 30
0.0
  0
VERTEX
  8
0
  6
DIVIDE
 62
     5
  5
361
 10
958808.343
 20
7304617.337
 30
0.0
  0
VERTEX
  8
0
  6
DIVIDE
 62
     5
  5
362
 10
958808.336
 20
7304617.141
 30
0.0
  0
VERTEX
  8
0
  6
DIVIDE
 62
     5
  5
363
 10
958808.336
 20
7304617.141
 30
0.0
  0
SEQEND
  8
0
  6
DIVIDE
 62
     5
  5
364
  0
LINE
  8
0
  6
DIVIDE
 62
     5
  5
365
 10
958808.336
 20
7304617.141
 30
0.0
 11
964085.705
 21
7304450.683
 31
0.0
  0
SOLID
  8
0
  6
CONTINUOUS
 62
     2
  5
366
 10
959634.109
 20
7300716.849
 30
0.0
 11
959633.285
 21
7300690.74
 31
0.0
 12
959604.302
 22
7300717.789
 32
0.0
 13
959603.478
 23
7300691.68
 33
0.0
  0
POLYLINE
  8
0
  6
CONTINUOUS
 62
     2
  5
367
 66
     1
 10
0.0
 20
0.0
 30
0.0
 70
     1
  0
VERTEX
  8
0
  6
CONTINUOUS
 62
     2
  5
368
 10
959603.478
 20
7300691.68
 30
0.0
  0
VERTEX
  8
0
  6
CONTINUOUS
 62
     2
  5
369
 10
959604.302
 20
7300717.789
 30
0.0
  0
VERTEX
  8
0
  6
CONTINUOUS
 62
     2
  5
36A
 10
959634.109
 20
7300716.849
 30
0.0
  0
VERTEX
  8
0
  6
CONTINUOUS
 62
     2
  5
36B
 10
959633.285
 20
7300690.74
 30
0.0
  0
SEQEND
  8
0
  6
CONTINUOUS
 62
     2
  5
36C
  0
LINE
  8
0
  6
CONTINUOUS
 62
     7
  5
36D
 10
959907.9
 20
7302575.885
 30
0.0
 11
959924.447
 21
7302575.363
 31
0.0
  0
LINE
  8
0
  6
CONTINUOUS
 62
     2
  5
36E
 10
959903.263
 20
7302428.932
 30
0.0
 11
959907.9
 21
7302575.885
 31
0.0
  0
LINE
  8
0
  6
CONTINUOUS
 62
     2
  5
36F
 10
959992.811
 20
7302573.205
 30
0.0
 11
959988.173
 21
7302426.252
 31
0.0
  0
LINE
  8
0
  6
CONTINUOUS
 62
     2
  5
370
 10
959988.173
 20
7302426.252
 30
0.0
 11
959903.263
 21
7302428.932
 31
0.0
  0
LINE
  8
0
  6
CONTINUOUS
 62
     2
  5
371
 10
959907.9
 20
7302575.885
 30
0.0
 11
959992.811
 21
7302573.205
 31
0.0
  0
LINE
  8
6
  6
CONTINUOUS
 62
     7
  5
372
 10
958869.717
 20
7301273.464
 30
0.0
 11
958845.638
 21
7300510.44
 31
0.0
  0
ARC
  8
6
  6
CONTINUOUS
 62
     7
  5
373
 10
958245.880999
 20
7300529.307757
 30
0.0
 40
600.001973
 50
330.431914
 51
358.1925
210
0.0
220
0.0
230
1.0
  0
ARC
  8
6
  6
CONTINUOUS
 62
     7
  5
374
 10
959359.933673
 20
7299886.849023
 30
0.0
 40
686.053343
 50
149.675775
 51
175.628025
210
0.0
220
0.0
230
1.0
  0
ARC
  8
6
  6
CONTINUOUS
 62
     7
  5
375
 10
958565.911973
 20
7301283.034875
 30
0.0
 40
303.903989
 50
358.1925
 51
61.367731
210
0.0
220
0.0
230
1.0
  0
LINE
  8
6
  6
CONTINUOUS
 62
     7
  5
376
 10
958675.867
 20
7299939.139
 30
0.0
 11
958656.943
 21
7299339.488
 31
0.0
  0
LINE
  8
0
  6
CONTINUOUS
 62
     7
  5
377
 10
959974.294
 20
7299760.42
 30
0.0
 11
959988.631
 21
7299704.68
 31
0.0
  0
POLYLINE
  8
0
  6
CONTINUOUS
 62
     2
  5
378
 66
     1
 10
0.0
 20
0.0
 30
0.0
  0
VERTEX
  8
0
  6
CONTINUOUS
 62
     2
  5
379
 10
959987.076
 20
7299655.418
 30
0.0
  0
VERTEX
  8
0
  6
CONTINUOUS
 62
     2
  5
37A
 10
959988.631
 20
7299704.68
 30
0.0
  0
VERTEX
  8
0
  6
CONTINUOUS
 62
     2
  5
37B
 10
960080.48
 20
7299701.781
 30
0.0
  0
VERTEX
  8
0
  6
CONTINUOUS
 62
     2
  5
37C
 10
960078.925
 20
7299652.52
 30
0.0
  0
SEQEND
  8
0
  6
CONTINUOUS
 62
     2
  5
37D
  0
POLYLINE
  8
0
  6
CONTINUOUS
 62
     2
  5
37E
 66
     1
 10
0.0
 20
0.0
 30
0.0
  0
VERTEX
  8
0
  6
CONTINUOUS
 62
     2
  5
37F
 10
959992.505
 20
7300042.996
 30
0.0
  0
VERTEX
  8
0
  6
CONTINUOUS
 62
     2
  5
380
 10
959994.581
 20
7300108.804
 30
0.0
  0
VERTEX
  8
0
  6
CONTINUOUS
 62
     2
  5
381
 10
959764.469
 20
7300116.066
 30
0.0
  0
VERTEX
  8
0
  6
CONTINUOUS
 62
     2
  5
382
 10
959764.477495
 20
7300116.074781
 30
0.0
 42
-0.414214
  0
VERTEX
  8
0
  6
CONTINUOUS
 62
     2
  5
383
 10
959754.797855
 20
7300126.385255
 30
0.0
  0
VERTEX
  8
0
  6
CONTINUOUS
 62
     2
  5
384
 10
959754.757
 20
7300126.404
 30
0.0
  0
VERTEX
  8
0
  6
CONTINUOUS
 62
     2
  5
385
 10
959784.843
 20
7301079.772
 30
0.0
  0
SEQEND
  8
0
  6
CONTINUOUS
 62
     2
  5
386
  0
POLYLINE
  8
0
  6
CONTINUOUS
 62
     7
  5
387
 66
     1
 10
0.0
 20
0.0
 30
0.0
  0
VERTEX
  8
0
  6
CONTINUOUS
 62
     7
  5
388
 10
959855.685
 20
7301117.54
 30
0.0
  0
VERTEX
  8
0
  6
CONTINUOUS
 62
     7
  5
389
 10
959824.464
 20
7300128.178
 30
0.0
  0
VERTEX
  8
0
  6
CONTINUOUS
 62
     7
  5
38A
 10
960002.156
 20
7300122.57
 30
0.0
  0
VERTEX
  8
0
  6
CONTINUOUS
 62
     7
  5
38B
 10
959999.39
 20
7300034.9
 30
0.0
  0
VERTEX
  8
0
  6
CONTINUOUS
 62
     7
  5
38C
 10
959981.13
 20
7299972.777
 30
0.0
  0
SEQEND
  8
0
  6
CONTINUOUS
 62
     7
  5
38D
  0
LINE
  8
0
  6
CONTINUOUS
 62
     7
  5
38E
 10
959859.934
 20
7301252.179
 30
0.0
 11
959870.771
 21
7301538.088
 31
0.0
  0
LINE
  8
0
  6
CONTINUOUS
 62
     7
  5
38F
 10
959873.563
 20
7301626.563
 30
0.0
 11
959885.861
 21
7301892.486
 31
0.0
  0
LINE
  8
0
  6
CONTINUOUS
 62
     7
  5
390
 10
959954.351
 20
7302071.505
 30
0.0
 11
959944.852
 21
7302210.205
 31
0.0
  0
LINE
  8
0
  6
CONTINUOUS
 62
     7
  5
391
 10
959894.186
 20
7302337.555
 30
0.0
 11
959903.475
 21
7302659.815
 31
0.0
  0
POLYLINE
  8
0
  6
CONTINUOUS
 62
     7
  5
392
 66
     1
 10
0.0
 20
0.0
 30
0.0
  0
VERTEX
  8
0
  6
CONTINUOUS
 62
     7
  5
393
 10
959989.071
 20
7302736.315
 30
0.0
  0
VERTEX
  8
0
  6
CONTINUOUS
 62
     7
  5
394
 10
960381.675
 20
7302723.926
 30
0.0
  0
VERTEX
  8
0
  6
CONTINUOUS
 62
     7
  5
395
 10
960369.702
 20
7302344.507
 30
0.0
  0
VERTEX
  8
0
  6
CONTINUOUS
 62
     7
  5
396
 10
960412.769
 20
7302343.148
 30
0.0
  0
SEQEND
  8
0
  6
CONTINUOUS
 62
     7
  5
397
  0
POLYLINE
  8
0
  6
CONTINUOUS
 62
     2
  5
398
 66
     1
 10
0.0
 20
0.0
 30
0.0
 70
     1
  0
VERTEX
  8
0
  6
CONTINUOUS
 62
     2
  5
399
 10
960413.825
 20
7302075.66
 30
0.0
  0
VERTEX
  8
0
  6
CONTINUOUS
 62
     2
  5
39A
 10
960514.072
 20
7302072.497
 30
0.0
  0
VERTEX
  8
0
  6
CONTINUOUS
 62
     2
  5
39B
 10
960500.005
 20
7301626.729
 30
0.0
  0
VERTEX
  8
0
  6
CONTINUOUS
 62
     2
  5
39C
 10
960399.758
 20
7301629.892
 30
0.0
  0
SEQEND
  8
0
  6
CONTINUOUS
 62
     2
  5
39D
  0
SOLID
  8
0
  6
CONTINUOUS
 62
     2
  5
39E
 10
960514.072
 20
7302072.497
 30
0.0
 11
960500.005
 21
7301626.729
 31
0.0
 12
960413.825
 22
7302075.66
 32
0.0
 13
960399.758
 23
7301629.892
 33
0.0
  0
LINE
  8
0
  6
CONTINUOUS
 62
     7
  5
39F
 10
960904.249
 20
7302798.231
 30
0.0
 11
960864.797
 21
7301548.07
 31
0.0
  0
LINE
  8
0
  6
CONTINUOUS
 62
     7
  5
3A0
 10
960864.797
 20
7301548.07
 30
0.0
 11
960859.009
 21
7301548.253
 31
0.0
  0
LINE
  8
0
  6
CONTINUOUS
 62
     7
  5
3A1
 10
960412.232
 20
7301525.848
 30
0.0
 11
960415.43
 21
7301627.177
 31
0.0
  0
LINE
  8
0
  6
CONTINUOUS
 62
     7
  5
3A2
 10
960877.606
 20
7302799.072
 30
0.0
 11
960857.935
 21
7302175.739
 31
0.0
  0
LINE
  8
0
  6
CONTINUOUS
 62
     7
  5
3A3
 10
960824.961
 20
7302144.723
 30
0.0
 11
960376.103
 21
7302158.887
 31
0.0
  0
LINE
  8
0
  6
CONTINUOUS
 62
     7
  5
3A4
 10
960376.103
 20
7302158.887
 30
0.0
 11
960365.102
 21
7301810.277
 31
0.0
  0
LINE
  8
0
  6
CONTINUOUS
 62
     7
  5
3A5
 10
960361.962
 20
7301710.766
 30
0.0
 11
960402.203
 21
7301709.497
 31
0.0
  0
ARC
  8
0
  6
CONTINUOUS
 62
     2
  5
3A6
 10
960944.222618
 20
7302796.940709
 30
0.0
 40
40.000132
 50
88.1925
 51
178.1925
210
0.0
220
0.0
230
1.0
  0
ARC
  8
0
  6
CONTINUOUS
 62
     2
  5
3A7
 10
960837.596692
 20
7302800.305535
 30
0.0
 40
40.000132
 50
358.1925
 51
88.1925
210
0.0
220
0.0
230
1.0
  0
LINE
  8
0
  6
CONTINUOUS
 62
     2
  5
3A8
 10
960945.413
 20
7302836.936
 30
0.0
 11
961172.435
 21
7302829.772
 31
0.0
  0
ARC
  8
0
  6
CONTINUOUS
 62
     7
  5
3A9
 10
960825.924052
 20
7302176.784158
 30
0.0
 40
32.000105
 50
268.1925
 51
358.1925
210
0.0
220
0.0
230
1.0
  0
LINE
  8
0
  6
CONTINUOUS
 62
     7
  5
3AA
 10
960842.493
 20
7301532.806
 30
0.0
 11
960841.55
 21
7301502.932
 31
0.0
  0
LINE
  8
0
  6
CONTINUOUS
 62
     7
  5
3AB
 10
960857.06
 20
7301486.482
 30
0.0
 11
962863.711
 21
7301423.157
 31
0.0
  0
LINE
  8
0
  6
CONTINUOUS
 62
     7
  5
3AC
 10
960802.484
 20
7301513.533
 30
0.0
 11
960412.232
 21
7301525.848
 31
0.0
  0
LINE
  8
0
  6
CONTINUOUS
 62
     7
  5
3AD
 10
960789.899
 20
7301513.93
 30
0.0
 11
960802.484
 21
7301513.533
 31
0.0
  0
ARC
  8
0
  6
CONTINUOUS
 62
     7
  5
3AE
 10
960802.131284
 20
7301500.872983
 30
0.0
 40
12.640134
 50
268.1925
 51
88.1925
210
0.0
220
0.0
230
1.0
  0
ARC
  8
0
  6
CONTINUOUS
 62
     7
  5
3AF
 10
960858.468041
 20
7301532.253695
 30
0.0
 40
16.000053
 50
88.1925
 51
178.1925
210
0.0
220
0.0
230
1.0
  0
ARC
  8
0
  6
CONTINUOUS
 62
     7
  5
3B0
 10
960857.528665
 20
7301502.486383
 30
0.0
 40
16.000053
 50
178.1925
 51
268.1925
210
0.0
220
0.0
230
1.0
  0
LINE
  8
0
  6
CONTINUOUS
 62
     7
  5
3B1
 10
960347.074
 20
7301810.846
 30
0.0
 11
960365.102
 21
7301810.277
 31
0.0
  0
LINE
  8
0
  6
CONTINUOUS
 62
     7
  5
3B2
 10
960346.441
 20
7301790.797
 30
0.0
 11
960364.469
 21
7301790.228
 31
0.0
  0
LINE
  8
0
  6
CONTINUOUS
 62
     7
  5
3B3
 10
960364.469
 20
7301790.228
 30
0.0
 11
960361.962
 21
7301710.766
 31
0.0
  0
POLYLINE
  8
0
  6
CONTINUOUS
 62
     7
  5
3B4
 66
     1
 10
0.0
 20
0.0
 30
0.0
  0
VERTEX
  8
0
  6
CONTINUOUS
 62
     7
  5
3B5
 10
960830.946
 20
7302176.321
 30
0.0
  0
VERTEX
  8
0
  6
CONTINUOUS
 62
     7
  5
3B6
 10
960365.061
 20
7302191.023
 30
0.0
  0
VERTEX
  8
0
  6
CONTINUOUS
 62
     7
  5
3B7
 10
960349.606
 20
7301701.254
 30
0.0
  0
VERTEX
  8
0
  6
CONTINUOUS
 62
     7
  5
3B8
 10
960400.477
 20
7301699.649
 30
0.0
  0
SEQEND
  8
0
  6
CONTINUOUS
 62
     7
  5
3B9
  0
POLYLINE
  8
0
  6
CONTINUOUS
 62
     7
  5
3BA
 66
     1
 10
0.0
 20
0.0
 30
0.0
  0
VERTEX
  8
0
  6
CONTINUOUS
 62
     7
  5
3BB
 10
960403.803
 20
7301630.036
 30
0.0
  0
VERTEX
  8
0
  6
CONTINUOUS
 62
     7
  5
3BC
 10
960400.019
 20
7301510.13
 30
0.0
  0
VERTEX
  8
0
  6
CONTINUOUS
 62
     7
  5
3BD
 10
960890.322
 20
7301494.658
 30
0.0
  0
VERTEX
  8
0
  6
CONTINUOUS
 62
     7
  5
3BE
 10
960901.347
 20
7301844.006
 30
0.0
  0
SEQEND
  8
0
  6
CONTINUOUS
 62
     7
  5
3BF
  0
TEXT
  8
0
  6
CONTINUOUS
 62
     6
  5
3C0
 10
960896.662
 20
7302103.127
 30
0.0
 40
30.32
  1
X
 50
268.1925
  7
MONOTXT
210
0.0
220
0.0
230
1.0
  0
TEXT
  8
0
  6
CONTINUOUS
 62
     6
  5
3C1
 10
959225.872
 20
7304568.537
 30
0.0
 40
30.32
  1
X
 50
178.1925
  7
MONOTXT
210
0.0
220
0.0
230
1.0
  0
TEXT
  8
0
  6
CONTINUOUS
 62
     6
  5
3C2
 10
959780.901
 20
7304551.022
 30
0.0
 40
30.32
  1
X
 50
178.1925
  7
MONOTXT
210
0.0
220
0.0
230
1.0
  0
TEXT
  8
0
  6
CONTINUOUS
 62
     6
  5
3C3
 10
960467.343
 20
7304529.36
 30
0.0
 40
30.32
  1
X
 50
178.1925
  7
MONOTXT
210
0.0
220
0.0
230
1.0
  0
TEXT
  8
0
  6
CONTINUOUS
 62
     6
  5
3C4
 10
961135.014
 20
7304508.29
 30
0.0
 40
30.32
  1
X
 50
178.1925
  7
MONOTXT
210
0.0
220
0.0
230
1.0
  0
TEXT
  8
0
  6
CONTINUOUS
 62
     6
  5
3C5
 10
961758.885
 20
7304488.737
 30
0.0
 40
30.32
  1
X
 50
178.1925
  7
MONOTXT
210
0.0
220
0.0
230
1.0
  0
TEXT
  8
0
  6
CONTINUOUS
 62
     6
  5
3C6
 10
962315.068
 20
7304471.119
 30
0.0
 40
30.32
  1
X
 50
178.1925
  7
MONOTXT
210
0.0
220
0.0
230
1.0
  0
TEXT
  8
0
  6
CONTINUOUS
 62
     6
  5
3C7
 10
963724.016
 20
7304424.767
 30
0.0
 40
30.32
  1
X
 50
178.1925
  7
MONOTXT
210
0.0
220
0.0
230
1.0
  0
TEXT
  8
0
  6
CONTINUOUS
 62
     6
  5
3C8
 10
963055.736
 20
7304447.745
 30
0.0
 40
30.32
  1
X
 50
178.1925
  7
MONOTXT
210
0.0
220
0.0
230
1.0
  0
TEXT
  8
0
  6
CONTINUOUS
 62
     6
  5
3C9
 10
963813.03
 20
7302481.606
 30
0.0
 40
30.32
  1
X
 50
178.1925
  7
MONOTXT
210
0.0
220
0.0
230
1.0
  0
LINE
  8
0
  6
CONTINUOUS
 62
     6
  5
3CA
 10
959755.126
 20
7304536.883
 30
0.0
 11
959228.49
 21
7304553.502
 31
0.0
  0
LINE
  8
0
  6
CONTINUOUS
 62
     6
  5
3CB
 10
960441.034
 20
7304515.238
 30
0.0
 11
959784.601
 21
7304535.953
 31
0.0
  0
LINE
  8
0
  6
CONTINUOUS
 62
     6
  5
3CC
 10
961110.388
 20
7304494.115
 30
0.0
 11
960473.803
 21
7304514.204
 31
0.0
  0
POLYLINE
  8
0
  6
CONTINUOUS
 62
     6
  5
3CD
 66
     1
 10
0.0
 20
0.0
 30
0.0
  0
VERTEX
  8
0
  6
CONTINUOUS
 62
     6
  5
3CE
 10
961732.234
 20
7304474.491
 30
0.0
  0
VERTEX
  8
0
  6
CONTINUOUS
 62
     6
  5
3CF
 10
961634.137
 20
7304477.587
 30
0.0
  0
VERTEX
  8
0
  6
CONTINUOUS
 62
     6
  5
3D0
 10
961634.143981
 20
7304477.521273
 30
0.0
 42
0.117906
  0
VERTEX
  8
0
  6
CONTINUOUS
 62
     6
  5
3D1
 10
961554.870979
 20
7304461.189034
 30
0.0
  0
VERTEX
  8
0
  6
CONTINUOUS
 62
     6
  5
3D2
 10
961554.870973
 20
7304461.189032
 30
0.0
 42
-0.223788
  0
VERTEX
  8
0
  6
CONTINUOUS
 62
     6
  5
3D3
 10
961322.385808
 20
7304468.225913
 30
0.0
  0
VERTEX
  8
0
  6
CONTINUOUS
 62
     6
  5
3D4
 10
961322.385804
 20
7304468.225914
 30
0.0
 42
0.095874
  0
VERTEX
  8
0
  6
CONTINUOUS
 62
     6
  5
3D5
 10
961223.754521
 20
7304490.472061
 30
0.0
  0
VERTEX
  8
0
  6
CONTINUOUS
 62
     6
  5
3D6
 10
961223.761
 20
7304490.537
 30
0.0
  0
VERTEX
  8
0
  6
CONTINUOUS
 62
     6
  5
3D7
 10
961138.241
 20
7304493.236
 30
0.0
  0
SEQEND
  8
0
  6
CONTINUOUS
 62
     6
  5
3D8
  0
POLYLINE
  8
0
  6
CONTINUOUS
 62
     6
  5
3D9
 66
     1
 10
0.0
 20
0.0
 30
0.0
  0
VERTEX
  8
0
  6
CONTINUOUS
 62
     6
  5
3DA
 10
962291.914
 20
7304456.829
 30
0.0
  0
VERTEX
  8
0
  6
CONTINUOUS
 62
     6
  5
3DB
 10
961763.393
 20
7304473.508
 30
0.0
  0
SEQEND
  8
0
  6
CONTINUOUS
 62
     6
  5
3DC
  0
POLYLINE
  8
0
  6
CONTINUOUS
 62
     6
  5
3DD
 66
     1
 10
0.0
 20
0.0
 30
0.0
  0
VERTEX
  8
0
  6
CONTINUOUS
 62
     6
  5
3DE
 10
963028.754
 20
7304433.576
 30
0.0
  0
VERTEX
  8
0
  6
CONTINUOUS
 62
     6
  5
3DF
 10
962316.474
 20
7304456.054
 30
0.0
  0
SEQEND
  8
0
  6
CONTINUOUS
 62
     6
  5
3E0
  0
POLYLINE
  8
0
  6
CONTINUOUS
 62
     6
  5
3E1
 66
     1
 10
0.0
 20
0.0
 30
0.0
  0
VERTEX
  8
0
  6
CONTINUOUS
 62
     6
  5
3E2
 10
963696.69
 20
7304412.498
 30
0.0
  0
VERTEX
  8
0
  6
CONTINUOUS
 62
     6
  5
3E3
 10
963059.975
 20
7304432.591
 30
0.0
  0
SEQEND
  8
0
  6
CONTINUOUS
 62
     6
  5
3E4
  0
POLYLINE
  8
0
  6
CONTINUOUS
 62
     6
  5
3E5
 66
     1
 10
0.0
 20
0.0
 30
0.0
  0
VERTEX
  8
0
  6
CONTINUOUS
 62
     6
  5
3E6
 10
964078.914
 20
7304235.488
 30
0.0
  0
VERTEX
  8
0
  6
CONTINUOUS
 62
     6
  5
3E7
 10
963919.404
 20
7304405.47
 30
0.0
  0
VERTEX
  8
0
  6
CONTINUOUS
 62
     6
  5
3E8
 10
963726.233
 20
7304411.566
 30
0.0
  0
SEQEND
  8
0
  6
CONTINUOUS
 62
     6
  5
3E9
  0
POLYLINE
  8
0
  6
CONTINUOUS
 62
     6
  5
3EA
 66
     1
 10
0.0
 20
0.0
 30
0.0
  0
VERTEX
  8
0
  6
CONTINUOUS
 62
     6
  5
3EB
 10
963814.078
 20
7302465.687
 30
0.0
  0
VERTEX
  8
0
  6
CONTINUOUS
 62
     6
  5
3EC
 10
963981.749
 20
7302460.396
 30
0.0
  0
VERTEX
  8
0
  6
CONTINUOUS
 62
     6
  5
3ED
 10
963986.168
 20
7302600.417
 30
0.0
  0
SEQEND
  8
0
  6
CONTINUOUS
 62
     6
  5
3EE
  0
ARC
  8
0
  6
CONTINUOUS
 62
     6
  5
3EF
 10
964189.035372
 20
7302594.003555
 30
0.0
 40
203.000667
 50
141.060558
 51
178.1925
210
0.0
220
0.0
230
1.0
  0
LINE
  8
0
  6
CONTINUOUS
 62
     6
  5
3F0
 10
962468.775
 20
7302508.141
 30
0.0
 11
963123.396
 21
7302487.483
 31
0.0
  0
LINE
  8
0
  6
CONTINUOUS
 62
     6
  5
3F1
 10
961909.439
 20
7302525.792
 30
0.0
 11
962435.946
 21
7302509.177
 31
0.0
  0
LINE
  8
0
  6
CONTINUOUS
 62
     6
  5
3F2
 10
960901.347
 20
7301844.006
 30
0.0
 11
960908.628
 21
7302074.727
 31
0.0
  0
POLYLINE
  8
0
  6
CONTINUOUS
 62
     6
  5
3F3
 66
     1
 10
0.0
 20
0.0
 30
0.0
  0
VERTEX
  8
0
  6
CONTINUOUS
 62
     6
  5
3F4
 10
960909.986
 20
7302117.787
 30
0.0
  0
VERTEX
  8
0
  6
CONTINUOUS
 62
     6
  5
3F5
 10
960923.843
 20
7302556.895
 30
0.0
  0
VERTEX
  8
0
  6
CONTINUOUS
 62
     6
  5
3F6
 10
961343.232
 20
7302543.66
 30
0.0
  0
SEQEND
  8
0
  6
CONTINUOUS
 62
     6
  5
3F7
  0
LINE
  8
0
  6
CONTINUOUS
 62
     7
  5
3F8
 10
959882.221
 20
7302528.541
 30
0.0
 11
959916.107
 21
7302496.62
 31
0.0
  0
LINE
  8
0
  6
CONTINUOUS
 62
     7
  5
3F9
 10
959932.595
 20
7302156.848
 30
0.0
 11
959966.542
 21
7302124.932
 31
0.0
  0
LINE
  8
0
  6
CONTINUOUS
 62
     7
  5
3FA
 10
959862.949
 20
7301778.844
 30
0.0
 11
959896.823
 21
7301746.997
 31
0.0
  0
LINE
  8
0
  6
CONTINUOUS
 62
     7
  5
3FB
 10
959831.974
 20
7300921.282
 30
0.0
 11
959865.923
 21
7300889.434
 31
0.0
  0
LINE
  8
0
  6
CONTINUOUS
 62
     7
  5
3FC
 10
959820.167
 20
7300547.112
 30
0.0
 11
959854.113
 21
7300515.195
 31
0.0
  0
LINE
  8
0
  6
CONTINUOUS
 62
     7
  5
3FD
 10
959809.682
 20
7300214.858
 30
0.0
 11
959843.63
 21
7300183.009
 31
0.0
  0
LINE
  8
0
  6
CONTINUOUS
 62
     7
  5
3FE
 10
959982.71
 20
7300078.394
 30
0.0
 11
960016.73
 21
7300046.414
 31
0.0
  0
LINE
  8
0
  6
CONTINUOUS
 62
     7
  5
3FF
 10
959956.404
 20
7299737.686
 30
0.0
 11
960002.362
 21
7299729.906
 31
0.0
  0
LINE
  8
0
  6
CONTINUOUS
 62
     7
  5
400
 10
960338.987
 20
7301938.734
 30
0.0
 11
960372.859
 21
7301906.819
 31
0.0
  0
LINE
  8
0
  6
CONTINUOUS
 62
     7
  5
401
 10
960358.748
 20
7302550.143
 30
0.0
 11
960392.636
 21
7302518.289
 31
0.0
  0
LINE
  8
0
  6
CONTINUOUS
 62
     7
  5
402
 10
960168.47
 20
7302746.141
 30
0.0
 11
960202.347
 21
7302714.165
 31
0.0
  0
LINE
  8
0
  6
CONTINUOUS
 62
     7
  5
403
 10
960581.066
 20
7302199.558
 30
0.0
 11
960615.007
 21
7302167.715
 31
0.0
  0
LINE
  8
0
  6
CONTINUOUS
 62
     7
  5
404
 10
960881.162
 20
7301667.503
 30
0.0
 11
960915.177
 21
7301635.585
 31
0.0
  0
LINE
  8
0
  6
CONTINUOUS
 62
     7
  5
405
 10
960634.387
 20
7301518.228
 30
0.0
 11
960668.333
 21
7301486.311
 31
0.0
  0
LINE
  8
0
  6
CENTER
 62
     7
  5
406
 10
963651.469
 20
7303489.377
 30
0.0
 11
964054.967
 21
7303476.644
 31
0.0
  0
LINE
  8
0
  6
CENTER
 62
     7
  5
407
 10
958777.601
 20
7303643.183
 30
0.0
 11
960350.135
 21
7303593.558
 31
0.0
  0
POLYLINE
  8
0
  6
CONTINUOUS
 62
     2
  5
408
 66
     1
 10
0.0
 20
0.0
 30
0.0
 70
     1
  0
VERTEX
  8
0
  6
CONTINUOUS
 62
     2
  5
409
 10
959193.558
 20
7299848.244
 30
0.0
  0
VERTEX
  8
0
  6
CONTINUOUS
 62
     2
  5
40A
 10
959284.399
 20
7302726.834
 30
0.0
  0
VERTEX
  8
0
  6
CONTINUOUS
 62
     2
  5
40B
 10
959367.025
 20
7302724.227
 30
0.0
  0
VERTEX
  8
0
  6
CONTINUOUS
 62
     2
  5
40C
 10
959276.184
 20
7299845.637
 30
0.0
  0
SEQEND
  8
0
  6
CONTINUOUS
 62
     2
  5
40D
  0
TEXT
  8
0
  6
CONTINUOUS
 62
     7
  5
40E
 10
959354.742
 20
7302631.665
 30
0.0
 40
48.0
  1
17
 50
178.1925
  7
MONOTXT
 72
     1
 11
959324.900855
 21
7302632.606706
 31
0.0
210
0.0
220
0.0
230
1.0
  0
TEXT
  8
0
  6
CONTINUOUS
 62
     7
  5
40F
 10
959336.218
 20
7302699.937
 30
0.0
 40
48.0
  1
L
 50
178.1925
  7
MONOTXT
 72
     1
 11
959322.428864
 21
7302700.372148
 31
0.0
210
0.0
220
0.0
230
1.0
  0
TEXT
  8
0
  6
CONTINUOUS
 62
     7
  5
410
 10
959198.128
 20
7299933.224
 30
0.0
 40
48.0
  1
35
 50
358.1925
  7
MONOTXT
 72
     1
 11
959238.171066
 21
7299931.960349
 31
0.0
210
0.0
220
0.0
230
1.0
  0
TEXT
  8
0
  6
CONTINUOUS
 62
     7
  5
411
 10
959219.751
 20
7299862.972
 30
0.0
 40
48.0
  1
R
 50
358.1925
  7
MONOTXT
 72
     1
 11
959235.806008
 21
7299862.465347
 31
0.0
210
0.0
220
0.0
230
1.0
  0
LINE
  8
0
  6
CENTER
 62
     7
  5
412
 10
959332.089
 20
7302925.367
 30
0.0
 11
959325.364
 21
7302712.268
 31
0.0
  0
LINE
  8
0
  6
CENTER
 62
     7
  5
413
 10
959320.601
 20
7302561.352
 30
0.0
 11
959302.795
 21
7301997.1
 31
0.0
  0
LINE
  8
0
  6
CENTER
 62
     7
  5
414
 10
959235.262
 20
7299857.094
 30
0.0
 11
959218.369
 21
7299321.771
 31
0.0
  0
LINE
  8
0
  6
CONTINUOUS
 62
     7
  5
415
 10
959789.109
 20
7299475.443
 30
0.0
 11
959820.959
 21
7299509.391
 31
0.0
  0
LINE
  8
0
  6
CONTINUOUS
 62
     7
  5
416
 10
959939.987
 20
7299550.356
 30
0.0
 11
959926.981
 21
7299595.089
 31
0.0
  0
TEXT
  8
0
  6
CONTINUOUS
 62
     6
  5
417
 10
963148.185
 20
7302502.586
 30
0.0
 40
30.32
  1
X
 50
178.1925
  7
MONOTXT
210
0.0
220
0.0
230
1.0
  0
TEXT
  8
0
  6
CONTINUOUS
 62
     6
  5
418
 10
962461.811
 20
7302524.247
 30
0.0
 40
30.32
  1
X
 50
178.1925
  7
MONOTXT
210
0.0
220
0.0
230
1.0
  0
TEXT
  8
0
  6
CONTINUOUS
 62
     6
  5
419
 10
961370.714
 20
7302558.679
 30
0.0
 40
30.32
  1
X
 50
178.1925
  7
MONOTXT
210
0.0
220
0.0
230
1.0
  0
TEXT
  8
0
  6
CONTINUOUS
 62
     6
  5
41A
 10
961904.084
 20
7302541.847
 30
0.0
 40
30.32
  1
X
 50
178.1925
  7
MONOTXT
210
0.0
220
0.0
230
1.0
  0
LINE
  8
0
  6
CONTINUOUS
 62
     2
  5
41B
 10
959284.399
 20
7302726.834
 30
0.0
 11
959285.127
 21
7302749.913
 31
0.0
  0
LINE
  8
6
  6
CONTINUOUS
 62
     7
  5
41C
 10
958881.625
 20
7301273.088
 30
0.0
 11
958857.546
 21
7300510.065
 31
0.0
  0
ARC
  8
6
  6
CONTINUOUS
 62
     7
  5
41D
 10
958245.880999
 20
7300529.307757
 30
0.0
 40
612.002012
 50
330.424431
 51
358.1925
210
0.0
220
0.0
230
1.0
  0
ARC
  8
6
  6
CONTINUOUS
 62
     7
  5
41E
 10
959359.933672
 20
7299886.849022
 30
0.0
 40
674.053303
 50
149.669108
 51
175.605294
210
0.0
220
0.0
230
1.0
  0
ARC
  8
6
  6
CONTINUOUS
 62
     7
  5
41F
 10
958565.911973
 20
7301283.034875
 30
0.0
 40
315.904028
 50
358.1925
 51
62.463092
210
0.0
220
0.0
230
1.0
  0
LINE
  8
6
  6
CONTINUOUS
 62
     7
  5
420
 10
958687.901
 20
7299938.481
 30
0.0
 11
958668.986
 21
7299339.108
 31
0.0
  0
LINE
  8
0
  6
CONTINUOUS
 62
     7
  5
421
 10
962700.357
 20
7303294.303
 30
0.0
 11
962788.568
 21
7303291.519
 31
0.0
  0
LINE
  8
0
  6
CONTINUOUS
 62
     7
  5
422
 10
962788.568
 20
7303291.519
 30
0.0
 11
962773.481
 21
7303238.115
 31
0.0
  0
LINE
  8
0
  6
CONTINUOUS
 62
     7
  5
423
 10
962761.79
 20
7303292.364
 30
0.0
 11
962773.481
 21
7303238.115
 31
0.0
  0
POLYLINE
  8
0
  6
CONTINUOUS
 62
     7
  5
424
 66
     1
 10
0.0
 20
0.0
 30
0.0
  0
VERTEX
  8
0
  6
CONTINUOUS
 62
     7
  5
425
 10
963103.454336
 20
7303385.426939
 30
0.0
 42
1.0
  0
VERTEX
  8
0
  6
CONTINUOUS
 62
     7
  5
426
 10
963103.214817
 20
7303377.836942
 30
0.0
 42
1.0
  0
VERTEX
  8
0
  6
CONTINUOUS
 62
     7
  5
427
 10
963103.454336
 20
7303385.426939
 30
0.0
  0
SEQEND
  8
0
  6
CONTINUOUS
 62
     7
  5
428
  0
POLYLINE
  8
0
  6
CONTINUOUS
 62
     7
  5
429
 66
     1
 10
0.0
 20
0.0
 30
0.0
  0
VERTEX
  8
0
  6
CONTINUOUS
 62
     7
  5
42A
 10
963102.592822
 20
7303358.126945
 30
0.0
 42
1.0
  0
VERTEX
  8
0
  6
CONTINUOUS
 62
     7
  5
42B
 10
963102.353303
 20
7303350.536949
 30
0.0
 42
1.0
  0
VERTEX
  8
0
  6
CONTINUOUS
 62
     7
  5
42C
 10
963102.592822
 20
7303358.126945
 30
0.0
  0
SEQEND
  8
0
  6
CONTINUOUS
 62
     7
  5
42D
  0
POLYLINE
  8
0
  6
CONTINUOUS
 62
     7
  5
42E
 66
     1
 10
0.0
 20
0.0
 30
0.0
  0
VERTEX
  8
0
  6
CONTINUOUS
 62
     7
  5
42F
 10
962302.988241
 20
7303383.360303
 30
0.0
 42
1.0
  0
VERTEX
  8
0
  6
CONTINUOUS
 62
     7
  5
430
 10
962302.748722
 20
7303375.770307
 30
0.0
 42
1.0
  0
VERTEX
  8
0
  6
CONTINUOUS
 62
     7
  5
431
 10
962302.988241
 20
7303383.360303
 30
0.0
  0
SEQEND
  8
0
  6
CONTINUOUS
 62
     7
  5
432
  0
POLYLINE
  8
0
  6
CONTINUOUS
 62
     7
  5
433
 66
     1
 10
0.0
 20
0.0
 30
0.0
  0
VERTEX
  8
0
  6
CONTINUOUS
 62
     7
  5
434
 10
962303.849755
 20
7303410.660297
 30
0.0
 42
1.0
  0
VERTEX
  8
0
  6
CONTINUOUS
 62
     7
  5
435
 10
962303.610236
 20
7303403.0703
 30
0.0
 42
1.0
  0
VERTEX
  8
0
  6
CONTINUOUS
 62
     7
  5
436
 10
962303.849755
 20
7303410.660297
 30
0.0
  0
SEQEND
  8
0
  6
CONTINUOUS
 62
     7
  5
437
  0
ARC
  8
0
  6
DOT
 62
   204
  5
438
 10
959636.866883
 20
7303278.417803
 30
0.0
 40
25.000082
 50
268.1925
 51
315.068467
210
0.0
220
0.0
230
1.0
  0
LINE
  8
0
  6
DOT
 62
   204
  5
439
 10
960755.16
 20
7301350.01
 30
0.0
 11
960755.158
 21
7301349.942
 31
0.0
  0
ARC
  8
0
  6
DOT
 62
   204
  5
43A
 10
960645.95631
 20
7303281.591208
 30
0.0
 40
60.000197
 50
223.1925
 51
268.1925
210
0.0
220
0.0
230
1.0
  0
LINE
  8
0
  6
DOT
 62
   204
  5
43B
 10
958873.761
 20
7300509.553
 30
0.0
 11
958828.551
 21
7300510.98
 31
0.0
  0
LINE
  8
0
  6
DOT
 62
   204
  5
43C
 10
959696.338
 20
7299495.881
 30
0.0
 11
959676.424
 21
7299496.51
 31
0.0
  0
LINE
  8
0
  6
CONTINUOUS
 62
     2
  5
43D
 10
962023.803
 20
7302790.646
 30
0.0
 11
961934.189
 21
7302957.881
 31
0.0
  0
LINE
  8
0
  6
DASHED
 62
     3
  5
43E
 10
959456.971
 20
7302921.426
 30
0.0
 11
959638.42
 21
7303916.207
 31
0.0
  0
LINE
  8
0
  6
DASHED
 62
     3
  5
43F
 10
959207.14
 20
7302929.31
 30
0.0
 11
959456.971
 21
7302921.426
 31
0.0
  0
LINE
  8
0
  6
DASHED
 62
     3
  5
440
 10
959088.773
 20
7303933.553
 30
0.0
 11
959207.14
 21
7302929.31
 31
0.0
  0
LINE
  8
0
  6
DASHED
 62
     3
  5
441
 10
959088.773
 20
7303933.553
 30
0.0
 11
959638.42
 21
7303916.207
 31
0.0
  0
POLYLINE
  8
0
  6
DASHED
 62
     3
  5
442
 66
     1
 10
0.0
 20
0.0
 30
0.0
  0
VERTEX
  8
0
  6
DASHED
 62
     3
  5
443
 10
959377.782
 20
7299316.74
 30
0.0
  0
VERTEX
  8
0
  6
DASHED
 62
     3
  5
444
 10
959354.144
 20
7299663.005
 30
0.0
  0
VERTEX
  8
0
  6
DASHED
 62
     3
  5
445
 10
959104.313
 20
7299670.889
 30
0.0
  0
VERTEX
  8
0
  6
DASHED
 62
     3
  5
446
 10
959058.887
 20
7299326.803
 30
0.0
  0
SEQEND
  8
0
  6
DASHED
 62
     3
  5
447
  0
LINE
  8
0
  6
CENTER
 62
     7
  5
448
 10
960399.174
 20
7303592.011
 30
0.0
 11
963533.383
 21
7303493.104
 31
0.0
  0
LINE
  8
0
  6
DASHED
 62
     3
  5
449
 10
964038.496
 20
7302954.707
 30
0.0
 11
963891.115
 21
7302981.595
 31
0.0
  0
LINE
  8
0
  6
DASHED
 62
     3
  5
44A
 10
963891.115
 20
7302981.595
 30
0.0
 11
963922.657
 21
7303981.114
 31
0.0
  0
LINE
  8
0
  6
DASHED
 62
     3
  5
44B
 10
963922.657
 20
7303981.114
 30
0.0
 11
964071.44
 21
7303998.652
 31
0.0
  0
LINE
  8
0
  6
CONTINUOUS
 62
     7
  5
44C
 10
963602.907
 20
7303201.233
 30
0.0
 11
963697.84
 21
7303198.238
 31
0.0
  0
LINE
  8
0
  6
CONTINUOUS
 62
     7
  5
44D
 10
963606.292
 20
7303212.64
 30
0.0
 11
963616.929
 21
7303212.305
 31
0.0
  0
LINE
  8
0
  6
CONTINUOUS
 62
     7
  5
44E
 10
963630.92
 20
7303211.863
 30
0.0
 11
963644.91
 21
7303211.422
 31
0.0
  0
LINE
  8
0
  6
CONTINUOUS
 62
     7
  5
44F
 10
963658.915
 20
7303210.98
 30
0.0
 11
963672.905
 21
7303210.538
 31
0.0
  0
LINE
  8
0
  6
CONTINUOUS
 62
     7
  5
450
 10
963686.767
 20
7303210.101
 30
0.0
 11
963698.203
 21
7303209.74
 31
0.0
  0
LINE
  8
0
  6
CONTINUOUS
 62
     7
  5
451
 10
962107.384
 20
7303259.942
 30
0.0
 11
962120.508
 21
7303259.528
 31
0.0
  0
LINE
  8
0
  6
CONTINUOUS
 62
     7
  5
452
 10
962105.539
 20
7303248.486
 30
0.0
 11
962199.133
 21
7303245.533
 31
0.0
  0
LINE
  8
0
  6
CONTINUOUS
 62
     7
  5
453
 10
959362.63
 20
7303333.969
 30
0.0
 11
959437.654
 21
7303331.601
 31
0.0
  0
LINE
  8
0
  6
CONTINUOUS
 62
     7
  5
454
 10
959362.991
 20
7303345.403
 30
0.0
 11
959373.755
 21
7303345.063
 31
0.0
  0
LINE
  8
0
  6
CONTINUOUS
 62
     7
  5
455
 10
959384.453
 20
7303344.726
 30
0.0
 11
959395.158
 21
7303344.388
 31
0.0
  0
LINE
  8
0
  6
CONTINUOUS
 62
     7
  5
456
 10
959405.916
 20
7303344.048
 30
0.0
 11
959416.613
 21
7303343.711
 31
0.0
  0
LINE
  8
0
  6
CONTINUOUS
 62
     7
  5
457
 10
959427.311
 20
7303343.373
 30
0.0
 11
959438.015
 21
7303343.035
 31
0.0
  0
LINE
  8
0
  6
CONTINUOUS
 62
     7
  5
458
 10
962185.905
 20
7303257.464
 30
0.0
 11
962198.955
 21
7303257.052
 31
0.0
  0
LINE
  8
0
  6
CONTINUOUS
 62
     7
  5
459
 10
962159.803
 20
7303258.288
 30
0.0
 11
962172.786
 21
7303257.878
 31
0.0
  0
LINE
  8
0
  6
CONTINUOUS
 62
     7
  5
45A
 10
962133.62
 20
7303259.114
 30
0.0
 11
962146.677
 21
7303258.702
 31
0.0
  0
LINE
  8
0
  6
CONTINUOUS
 62
     2
  5
45B
 10
961198.062
 20
7303641.839
 30
0.0
 11
963709.338
 21
7303562.59
 31
0.0
  0
LINE
  8
0
  6
CONTINUOUS
 62
     2
  5
45C
 10
961193.331
 20
7303491.918
 30
0.0
 11
961940.53
 21
7303468.338
 31
0.0
  0
LINE
  8
0
  6
CONTINUOUS
 62
     2
  5
45D
 10
961181.897
 20
7303129.593
 30
0.0
 11
961909.378
 21
7303106.636
 31
0.0
  0
LINE
  8
0
  6
CONTINUOUS
 62
     2
  5
45E
 10
961387.219
 20
7302898.086
 30
0.0
 11
961391.722
 21
7302897.944
 31
0.0
  0
LINE
  8
0
  6
CONTINUOUS
 62
     2
  5
45F
 10
961172.435
 20
7302829.772
 30
0.0
 11
963511.333
 21
7302755.962
 31
0.0
  0
LINE
  8
0
  6
CONTINUOUS
 62
     2
  5
460
 10
961351.108
 20
7303199.354
 30
0.0
 11
962008.835
 21
7303178.598
 31
0.0
  0
LINE
  8
0
  6
CONTINUOUS
 62
     2
  5
461
 10
961168.297
 20
7303492.708
 30
0.0
 11
961193.331
 21
7303491.918
 31
0.0
  0
POLYLINE
  8
0
  6
CONTINUOUS
 62
     7
  5
462
 66
     1
 10
0.0
 20
0.0
 30
0.0
 70
     1
  0
VERTEX
  8
0
  6
CONTINUOUS
 62
     7
  5
463
 10
962714.214
 20
7304064.174
 30
0.0
  0
VERTEX
  8
0
  6
CONTINUOUS
 62
     7
  5
464
 10
962710.114
 20
7303977.148
 30
0.0
  0
VERTEX
  8
0
  6
CONTINUOUS
 62
     7
  5
465
 10
962787.554
 20
7304017.205
 30
0.0
  0
SEQEND
  8
0
  6
CONTINUOUS
 62
     7
  5
466
  0
SOLID
  8
0
  6
CONTINUOUS
 62
     7
  5
467
 10
962787.554
 20
7304017.205
 30
0.0
 11
962714.214
 21
7304064.174
 31
0.0
 12
962710.114
 22
7303977.148
 32
0.0
 13
962714.214
 23
7304064.174
 33
0.0
  0
LINE
  8
0
  6
CENTER
 62
     7
  5
468
 10
959302.142
 20
7301976.411
 30
0.0
 11
959239.834
 21
7300001.958
 31
0.0
  0
CIRCLE
  8
0
  6
CONTINUOUS
 62
     7
  5
469
 10
963748.45884
 20
7303598.303513
 30
0.0
 40
16.154379
210
0.0
220
0.0
230
1.0
  0
CIRCLE
  8
0
  6
CONTINUOUS
 62
     7
  5
46A
 10
963748.45884
 20
7303598.303513
 30
0.0
 40
2.424872
210
0.0
220
0.0
230
1.0
  0
CIRCLE
  8
0
  6
CONTINUOUS
 62
     7
  5
46B
 10
963738.121015
 20
7303378.887191
 30
0.0
 40
2.424872
210
0.0
220
0.0
230
1.0
  0
CIRCLE
  8
0
  6
CONTINUOUS
 62
     7
  5
46C
 10
963738.121015
 20
7303378.887191
 30
0.0
 40
16.154379
210
0.0
220
0.0
230
1.0
  0
LINE
  8
0
  6
CONTINUOUS
 62
     6
  5
46D
 10
963153.074
 20
7302486.546
 30
0.0
 11
963338.705
 21
7302480.688
 31
0.0
  0
LINE
  8
0
  6
CONTINUOUS
 62
     6
  5
46E
 10
963503.287
 20
7302475.495
 30
0.0
 11
963787.841
 21
7302466.515
 31
0.0
  0
LINE
  8
0
  6
CONTINUOUS
 62
     6
  5
46F
 10
961374.452
 20
7302542.675
 30
0.0
 11
961562.647
 21
7302536.736
 31
0.0
  0
LINE
  8
0
  6
CONTINUOUS
 62
     6
  5
470
 10
961724.605
 20
7302531.625
 30
0.0
 11
961876.534
 21
7302526.83
 31
0.0
  0
SOLID
  8
0
  6
CONTINUOUS
 62
     3
  5
471
 10
962726.315
 20
7304249.209
 30
0.0
 11
962752.964
 21
7304248.368
 31
0.0
 12
962737.189
 22
7304168.858
 32
0.0
 13
962737.189
 23
7304168.858
 33
0.0
  0
LINE
  8
0
  6
CONTINUOUS
 62
     7
  5
472
 10
959060.858
 20
7304609.369
 30
0.0
 11
958894.318
 21
7299331.997
 31
0.0
  0
LINE
  8
0
  6
CONTINUOUS
 62
     7
  5
473
 10
960220.09
 20
7299335.778
 30
0.0
 11
960199.707
 21
7299311.684
 31
0.0
  0
LINE
  8
0
  6
CONTINUOUS
 62
     7
  5
474
 10
960220.906
 20
7299336.742
 30
0.0
 11
960220.09
 21
7299335.778
 31
0.0
  0
ARC
  8
0
  6
CONTINUOUS
 62
     7
  5
475
 10
960170.302744
 20
7299377.453324
 30
0.0
 40
100.000329
 50
326.037764
 51
334.561497
210
0.0
220
0.0
230
1.0
  0
ARC
  8
0
  6
CONTINUOUS
 62
     7
  5
476
 10
960170.302744
 20
7299377.453324
 30
0.0
 40
100.000329
 50
334.561497
 51
358.1925
210
0.0
220
0.0
230
1.0
  0
LINE
  8
0
  6
CONTINUOUS
 62
     7
  5
477
 10
960352.593
 20
7301985.737
 30
0.0
 11
960373.881
 21
7302660.322
 31
0.0
  0
LINE
  8
0
  6
CONTINUOUS
 62
     7
  5
478
 10
960347.074
 20
7301810.846
 30
0.0
 11
960352.593
 21
7301985.737
 31
0.0
  0
LINE
  8
0
  6
CONTINUOUS
 62
     7
  5
479
 10
960352.593
 20
7301985.737
 30
0.0
 11
960373.881
 21
7302660.322
 31
0.0
  0
LINE
  8
0
  6
CONTINUOUS
 62
     7
  5
47A
 10
960347.074
 20
7301810.846
 30
0.0
 11
960352.593
 21
7301985.737
 31
0.0
  0
LINE
  8
0
  6
CONTINUOUS
 62
     7
  5
47B
 10
959644.586
 20
7299320.043
 30
0.0
 11
959675.528
 21
7299352.962
 31
0.0
  0
LINE
  8
0
  6
CONTINUOUS
 62
     7
  5
47C
 10
959675.528
 20
7299352.962
 30
0.0
 11
959676.432
 21
7299353.924
 31
0.0
  0
POLYLINE
  8
0
  6
CONTINUOUS
 62
     7
  5
47D
 66
     1
 10
0.0
 20
0.0
 30
0.0
  0
VERTEX
  8
0
  6
CONTINUOUS
 62
     7
  5
47E
 10
959471.216
 20
7299313.791
 30
0.0
  0
VERTEX
  8
0
  6
CONTINUOUS
 62
     7
  5
47F
 10
959494.549
 20
7299322.829
 30
0.0
  0
VERTEX
  8
0
  6
CONTINUOUS
 62
     7
  5
480
 10
959542.334
 20
7299332.428
 30
0.0
  0
VERTEX
  8
0
  6
CONTINUOUS
 62
     7
  5
481
 10
959581.888
 20
7299337.238
 30
0.0
  0
VERTEX
  8
0
  6
CONTINUOUS
 62
     7
  5
482
 10
959629.86
 20
7299337.951
 30
0.0
  0
VERTEX
  8
0
  6
CONTINUOUS
 62
     7
  5
483
 10
959691.293
 20
7299336.013
 30
0.0
  0
VERTEX
  8
0
  6
CONTINUOUS
 62
     7
  5
484
 10
959691.812
 20
7299352.449
 30
0.0
  0
SEQEND
  8
0
  6
CONTINUOUS
 62
     7
  5
485
  0
POLYLINE
  8
0
  6
CONTINUOUS
 62
     7
  5
486
 66
     1
 10
0.0
 20
0.0
 30
0.0
  0
VERTEX
  8
0
  6
CONTINUOUS
 62
     7
  5
487
 10
959691.812
 20
7299352.449
 30
0.0
  0
VERTEX
  8
0
  6
CONTINUOUS
 62
     7
  5
488
 10
959696.338
 20
7299495.881
 30
0.0
  0
VERTEX
  8
0
  6
CONTINUOUS
 62
     7
  5
489
 10
959879.826
 20
7299490.091
 30
0.0
  0
VERTEX
  8
0
  6
CONTINUOUS
 62
     7
  5
48A
 10
959987.076
 20
7299655.418
 30
0.0
  0
SEQEND
  8
0
  6
CONTINUOUS
 62
     7
  5
48B
  0
LINE
  8
0
  6
CONTINUOUS
 62
     7
  5
48C
 10
963975.057
 20
7301236.547
 30
0.0
 11
963976.213
 21
7301273.172
 31
0.0
  0
LINE
  8
0
  6
CONTINUOUS
 62
     7
  5
48D
 10
963976.213
 20
7301273.172
 30
0.0
 11
963976.919
 21
7301295.559
 31
0.0
  0
POLYLINE
  8
0
  6
CONTINUOUS
 62
     2
  5
48E
 66
     1
 10
0.0
 20
0.0
 30
0.0
  0
VERTEX
  8
0
  6
CONTINUOUS
 62
     2
  5
48F
 10
963735.666
 20
7301280.763
 30
0.0
  0
VERTEX
  8
0
  6
CONTINUOUS
 62
     2
  5
490
 10
963734.933
 20
7301257.526
 30
0.0
  0
VERTEX
  8
0
  6
CONTINUOUS
 62
     2
  5
491
 10
963703.847
 20
7301258.507
 30
0.0
  0
VERTEX
  8
0
  6
CONTINUOUS
 62
     2
  5
492
 10
963704.581
 20
7301281.744
 30
0.0
  0
SEQEND
  8
0
  6
CONTINUOUS
 62
     2
  5
493
  0
POLYLINE
  8
0
  6
CONTINUOUS
 62
     2
  5
494
 66
     1
 10
0.0
 20
0.0
 30
0.0
  0
VERTEX
  8
0
  6
CONTINUOUS
 62
     2
  5
495
 10
963704.581
 20
7301281.744
 30
0.0
  0
VERTEX
  8
0
  6
CONTINUOUS
 62
     2
  5
496
 10
963704.809
 20
7301288.984
 30
0.0
  0
VERTEX
  8
0
  6
CONTINUOUS
 62
     2
  5
497
 10
963735.895
 20
7301288.003
 30
0.0
  0
VERTEX
  8
0
  6
CONTINUOUS
 62
     2
  5
498
 10
963735.666
 20
7301280.763
 30
0.0
  0
SEQEND
  8
0
  6
CONTINUOUS
 62
     2
  5
499
  0
ARC
  8
0
  6
CONTINUOUS
 62
     7
  5
49A
 10
964076.14645
 20
7304406.461286
 30
0.0
 40
10.000033
 50
34.293461
 51
88.1925
210
0.0
220
0.0
230
1.0
  0
ARC
  8
0
  6
CONTINUOUS
 62
     7
  5
49B
 10
964076.14645
 20
7304406.461286
 30
0.0
 40
10.000033
 50
33.518494
 51
34.293461
210
0.0
220
0.0
230
1.0
  0
ARC
  8
0
  6
CONTINUOUS
 62
     7
  5
49C
 10
962722.815697
 20
7304449.168745
 30
0.0
 40
10.000033
 50
88.1925
 51
142.091539
210
0.0
220
0.0
230
1.0
  0
ARC
  8
0
  6
CONTINUOUS
 62
     7
  5
49D
 10
962722.815697
 20
7304449.168745
 30
0.0
 40
10.000033
 50
142.091539
 51
178.1925
210
0.0
220
0.0
230
1.0
  0
ARC
  8
0
  6
CONTINUOUS
 62
     7
  5
49E
 10
962690.831514
 20
7304450.178079
 30
0.0
 40
10.000033
 50
34.293461
 51
88.1925
210
0.0
220
0.0
230
1.0
  0
ARC
  8
0
  6
CONTINUOUS
 62
     7
  5
49F
 10
962690.831514
 20
7304450.178079
 30
0.0
 40
10.000033
 50
358.1925
 51
34.293461
210
0.0
220
0.0
230
1.0
  0
ARC
  8
0
  6
CONTINUOUS
 62
     7
  5
4A0
 10
961438.543623
 20
7304682.865634
 30
0.0
 40
208.072672
 50
241.364203
 51
242.296986
210
0.0
220
0.0
230
1.0
  0
ARC
  8
0
  6
CONTINUOUS
 62
     7
  5
4A1
 10
961438.543623
 20
7304682.865634
 30
0.0
 40
208.072672
 50
294.088014
 51
295.020797
210
0.0
220
0.0
230
1.0
  0
ARC
  8
6
  6
CONTINUOUS
 62
     7
  5
4A2
 10
961438.543623
 20
7304682.865634
 30
0.0
 40
208.072672
 50
241.364203
 51
295.020797
210
0.0
220
0.0
230
1.0
  0
ARC
  8
6
  6
CONTINUOUS
 62
     7
  5
4A3
 10
961215.594415
 20
7304224.522533
 30
0.0
 40
282.074739
 50
78.4021
 51
88.24255
210
0.0
220
0.0
230
1.0
  0
ARC
  8
6
  6
CONTINUOUS
 62
     7
  5
4A4
 10
961215.594415
 20
7304224.522533
 30
0.0
 40
282.074739
 50
66.240481
 51
78.4021
210
0.0
220
0.0
230
1.0
  0
ARC
  8
6
  6
CONTINUOUS
 62
     7
  5
4A5
 10
961628.655725
 20
7304303.607277
 30
0.0
 40
190.000625
 50
88.1925
 51
100.128433
210
0.0
220
0.0
230
1.0
  0
ARC
  8
6
  6
CONTINUOUS
 62
     7
  5
4A6
 10
961628.655725
 20
7304303.607277
 30
0.0
 40
190.000625
 50
100.128433
 51
115.020797
210
0.0
220
0.0
230
1.0
  0
LINE
  8
0
  6
CONTINUOUS
 62
     6
  5
4A7
 10
959025.319
 20
7304559.914
 30
0.0
 11
958806.748
 21
7304566.811
 31
0.0
  0
LINE
  8
0
  6
CONTINUOUS
 62
     6
  5
4A8
 10
959198.886
 20
7304554.437
 30
0.0
 11
959025.319
 21
7304559.914
 31
0.0
  0
LINE
  8
0
  6
CONTINUOUS
 62
     7
  5
4A9
 10
959849.108
 20
7301403.413
 30
0.0
 11
959881.978
 21
7301372.448
 31
0.0
  0
LINE
  8
0
  6
CONTINUOUS
 62
     7
  5
4AA
 10
959848.093
 20
7301404.369
 30
0.0
 11
959849.108
 21
7301403.413
 31
0.0
  0
LINE
  8
0
  6
CONTINUOUS
 62
     7
  5
4AB
 10
962749.152
 20
7304454.233
 30
0.0
 11
962750.373
 21
7304492.937
 31
0.0
  0
LINE
  8
0
  6
CONTINUOUS
 62
     7
  5
4AC
 10
962742.362
 20
7304239.07
 30
0.0
 11
962749.152
 21
7304454.233
 31
0.0
  0
LINE
  8
0
  6
CONTINUOUS
 62
     7
  5
4AD
 10
963122.697
 20
7301520.61
 30
0.0
 11
963084.602
 21
7301469.957
 31
0.0
  0
ARC
  8
0
  6
CONTINUOUS
 62
     7
  5
4AE
 10
963786.164047
 20
7301716.760638
 30
0.0
 40
156.004434
 50
267.873303
 51
358.1925
210
0.0
220
0.0
230
1.0
  0
LINE
  8
6
  6
CONTINUOUS
 62
     7
  5
4AF
 10
959629.751
 20
7299325.9
 30
0.0
 11
959798.775
 21
7299320.566
 31
0.0
  0
ARC
  8
6
  6
CONTINUOUS
 62
     7
  5
4B0
 10
959613.232954
 20
7298886.438829
 30
0.0
 40
439.771414
 50
87.84745
 51
104.2279
210
0.0
220
0.0
230
1.0
  0
TEXT
  8
0
  6
CONTINUOUS
 62
    30
  5
4B2
 10
959899.908
 20
7301825.959
 30
0.0
 40
50.0
  1
WEATHER
 50
358.1925
  7
ROMANC
 72
     4
 11
960098.224209
 21
7301844.713122
 31
0.0
210
0.0
220
0.0
230
1.0
  0
TEXT
  8
0
  6
CONTINUOUS
 62
    30
  5
4B3
 10
959926.268
 20
7301750.089
 30
0.0
 40
50.0
  1
BUREAU
 50
358.1925
  7
ROMANC
 72
     4
 11
960095.859508
 21
7301769.749596
 31
0.0
210
0.0
220
0.0
230
1.0
  0
TEXT
  8
0
  6
CONTINUOUS
 62
    30
  5
4B4
 10
960951.89
 20
7302404.674
 30
0.0
 40
50.0
  1
AIRPORT RESCUE
 50
358.1925
  7
ROMANC
 72
     4
 11
961319.795786
 21
7302418.076334
 31
0.0
210
0.0
220
0.0
230
1.0
  0
TEXT
  8
0
  6
CONTINUOUS
 62
    30
  5
4B5
 10
960940.474
 20
7302329.997
 30
0.0
 40
50.0
  1
& FIRE FIGHTING
 50
358.1925
  7
ROMANC
 72
     4
 11
961317.429281
 21
7302343.113756
 31
0.0
210
0.0
220
0.0
230
1.0
  0
TEXT
  8
0
  6
CONTINUOUS
 62
    30
  5
4B6
 10
961086.46
 20
7302250.353
 30
0.0
 40
50.0
  1
FACILITIES
 50
358.1925
  7
ROMANC
 72
     4
 11
961315.073127
 21
7302268.151033
 31
0.0
210
0.0
220
0.0
230
1.0
  0
TEXT
  8
0
  6
CONTINUOUS
 62
    30
  5
4B7
 10
963268.086
 20
7300902.591
 30
0.0
 40
50.0
  1
LUBBOCK
 50
87.987636
  7
ROMANC
 72
     4
 11
963249.785377
 21
7301093.695489
 31
0.0
210
0.0
220
0.0
230
1.0
  0
TEXT
  8
0
  6
CONTINUOUS
 62
    30
  5
4B8
 10
963336.48
 20
7300713.275
 30
0.0
 40
50.0
  1
WATER UTILITIES
 50
87.987636
  7
ROMANC
 72
     4
 11
963324.738818
 21
7301091.062285
 31
0.0
210
0.0
220
0.0
230
1.0
  0
TEXT
  8
0
  6
CONTINUOUS
 62
    30
  5
4B9
 10
963410.196
 20
7300675.427
 30
0.0
 40
50.0
  1
TREATMENT PLANT
 50
87.987636
  7
ROMANC
 72
     4
 11
963399.692136
 21
7301088.428554
 31
0.0
210
0.0
220
0.0
230
1.0
  0
TEXT
  8
0
  6
CONTINUOUS
 62
    30
  5
4BA
 10
959205.554
 20
7303855.461
 30
0.0
 40
64.0
  1
CLEAR
 50
358.1925
  7
MONOTXT
 72
     4
 11
959351.36125
 21
7303882.875647
 31
0.0
210
0.0
220
0.0
230
1.0
  0
TEXT
  8
0
  6
CONTINUOUS
 62
    30
  5
4BB
 10
959228.435
 20
7303765.695
 30
0.0
 40
64.0
  1
ZONE
 50
358.1925
  7
MONOTXT
 72
     4
 11
959348.315156
 21
7303793.927836
 31
0.0
210
0.0
220
0.0
230
1.0
  0
TEXT
  8
0
  6
CONTINUOUS
 62
    30
  5
4BC
 10
962484.368
 20
7302801.893
 30
0.0
 40
48.0
  1
TAXIWAY J
 50
358.1925
  7
MONOTXT
210
0.0
220
0.0
230
1.0
  0
TEXT
  8
0
  6
CONTINUOUS
 62
    30
  5
4BD
 10
962493.814
 20
7303101.238
 30
0.0
 40
48.0
  1
TAXIWAY H
 50
358.1925
  7
MONOTXT
210
0.0
220
0.0
230
1.0
  0
TEXT
  8
0
  6
CONTINUOUS
 62
     7
  5
4BF
 10
959757.951
 20
7299307.744
 30
0.0
 40
8.0
  1
802.5'
 50
358.1925
  7
ROMANS
210
0.0
220
0.0
230
1.0
  0
TEXT
  8
0
  6
CONTINUOUS
 62
     7
  5
4C0
 10
960302.707
 20
7299478.646
 30
0.0
 40
8.0
  1
110'
 50
358.1925
  7
ROMANS
210
0.0
220
0.0
230
1.0
  0
TEXT
  8
0
  6
CONTINUOUS
 62
     7
  5
4C1
 10
960776.777
 20
7299678.442
 30
0.0
 40
8.0
  1
1278.53'
 50
358.1925
  7
ROMANS
210
0.0
220
0.0
230
1.0
  0
TEXT
  8
0
  6
CONTINUOUS
 62
     7
  5
4C2
 10
960338.817
 20
7299384.454
 30
0.0
 40
8.0
  1
188'
 50
88.1925
  7
ROMANS
210
0.0
220
0.0
230
1.0
  0
TEXT
  8
0
  6
CONTINUOUS
 62
     7
  5
4C3
 10
960234.866
 20
7299569.245
 30
0.0
 40
8.0
  1
214.65'
 50
88.1925
  7
ROMANS
210
0.0
220
0.0
230
1.0
  0
TEXT
  8
0
  6
CONTINUOUS
 62
     7
  5
4C4
 10
961533.922
 20
7299442.271
 30
0.0
 40
8.0
  1
402.65'
 50
88.1925
  7
ROMANS
210
0.0
220
0.0
230
1.0
  0
TEXT
  8
0
  6
CONTINUOUS
 62
     7
  5
4C5
 10
962916.428
 20
7299209.17
 30
0.0
 40
8.0
  1
2408.97'
 50
358.1925
  7
ROMANS
210
0.0
220
0.0
230
1.0
  0
TEXT
  8
0
  6
CONTINUOUS
 62
     7
  5
4C6
 10
963914.053
 20
7299419.304
 30
0.0
 40
8.0
  1
625'
 50
88.1925
  7
ROMANS
210
0.0
220
0.0
230
1.0
  0
TEXT
  8
0
  6
CONTINUOUS
 62
     7
  5
4C7
 10
963674.711
 20
7299802.449
 30
0.0
 40
8.0
  1
520'
 50
358.1925
  7
ROMANS
210
0.0
220
0.0
230
1.0
  0
TEXT
  8
0
  6
CONTINUOUS
 62
     7
  5
4C8
 10
963414.593
 20
7300180.62
 30
0.0
 40
8.0
  1
1568'
 50
88.1925
  7
ROMANS
210
0.0
220
0.0
230
1.0
  0
TEXT
  8
0
  6
CONTINUOUS
 62
     7
  5
4C9
 10
963703.883
 20
7301436.494
 30
0.0
 40
8.0
  1
520'
 50
358.1925
  7
ROMANS
210
0.0
220
0.0
230
1.0
  0
TEXT
  8
0
  6
CONTINUOUS
 62
     7
  5
4CA
 10
964006.284
 20
7302094.116
 30
0.0
 40
8.0
  1
1133.4'
 50
88.1925
  7
ROMANS
210
0.0
220
0.0
230
1.0
  0
TEXT
  8
0
  6
CONTINUOUS
 62
     7
  5
4CB
 10
962010.734
 20
7304505.126
 30
0.0
 40
8.0
  1
5280^J12994.8'
 50
358.193378
  7
ROMANS
210
0.0
220
0.0
230
1.0
  0
INSERT
  8
0
  6
CONTINUOUS
 62
     7
  5
4D9
  2
*D0
 10
961923.455
 20
7302959.234
 30
0.0
 70
     0
 71
     0
  0
INSERT
  8
0
  6
CONTINUOUS
 62
     7
  5
4E3
  2
*D1
 10
961876.503
 20
7303038.605
 30
0.0
 70
     0
 71
     0
  0
INSERT
  8
0
  6
CONTINUOUS
 62
     7
  5
4ED
  2
*D2
 10
963699.131
 20
7303254.014
 30
0.0
 70
     0
 71
     0
  0
INSERT
  8
0
  6
CONTINUOUS
 62
     7
  5
4F9
  2
*D3
 10
963608.416
 20
7303256.876
 30
0.0
 70
     0
 71
     0
  0
INSERT
  8
0
  6
CONTINUOUS
 62
     7
  5
503
  2
*D4
 10
962554.181
 20
7303449.17
 30
0.0
 70
     0
 71
     0
  0
INSERT
  8
0
  6
CONTINUOUS
 62
     7
  5
50F
  2
*D5
 10
962555.649
 20
7303598.412
 30
0.0
 70
     0
 71
     0
  0
INSERT
  8
0
  6
CONTINUOUS
 62
     7
  5
51B
  2
*D6
 10
963244.878
 20
7303138.532
 30
0.0
 70
     0
 71
     0
  0
INSERT
  8
0
  6
CONTINUOUS
 62
     7
  5
525
  2
*D7
 10
962380.151
 20
7302867.244
 30
0.0
 70
     0
 71
     0
  0
INSERT
  8
0
  6
CONTINUOUS
 62
     7
  5
52F
  2
*D8
 10
963242.423
 20
7303060.72
 30
0.0
 70
     0
 71
     0
  0
INSERT
  8
0
  6
CONTINUOUS
 62
     7
  5
53B
  2
*D9
 10
962377.798
 20
7302792.673
 30
0.0
 70
     0
 71
     0
  0
INSERT
  8
0
  6
CONTINUOUS
 62
     7
  5
545
  2
*D10
 10
959892.508
 20
7303533.165
 30
0.0
 70
     0
 71
     0
  0
INSERT
  8
0
  6
CONTINUOUS
 62
     7
  5
551
  2
*D11
 10
959893.976
 20
7303682.407
 30
0.0
 70
     0
 71
     0
  0
INSERT
  8
0
  6
CONTINUOUS
 62
     7
  5
55D
  2
*D12
 10
960583.205
 20
7303222.527
 30
0.0
 70
     0
 71
     0
  0
INSERT
  8
0
  6
CONTINUOUS
 62
     7
  5
567
  2
*D13
 10
959718.478
 20
7302951.239
 30
0.0
 70
     0
 71
     0
  0
INSERT
  8
0
  6
CONTINUOUS
 62
     7
  5
571
  2
*D14
 10
960580.75
 20
7303144.715
 30
0.0
 70
     0
 71
     0
  0
INSERT
  8
0
  6
CONTINUOUS
 62
     7
  5
57D
  2
*D15
 10
959716.125
 20
7302876.668
 30
0.0
 70
     0
 71
     0
  0
TEXT
  8
0
  6
CONTINUOUS
 62
     2
  5
57E
 10
961599.793
 20
7302518.384
 30
0.0
 40
48.0
  1
BRL
 50
358.1925
  7
MONOTXT
210
0.0
220
0.0
230
1.0
  0
TEXT
  8
0
  6
CONTINUOUS
 62
     2
  5
57F
 10
963320.227
 20
7302464.092
 30
0.0
 40
48.0
  1
BRL
 50
358.1925
  7
MONOTXT
210
0.0
220
0.0
230
1.0
  0
TEXT
  8
0
  6
CONTINUOUS
 62
    30
  5
580
 10
962172.263
 20
7303189.847
 30
0.0
 40
50.0
  1
TWY. K
 50
88.1925
  7
ROMANC
210
0.0
220
0.0
230
1.0
  0
TEXT
  8
0
  6
CONTINUOUS
 62
    30
  5
581
 10
959418.342
 20
7303069.047
 30
0.0
 40
50.0
  1
TWY.     G
 50
88.1925
  7
ROMANC
210
0.0
220
0.0
230
1.0
  0
TEXT
  8
0
  6
CONTINUOUS
 62
    30
  5
582
 10
959147.04
 20
7304202.556
 30
0.0
 40
200.0
  1
LUBBOCK INTERNATIONAL
 50
358.1925
  7
ROMANC
 72
     4
 11
961413.507465
 21
7304231.082197
 31
0.0
210
0.0
220
0.0
230
1.0
  0
TEXT
  8
0
  6
CONTINUOUS
 62
    30
  5
583
 10
960695.857
 20
7303853.53
 30
0.0
 40
200.0
  1
AIRPORT
 50
358.1925
  7
ROMANC
 72
     4
 11
961402.55493
 21
7303931.278305
 31
0.0
210
0.0
220
0.0
230
1.0
  0
TEXT
  8
0
  6
CONTINUOUS
 62
    30
  5
584
 10
960928.22
 20
7301921.805
 30
0.0
 40
50.0
  1
MAINTENANCE
 50
358.1925
  7
ROMANC
 72
     4
 11
961227.85777
 21
7301937.361688
 31
0.0
210
0.0
220
0.0
230
1.0
  0
TEXT
  8
0
  6
CONTINUOUS
 62
    30
  5
585
 10
960975.043
 20
7301845.29
 30
0.0
 40
50.0
  1
  BUILDING
 50
358.1925
  7
ROMANC
 72
     4
 11
961225.301352
 21
7301862.404968
 31
0.0
210
0.0
220
0.0
230
1.0
  0
TEXT
  8
0
  6
CONTINUOUS
 62
     7
  5
586
 10
960392.632
 20
7301482.337
 30
0.0
 40
8.0
  1
20'
 50
88.1925
  7
ROMANS
 72
     4
 11
960388.928368
 21
7301491.791523
 31
0.0
210
0.0
220
0.0
230
1.0
  0
TEXT
  8
0
  6
CONTINUOUS
 62
     7
  5
587
 10
962808.447
 20
7301405.666
 30
0.0
 40
8.0
  1
20'
 50
88.1925
  7
ROMANS
 72
     4
 11
962804.743368
 21
7301415.120523
 31
0.0
210
0.0
220
0.0
230
1.0
  0
TEXT
  8
0
  6
CONTINUOUS
 62
     7
  5
588
 10
961728.872
 20
7301439.644
 30
0.0
 40
8.0
  1
20'
 50
88.1925
  7
ROMANS
 72
     4
 11
961725.168368
 21
7301449.098523
 31
0.0
210
0.0
220
0.0
230
1.0
  0
TEXT
  8
0
  6
CONTINUOUS
 62
     7
  5
589
 10
961196.347
 20
7301455.906
 30
0.0
 40
8.0
  1
20'
 50
88.1925
  7
ROMANS
 72
     4
 11
961192.643368
 21
7301465.360523
 31
0.0
210
0.0
220
0.0
230
1.0
  0
TEXT
  8
0
  6
CONTINUOUS
 62
     7
  5
58A
 10
960372.867
 20
7300519.393
 30
0.0
 40
8.0
  1
20'
 50
88.1925
  7
ROMANS
 72
     4
 11
960369.163368
 21
7300528.847523
 31
0.0
210
0.0
220
0.0
230
1.0
  0
TEXT
  8
0
  6
CONTINUOUS
 62
     7
  5
58B
 10
961160.901
 20
7300494.05
 30
0.0
 40
8.0
  1
20'
 50
88.1925
  7
ROMANS
 72
     4
 11
961157.197368
 21
7300503.504523
 31
0.0
210
0.0
220
0.0
230
1.0
  0
TEXT
  8
0
  6
CONTINUOUS
 62
     7
  5
58C
 10
961923.605
 20
7300469.553
 30
0.0
 40
8.0
  1
20'
 50
88.1925
  7
ROMANS
 72
     4
 11
961919.901368
 21
7300479.007523
 31
0.0
210
0.0
220
0.0
230
1.0
  0
TEXT
  8
0
  6
CONTINUOUS
 62
     7
  5
58D
 10
962777.656
 20
7300443.177
 30
0.0
 40
8.0
  1
20'
 50
88.1925
  7
ROMANS
 72
     4
 11
962773.952368
 21
7300452.631523
 31
0.0
210
0.0
220
0.0
230
1.0
  0
TEXT
  8
0
  6
CONTINUOUS
 62
     7
  5
58E
 10
960363.189
 20
7299861.228
 30
0.0
 40
8.0
  1
25'
 50
88.1925
  7
ROMANS
 72
     4
 11
960359.485368
 21
7299870.682523
 31
0.0
210
0.0
220
0.0
230
1.0
  0
TEXT
  8
0
  6
CONTINUOUS
 62
     7
  5
58F
 10
961132.157
 20
7299837.98
 30
0.0
 40
8.0
  1
25'
 50
88.1925
  7
ROMANS
 72
     4
 11
961128.453368
 21
7299847.434523
 31
0.0
210
0.0
220
0.0
230
1.0
  0
TEXT
  8
0
  6
CONTINUOUS
 62
     7
  5
590
 10
961883.175
 20
7299814.33
 30
0.0
 40
8.0
  1
25'
 50
88.1925
  7
ROMANS
 72
     4
 11
961879.471368
 21
7299823.784523
 31
0.0
210
0.0
220
0.0
230
1.0
  0
TEXT
  8
0
  6
CONTINUOUS
 62
     7
  5
591
 10
962764.463
 20
7299787.058
 30
0.0
 40
8.0
  1
25'
 50
88.1925
  7
ROMANS
 72
     4
 11
962760.759368
 21
7299796.512523
 31
0.0
210
0.0
220
0.0
230
1.0
  0
TEXT
  8
0
  6
CONTINUOUS
 62
     7
  5
592
 10
963813.844
 20
7299753.536
 30
0.0
 40
8.0
  1
25'
 50
88.1925
  7
ROMANS
 72
     4
 11
963810.140368
 21
7299762.990523
 31
0.0
210
0.0
220
0.0
230
1.0
  0
TEXT
  8
0
  6
CONTINUOUS
 62
     7
  5
593
 10
960245.782
 20
7299385.251
 30
0.0
 40
8.0
  1
35'
 50
358.1925
  7
ROMANS
 72
     4
 11
960255.236523
 21
7299388.954632
 31
0.0
210
0.0
220
0.0
230
1.0
  0
TEXT
  8
0
  6
CONTINUOUS
 62
     7
  5
594
 10
960341.562
 20
7302433.927
 30
0.0
 40
8.0
  1
35'
 50
358.1925
  7
ROMANS
 72
     4
 11
960351.016523
 21
7302437.630632
 31
0.0
210
0.0
220
0.0
230
1.0
  0
TEXT
  8
0
  6
CONTINUOUS
 62
     7
  5
595
 10
960312.958
 20
7301544.457
 30
0.0
 40
8.0
  1
35'
 50
358.1925
  7
ROMANS
 72
     4
 11
960322.412523
 21
7301548.160632
 31
0.0
210
0.0
220
0.0
230
1.0
  0
TEXT
  8
0
  6
CONTINUOUS
 62
     7
  5
596
 10
960281.399
 20
7300592.032
 30
0.0
 40
8.0
  1
35'
 50
358.1925
  7
ROMANS
 72
     4
 11
960290.853523
 21
7300595.735632
 31
0.0
210
0.0
220
0.0
230
1.0
  0
TEXT
  8
0
  6
CONTINUOUS
 62
     7
  5
597
 10
960261.223
 20
7299936.765
 30
0.0
 40
8.0
  1
35'
 50
358.1925
  7
ROMANS
 72
     4
 11
960270.677523
 21
7299940.468632
 31
0.0
210
0.0
220
0.0
230
1.0
  0
TEXT
  8
0
  6
CONTINUOUS
 62
     7
  5
598
 10
959536.002
 20
7299322.344
 30
0.0
 40
8.0
  1
R
 50
9.869219
  7
ROMANS
 72
     1
 11
959538.484708
 21
7299322.775928
 31
0.0
210
0.0
220
0.0
230
1.0
  0
TEXT
  8
0
  6
CONTINUOUS
 62
     7
  5
599
 10
959543.925
 20
7299323.791
 30
0.0
 40
8.0
  1
=
 50
7.683444
  7
ROMANS
 72
     1
 11
959547.228076
 21
7299324.236622
 31
0.0
210
0.0
220
0.0
230
1.0
  0
TEXT
  8
0
  6
CONTINUOUS
 62
     7
  5
59A
 10
959551.79
 20
7299324.851
 30
0.0
 40
8.0
  1
4
 50
7.683444
  7
ROMANS
 72
     1
 11
959554.102054
 21
7299325.162922
 31
0.0
210
0.0
220
0.0
230
1.0
  0
TEXT
  8
0
  6
CONTINUOUS
 62
     7
  5
59B
 10
959559.656
 20
7299325.913
 30
0.0
 40
8.0
  1
4
 50
7.683444
  7
ROMANS
 72
     1
 11
959561.968054
 21
7299326.224922
 31
0.0
210
0.0
220
0.0
230
1.0
  0
TEXT
  8
0
  6
CONTINUOUS
 62
     7
  5
59C
 10
959567.658
 20
7299326.79
 30
0.0
 40
8.0
  1
0
 50
5.497667
  7
ROMANS
 72
     1
 11
959570.296806
 21
7299327.04398
 31
0.0
210
0.0
220
0.0
230
1.0
  0
TEXT
  8
0
  6
CONTINUOUS
 62
     7
  5
59D
 10
959575.559
 20
7299327.55
 30
0.0
 40
8.0
  1
'
 50
5.497667
  7
ROMANS
 72
     1
 11
959576.885868
 21
7299327.677708
 31
0.0
210
0.0
220
0.0
230
1.0
  0
TEXT
  8
0
  6
CONTINUOUS
 62
     7
  5
59E
 10
959563.042
 20
7299312.281
 30
0.0
 40
8.0
  1
1
 50
5.497667
  7
ROMANS
 72
     1
 11
959563.602427
 21
7299320.371909
 31
0.0
210
0.0
220
0.0
230
1.0
 73
     3
  0
TEXT
  8
0
  6
CONTINUOUS
 62
     7
  5
59F
 10
959570.942
 20
7299313.041
 30
0.0
 40
8.0
  1
2
 50
5.497667
  7
ROMANS
 72
     1
 11
959572.497827
 21
7299321.227714
 31
0.0
210
0.0
220
0.0
230
1.0
 73
     3
  0
TEXT
  8
0
  6
CONTINUOUS
 62
     7
  5
5A0
 10
959578.42
 20
7299313.833
 30
0.0
 40
8.0
  1
5
 50
3.311892
  7
ROMANS
 72
     1
 11
959580.297915
 21
7299321.955055
 31
0.0
210
0.0
220
0.0
230
1.0
 73
     3
  0
TEXT
  8
0
  6
CONTINUOUS
 62
     7
  5
5A1
 10
959586.344
 20
7299314.291
 30
0.0
 40
8.0
  1
.
 50
3.311892
  7
ROMANS
 72
     1
 11
959587.201622
 21
7299322.354012
 31
0.0
210
0.0
220
0.0
230
1.0
 73
     3
  0
TEXT
  8
0
  6
CONTINUOUS
 62
     7
  5
5A2
 10
959594.267
 20
7299314.75
 30
0.0
 40
8.0
  1
3
 50
3.311892
  7
ROMANS
 72
     1
 11
959596.133934
 21
7299322.871419
 31
0.0
210
0.0
220
0.0
230
1.0
 73
     3
  0
TEXT
  8
0
  6
CONTINUOUS
 62
     7
  5
5A3
 10
959601.779
 20
7299314.988
 30
0.0
 40
8.0
  1
'
 50
1.126114
  7
ROMANS
 72
     1
 11
959602.954518
 21
7299323.012652
 31
0.0
210
0.0
220
0.0
230
1.0
 73
     3
  0
TEXT
  8
0
  6
CONTINUOUS
 62
     7
  5
5A4
 10
959667.011
 20
7299311.195
 30
0.0
 40
8.0
  1
17.5'
 50
358.1925
  7
ROMANS
 72
     4
 11
959684.461542
 21
7299314.646299
 31
0.0
210
0.0
220
0.0
230
1.0
  0
TEXT
  8
0
  6
CONTINUOUS
 62
     7
  5
5A5
 10
960126.531
 20
7299297.907
 30
0.0
 40
8.0
  1
17.5'
 50
358.1925
  7
ROMANS
 72
     4
 11
960143.981542
 21
7299301.358299
 31
0.0
210
0.0
220
0.0
230
1.0
  0
TEXT
  8
0
  6
CONTINUOUS
 62
     7
  5
5A6
 10
960286.664
 20
7299292.25
 30
0.0
 40
8.0
  1
10'
 50
358.1925
  7
ROMANS
 72
     4
 11
960296.118523
 21
7299295.953632
 31
0.0
210
0.0
220
0.0
230
1.0
  0
TEXT
  8
0
  6
CONTINUOUS
 62
     7
  5
5A7
 10
963781.553
 20
7299181.945
 30
0.0
 40
8.0
  1
10'
 50
358.1925
  7
ROMANS
 72
     4
 11
963791.007523
 21
7299185.648632
 31
0.0
210
0.0
220
0.0
230
1.0
  0
TEXT
  8
0
  6
CONTINUOUS
 62
     7
  5
5A8
 10
960318.367
 20
7300544.11
 30
0.0
 40
8.0
  1
R=10'
 50
43.1925
  7
ROMANS
 72
     4
 11
960328.26596
 21
7300558.889834
 31
0.0
210
0.0
220
0.0
230
1.0
  0
TEXT
  8
0
  6
CONTINUOUS
 62
     7
  5
5A9
 10
960347.249
 20
7301506.109
 30
0.0
 40
8.0
  1
R=10'
 50
43.1925
  7
ROMANS
 72
     4
 11
960357.14796
 21
7301520.888834
 31
0.0
210
0.0
220
0.0
230
1.0
  0
TEXT
  8
0
  6
CONTINUOUS
 62
     7
  5
5AA
 10
960294.727
 20
7299886.966
 30
0.0
 40
8.0
  1
R=10'
 50
43.1925
  7
ROMANS
 72
     4
 11
960304.62596
 21
7299901.745834
 31
0.0
210
0.0
220
0.0
230
1.0
  0
TEXT
  8
0
  6
CONTINUOUS
 62
     7
  5
5AB
 10
960274.02
 20
7299320.42
 30
0.0
 40
8.0
  1
R=10'
 50
43.1925
  7
ROMANS
 72
     4
 11
960283.91896
 21
7299335.199834
 31
0.0
210
0.0
220
0.0
230
1.0
  0
TEXT
  8
0
  6
CONTINUOUS
 62
     7
  5
5AC
 10
961239.503
 20
7299858.215
 30
0.0
 40
8.0
  1
R=10'
 50
43.1925
  7
ROMANS
 72
     4
 11
961249.40196
 21
7299872.994834
 31
0.0
210
0.0
220
0.0
230
1.0
  0
TEXT
  8
0
  6
CONTINUOUS
 62
     7
  5
5AD
 10
961990.065
 20
7299835.381
 30
0.0
 40
8.0
  1
R=10'
 50
43.1925
  7
ROMANS
 72
     4
 11
961999.96396
 21
7299850.160834
 31
0.0
210
0.0
220
0.0
230
1.0
  0
TEXT
  8
0
  6
CONTINUOUS
 62
     7
  5
5AE
 10
961259.701
 20
7300513.502
 30
0.0
 40
8.0
  1
R=10'
 50
43.1925
  7
ROMANS
 72
     4
 11
961269.59996
 21
7300528.281834
 31
0.0
210
0.0
220
0.0
230
1.0
  0
TEXT
  8
0
  6
CONTINUOUS
 62
     7
  5
5AF
 10
961201.224
 20
7300457.671
 30
0.0
 40
8.0
  1
R=10'
 50
43.1925
  7
ROMANS
 72
     4
 11
961211.12296
 21
7300472.450834
 31
0.0
210
0.0
220
0.0
230
1.0
  0
TEXT
  8
0
  6
CONTINUOUS
 62
     7
  5
5B0
 10
961231.087
 20
7301420.23
 30
0.0
 40
8.0
  1
R=10'
 50
43.1925
  7
ROMANS
 72
     4
 11
961240.98596
 21
7301435.009834
 31
0.0
210
0.0
220
0.0
230
1.0
  0
TEXT
  8
0
  6
CONTINUOUS
 62
     7
  5
5B1
 10
961751.206
 20
7301403.293
 30
0.0
 40
8.0
  1
R=10'
 50
43.1925
  7
ROMANS
 72
     4
 11
961761.10496
 21
7301418.072834
 31
0.0
210
0.0
220
0.0
230
1.0
  0
TEXT
  8
0
  6
CONTINUOUS
 62
     7
  5
5B2
 10
961835.979
 20
7300495.624
 30
0.0
 40
8.0
  1
R=10'
 50
43.1925
  7
ROMANS
 72
     4
 11
961845.87796
 21
7300510.403834
 31
0.0
210
0.0
220
0.0
230
1.0
  0
TEXT
  8
0
  6
CONTINUOUS
 62
     7
  5
5B3
 10
962814.931
 20
7300407.913
 30
0.0
 40
8.0
  1
R=10'
 50
43.1925
  7
ROMANS
 72
     4
 11
962824.82996
 21
7300422.692834
 31
0.0
210
0.0
220
0.0
230
1.0
  0
TEXT
  8
0
  6
CONTINUOUS
 62
     7
  5
5B4
 10
962843.786
 20
7301367.872
 30
0.0
 40
8.0
  1
R=10'
 50
43.1925
  7
ROMANS
 72
     4
 11
962853.68496
 21
7301382.651834
 31
0.0
210
0.0
220
0.0
230
1.0
  0
TEXT
  8
0
  6
CONTINUOUS
 62
     7
  5
5B5
 10
962903.642
 20
7301423.194
 30
0.0
 40
8.0
  1
R=10'
 50
43.1925
  7
ROMANS
 72
     4
 11
962913.54096
 21
7301437.973834
 31
0.0
210
0.0
220
0.0
230
1.0
  0
TEXT
  8
0
  6
CONTINUOUS
 62
     7
  5
5B6
 10
960853.974
 20
7301490.236
 30
0.0
 40
8.0
  1
R=10'
 50
43.1925
  7
ROMANS
 72
     4
 11
960863.87296
 21
7301505.015834
 31
0.0
210
0.0
220
0.0
230
1.0
  0
TEXT
  8
0
  6
CONTINUOUS
 62
     7
  5
5B7
 10
960340.128
 20
7301473.145
 30
0.0
 40
8.0
  1
R=10'
 50
313.1925
  7
ROMANS
 72
     4
 11
960354.907834
 21
7301463.24604
 31
0.0
210
0.0
220
0.0
230
1.0
  0
TEXT
  8
0
  6
CONTINUOUS
 62
     7
  5
5B8
 10
960308.811
 20
7300511.034
 30
0.0
 40
8.0
  1
R=10'
 50
313.1925
  7
ROMANS
 72
     4
 11
960323.590834
 21
7300501.13504
 31
0.0
210
0.0
220
0.0
230
1.0
  0
TEXT
  8
0
  6
CONTINUOUS
 62
     7
  5
5B9
 10
960288.482
 20
7299852.422
 30
0.0
 40
8.0
  1
R=10'
 50
313.1925
  7
ROMANS
 72
     4
 11
960303.261834
 21
7299842.52304
 31
0.0
210
0.0
220
0.0
230
1.0
  0
TEXT
  8
0
  6
CONTINUOUS
 62
     7
  5
5BA
 10
960157.618
 20
7299345.142
 30
0.0
 40
8.0
  1
R=10'
 50
313.1925
  7
ROMANS
 72
     4
 11
960172.397834
 21
7299335.24304
 31
0.0
210
0.0
220
0.0
230
1.0
  0
TEXT
  8
0
  6
CONTINUOUS
 62
     7
  5
5BB
 10
961178.556
 20
7299797.811
 30
0.0
 40
8.0
  1
R=10'
 50
43.1925
  7
ROMANS
 72
     4
 11
961188.45496
 21
7299812.590834
 31
0.0
210
0.0
220
0.0
230
1.0
  0
TEXT
  8
0
  6
CONTINUOUS
 62
     7
  5
5BC
 10
961174.585
 20
7299882.72
 30
0.0
 40
8.0
  1
R=10'
 50
313.1925
  7
ROMANS
 72
     4
 11
961189.364834
 21
7299872.82104
 31
0.0
210
0.0
220
0.0
230
1.0
  0
TEXT
  8
0
  6
CONTINUOUS
 62
     7
  5
5BD
 10
961235.302
 20
7299818.012
 30
0.0
 40
8.0
  1
R=10'
 50
313.1925
  7
ROMANS
 72
     4
 11
961250.081834
 21
7299808.11304
 31
0.0
210
0.0
220
0.0
230
1.0
  0
TEXT
  8
0
  6
CONTINUOUS
 62
     7
  5
5BE
 10
961925.647
 20
7299858.551
 30
0.0
 40
8.0
  1
R=10'
 50
313.1925
  7
ROMANS
 72
     4
 11
961940.426834
 21
7299848.65204
 31
0.0
210
0.0
220
0.0
230
1.0
  0
TEXT
  8
0
  6
CONTINUOUS
 62
     7
  5
5BF
 10
962810.181
 20
7300486.567
 30
0.0
 40
8.0
  1
R=10'
 50
313.1925
  7
ROMANS
 72
     4
 11
962824.960834
 21
7300476.66804
 31
0.0
210
0.0
220
0.0
230
1.0
  0
TEXT
  8
0
  6
CONTINUOUS
 62
     7
  5
5C0
 10
962838.802
 20
7301449.619
 30
0.0
 40
8.0
  1
R=10'
 50
313.1925
  7
ROMANS
 72
     4
 11
962853.581834
 21
7301439.72004
 31
0.0
210
0.0
220
0.0
230
1.0
  0
TEXT
  8
0
  6
CONTINUOUS
 62
     7
  5
5C1
 10
962897.158
 20
7301398.474
 30
0.0
 40
8.0
  1
R=10'
 50
313.1925
  7
ROMANS
 72
     4
 11
962911.937834
 21
7301388.57504
 31
0.0
210
0.0
220
0.0
230
1.0
  0
TEXT
  8
0
  6
CONTINUOUS
 62
     7
  5
5C2
 10
961820.105
 20
7301425.63
 30
0.0
 40
8.0
  1
R=10'
 50
313.1925
  7
ROMANS
 72
     4
 11
961834.884834
 21
7301415.73104
 31
0.0
210
0.0
220
0.0
230
1.0
  0
TEXT
  8
0
  6
CONTINUOUS
 62
     7
  5
5C3
 10
961744.619
 20
7300522.435
 30
0.0
 40
8.0
  1
R=10'
 50
313.1925
  7
ROMANS
 72
     4
 11
961759.398834
 21
7300512.53604
 31
0.0
210
0.0
220
0.0
230
1.0
  0
TEXT
  8
0
  6
CONTINUOUS
 62
     7
  5
5C4
 10
962006.051
 20
7300455.64
 30
0.0
 40
8.0
  1
R=10'
 50
313.1925
  7
ROMANS
 72
     4
 11
962020.830834
 21
7300445.74104
 31
0.0
210
0.0
220
0.0
230
1.0
  0
TEXT
  8
0
  6
CONTINUOUS
 62
     7
  5
5C5
 10
961252.001
 20
7300482.348
 30
0.0
 40
8.0
  1
R=10'
 50
313.1925
  7
ROMANS
 72
     4
 11
961266.780834
 21
7300472.44904
 31
0.0
210
0.0
220
0.0
230
1.0
  0
TEXT
  8
0
  6
CONTINUOUS
 62
     7
  5
5C6
 10
961196.07
 20
7300536.672
 30
0.0
 40
8.0
  1
R=10'
 50
313.1925
  7
ROMANS
 72
     4
 11
961210.849834
 21
7300526.77304
 31
0.0
210
0.0
220
0.0
230
1.0
  0
TEXT
  8
0
  6
CONTINUOUS
 62
     7
  5
5C7
 10
961282.799
 20
7301443.35
 30
0.0
 40
8.0
  1
R=10'
 50
313.1925
  7
ROMANS
 72
     4
 11
961297.578834
 21
7301433.45104
 31
0.0
210
0.0
220
0.0
230
1.0
  0
TEXT
  8
0
  6
CONTINUOUS
 62
     7
  5
5C8
 10
961953.487
 20
7300433.31
 30
0.0
 40
8.0
  1
R=10'
 50
43.1925
  7
ROMANS
 72
     4
 11
961963.38596
 21
7300448.089834
 31
0.0
210
0.0
220
0.0
230
1.0
  0
TEXT
  8
0
  6
CONTINUOUS
 62
     7
  5
5C9
 10
961747.217
 20
7300558.548
 30
0.0
 40
8.0
  1
R
 50
281.291967
  7
ROMANS
 72
     1
 11
961755.555575
 21
7300557.643251
 31
0.0
210
0.0
220
0.0
230
1.0
 73
     3
  0
TEXT
  8
0
  6
CONTINUOUS
 62
     7
  5
5CA
 10
961749.119
 20
7300550.108
 30
0.0
 40
8.0
  1
=
 50
285.034672
  7
ROMANS
 72
     1
 11
961757.709744
 21
7300548.96432
 31
0.0
210
0.0
220
0.0
230
1.0
 73
     3
  0
TEXT
  8
0
  6
CONTINUOUS
 62
     7
  5
5CB
 10
961751.451
 20
7300541.776
 30
0.0
 40
8.0
  1
1
 50
288.777378
  7
ROMANS
 72
     1
 11
961759.454293
 21
7300543.089082
 31
0.0
210
0.0
220
0.0
230
1.0
 73
     3
  0
TEXT
  8
0
  6
CONTINUOUS
 62
     7
  5
5CC
 10
961754.209
 20
7300533.569
 30
0.0
 40
8.0
  1
5
 50
292.520081
  7
ROMANS
 72
     1
 11
961762.496732
 21
7300534.467799
 31
0.0
210
0.0
220
0.0
230
1.0
 73
     3
  0
TEXT
  8
0
  6
CONTINUOUS
 62
     7
  5
5CD
 10
961757.248
 20
7300526.238
 30
0.0
 40
8.0
  1
0
 50
292.520081
  7
ROMANS
 72
     1
 11
961765.653315
 21
7300526.853209
 31
0.0
210
0.0
220
0.0
230
1.0
 73
     3
  0
TEXT
  8
0
  6
CONTINUOUS
 62
     7
  5
5CE
 10
961760.896
 20
7300518.394
 30
0.0
 40
8.0
  1
'
 50
296.262786
  7
ROMANS
 72
     1
 11
961768.66003
 21
7300520.738511
 31
0.0
210
0.0
220
0.0
230
1.0
 73
     3
  0
TEXT
  8
0
  6
CONTINUOUS
 62
     7
  5
5CF
 10
961793.959
 20
7300571.851
 30
0.0
 40
8.0
  1
R
 50
279.6524
  7
ROMANS
 72
     1
 11
961794.381529
 21
7300569.366675
 31
0.0
210
0.0
220
0.0
230
1.0
  0
TEXT
  8
0
  6
CONTINUOUS
 62
     7
  5
5D0
 10
961795.361
 20
7300564.286
 30
0.0
 40
8.0
  1
=
 50
284.236361
  7
ROMANS
 72
     1
 11
961796.18066
 21
7300561.055358
 31
0.0
210
0.0
220
0.0
230
1.0
  0
TEXT
  8
0
  6
CONTINUOUS
 62
     7
  5
5D1
 10
961797.357
 20
7300556.857
 30
0.0
 40
8.0
  1
1
 50
288.820322
  7
ROMANS
 72
     1
 11
961797.787028
 21
7300555.595269
 31
0.0
210
0.0
220
0.0
230
1.0
  0
TEXT
  8
0
  6
CONTINUOUS
 62
     7
  5
5D2
 10
961799.936
 20
7300549.609
 30
0.0
 40
8.0
  1
0
 50
293.404283
  7
ROMANS
 72
     1
 11
961800.989021
 21
7300547.176111
 31
0.0
210
0.0
220
0.0
230
1.0
  0
TEXT
  8
0
  6
CONTINUOUS
 62
     7
  5
5D3
 10
961803.082
 20
7300542.588
 30
0.0
 40
8.0
  1
0
 50
297.988242
  7
ROMANS
 72
     1
 11
961804.326089
 21
7300540.247051
 31
0.0
210
0.0
220
0.0
230
1.0
  0
TEXT
  8
0
  6
CONTINUOUS
 62
     7
  5
5D4
 10
961806.785
 20
7300535.778
 30
0.0
 40
8.0
  1
'
 50
301.494292
  7
ROMANS
 72
     1
 11
961807.481377
 21
7300534.641361
 31
0.0
210
0.0
220
0.0
230
1.0
  0
TEXT
  8
0
  6
CONTINUOUS
 62
     7
  5
5D5
 10
961761.361
 20
7300559.21
 30
0.0
 40
8.0
  1
8
 50
281.291967
  7
ROMANS
 72
     1
 11
961761.817822
 21
7300556.922162
 31
0.0
210
0.0
220
0.0
230
1.0
  0
TEXT
  8
0
  6
CONTINUOUS
 62
     7
  5
5D6
 10
961763.19
 20
7300551.692
 30
0.0
 40
8.0
  1
7
 50
285.034672
  7
ROMANS
 72
     1
 11
961763.795188
 21
7300549.438861
 31
0.0
210
0.0
220
0.0
230
1.0
  0
TEXT
  8
0
  6
CONTINUOUS
 62
     7
  5
5D7
 10
961765.388
 20
7300544.274
 30
0.0
 40
8.0
  1
.
 50
288.777378
  7
ROMANS
 72
     1
 11
961765.813541
 21
7300543.022362
 31
0.0
210
0.0
220
0.0
230
1.0
  0
TEXT
  8
0
  6
CONTINUOUS
 62
     7
  5
5D8
 10
961767.954
 20
7300536.973
 30
0.0
 40
8.0
  1
8
 50
292.520081
  7
ROMANS
 72
     1
 11
961768.847556
 21
7300534.817902
 31
0.0
210
0.0
220
0.0
230
1.0
  0
TEXT
  8
0
  6
CONTINUOUS
 62
     7
  5
5D9
 10
961770.878
 20
7300529.804
 30
0.0
 40
8.0
  1
5
 50
296.262786
  7
ROMANS
 72
     1
 11
961771.915194
 21
7300527.701962
 31
0.0
210
0.0
220
0.0
230
1.0
  0
TEXT
  8
0
  6
CONTINUOUS
 62
     7
  5
5DA
 10
961774.391
 20
7300522.686
 30
0.0
 40
8.0
  1
'
 50
296.262786
  7
ROMANS
 72
     1
 11
961774.980838
 21
7300521.4906
 31
0.0
210
0.0
220
0.0
230
1.0
  0
TEXT
  8
0
  6
CONTINUOUS
 62
     7
  5
5DB
 10
961779.539
 20
7300574.639
 30
0.0
 40
8.0
  1
5
 50
275.068442
  7
ROMANS
 72
     1
 11
961787.714801
 21
7300573.010931
 31
0.0
210
0.0
220
0.0
230
1.0
 73
     3
  0
TEXT
  8
0
  6
CONTINUOUS
 62
     7
  5
5DC
 10
961780.768
 20
7300565.913
 30
0.0
 40
8.0
  1
9
 50
279.6524
  7
ROMANS
 72
     1
 11
961789.04592
 21
7300564.954391
 31
0.0
210
0.0
220
0.0
230
1.0
 73
     3
  0
TEXT
  8
0
  6
CONTINUOUS
 62
     7
  5
5DD
 10
961782.687
 20
7300557.314
 30
0.0
 40
8.0
  1
.
 50
284.236361
  7
ROMANS
 72
     1
 11
961790.766425
 21
7300557.99998
 31
0.0
210
0.0
220
0.0
230
1.0
 73
     3
  0
TEXT
  8
0
  6
CONTINUOUS
 62
     7
  5
5DE
 10
961785.281
 20
7300548.894
 30
0.0
 40
8.0
  1
3
 50
288.820322
  7
ROMANS
 72
     1
 11
961793.605908
 21
7300549.266546
 31
0.0
210
0.0
220
0.0
230
1.0
 73
     3
  0
TEXT
  8
0
  6
CONTINUOUS
 62
     7
  5
5DF
 10
961788.535
 20
7300540.706
 30
0.0
 40
8.0
  1
6
 50
293.404283
  7
ROMANS
 72
     1
 11
961796.877785
 21
7300541.571065
 31
0.0
210
0.0
220
0.0
230
1.0
 73
     3
  0
TEXT
  8
0
  6
CONTINUOUS
 62
     7
  5
5E0
 10
961792.429
 20
7300532.802
 30
0.0
 40
8.0
  1
'
 50
297.988242
  7
ROMANS
 72
     1
 11
961800.118915
 21
7300535.379225
 31
0.0
210
0.0
220
0.0
230
1.0
 73
     3
  0
TEXT
  8
0
  6
CONTINUOUS
 62
     7
  5
5E1
 10
961797.286
 20
7300524.511
 30
0.0
 40
8.0
  1
4
 50
302.716603
  7
ROMANS
 72
     1
 11
961805.277783
 21
7300526.871994
 31
0.0
210
0.0
220
0.0
230
1.0
 73
     3
  0
TEXT
  8
0
  6
CONTINUOUS
 62
     7
  5
5E2
 10
961801.576
 20
7300517.833
 30
0.0
 40
8.0
  1
1
 50
302.716603
  7
ROMANS
 72
     1
 11
961809.027299
 21
7300521.035348
 31
0.0
210
0.0
220
0.0
230
1.0
 73
     3
  0
TEXT
  8
0
  6
CONTINUOUS
 62
     7
  5
5E3
 10
961805.866
 20
7300511.156
 30
0.0
 40
8.0
  1
.
 50
302.716603
  7
ROMANS
 72
     1
 11
961813.311354
 21
7300514.367603
 31
0.0
210
0.0
220
0.0
230
1.0
 73
     3
  0
TEXT
  8
0
  6
CONTINUOUS
 62
     7
  5
5E4
 10
961810.156
 20
7300504.477
 30
0.0
 40
8.0
  1
2
 50
302.716603
  7
ROMANS
 72
     1
 11
961818.147783
 21
7300506.837994
 31
0.0
210
0.0
220
0.0
230
1.0
 73
     3
  0
TEXT
  8
0
  6
CONTINUOUS
 62
     7
  5
5E5
 10
961814.445
 20
7300497.799
 30
0.0
 40
8.0
  1
'
 50
302.716603
  7
ROMANS
 72
     1
 11
961821.896299
 21
7300501.001348
 31
0.0
210
0.0
220
0.0
230
1.0
 73
     3
  0
TEXT
  8
0
  6
CONTINUOUS
 62
     7
  5
5E6
 10
960332.914
 20
7301002.857
 30
0.0
 40
8.0
  1
922.67'
 50
88.1925
  7
ROMANS
 72
     4
 11
960329.715033
 21
7301028.303562
 31
0.0
210
0.0
220
0.0
230
1.0
  0
TEXT
  8
0
  6
CONTINUOUS
 62
     7
  5
5E7
 10
961241.581
 20
7300979.465
 30
0.0
 40
8.0
  1
922.67'
 50
88.1925
  7
ROMANS
 72
     4
 11
961238.382033
 21
7301004.911562
 31
0.0
210
0.0
220
0.0
230
1.0
  0
TEXT
  8
0
  6
CONTINUOUS
 62
     7
  5
5E8
 10
960606.067
 20
7301464.38
 30
0.0
 40
8.0
  1
903.28'
 50
358.1925
  7
ROMANS
 72
     4
 11
960631.513562
 21
7301467.578967
 31
0.0
210
0.0
220
0.0
230
1.0
  0
TEXT
  8
0
  6
CONTINUOUS
 62
     7
  5
5E9
 10
960760.081
 20
7300531.151
 30
0.0
 40
8.0
  1
903.28'
 50
358.1925
  7
ROMANS
 72
     4
 11
960785.527562
 21
7300534.349967
 31
0.0
210
0.0
220
0.0
230
1.0
  0
TEXT
  8
0
  6
CONTINUOUS
 62
     7
  5
5EA
 10
961289.215
 20
7301234.155
 30
0.0
 40
8.0
  1
922.67'
 50
88.1925
  7
ROMANS
 72
     4
 11
961286.016033
 21
7301259.601562
 31
0.0
210
0.0
220
0.0
230
1.0
  0
TEXT
  8
0
  6
CONTINUOUS
 62
     7
  5
5EB
 10
961762.71
 20
7300972.264
 30
0.0
 40
8.0
  1
833.04'
 50
88.1925
  7
ROMANS
 72
     4
 11
961759.511033
 21
7300997.710562
 31
0.0
210
0.0
220
0.0
230
1.0
  0
TEXT
  8
0
  6
CONTINUOUS
 62
     7
  5
5EC
 10
961816.772
 20
7300970.558
 30
0.0
 40
8.0
  1
837.65'
 50
88.1925
  7
ROMANS
 72
     4
 11
961813.573033
 21
7300996.004562
 31
0.0
210
0.0
220
0.0
230
1.0
  0
TEXT
  8
0
  6
CONTINUOUS
 62
     7
  5
5ED
 10
962857.937
 20
7301042.177
 30
0.0
 40
8.0
  1
922.67'
 50
88.1925
  7
ROMANS
 72
     4
 11
962854.738033
 21
7301067.623562
 31
0.0
210
0.0
220
0.0
230
1.0
  0
TEXT
  8
0
  6
CONTINUOUS
 62
     7
  5
5EE
 10
961510.058
 20
7301433.221
 30
0.0
 40
8.0
  1
482.48'
 50
358.1925
  7
ROMANS
 72
     4
 11
961535.504562
 21
7301436.419967
 31
0.0
210
0.0
220
0.0
230
1.0
  0
TEXT
  8
0
  6
CONTINUOUS
 62
     7
  5
5EF
 10
961476.876
 20
7300507.219
 30
0.0
 40
8.0
  1
509.86'
 50
358.1925
  7
ROMANS
 72
     4
 11
961502.322562
 21
7300510.417967
 31
0.0
210
0.0
220
0.0
230
1.0
  0
TEXT
  8
0
  6
CONTINUOUS
 62
     7
  5
5F0
 10
962245.981
 20
7300485.908
 30
0.0
 40
8.0
  1
997.73'
 50
358.1925
  7
ROMANS
 72
     4
 11
962271.427562
 21
7300489.106967
 31
0.0
210
0.0
220
0.0
230
1.0
  0
TEXT
  8
0
  6
CONTINUOUS
 62
     7
  5
5F1
 10
962285.66
 20
7300446.359
 30
0.0
 40
8.0
  1
822.1'
 50
358.1925
  7
ROMANS
 72
     4
 11
962307.108552
 21
7300449.684133
 31
0.0
210
0.0
220
0.0
230
1.0
  0
TEXT
  8
0
  6
CONTINUOUS
 62
     7
  5
5F2
 10
962367.574
 20
7299822.555
 30
0.0
 40
8.0
  1
832.1'
 50
358.1925
  7
ROMANS
 72
     4
 11
962389.022552
 21
7299825.880133
 31
0.0
210
0.0
220
0.0
230
1.0
  0
TEXT
  8
0
  6
CONTINUOUS
 62
     7
  5
5F3
 10
961579.631
 20
7300469.265
 30
0.0
 40
8.0
  1
712.24'
 50
358.1925
  7
ROMANS
 72
     4
 11
961605.077562
 21
7300472.463967
 31
0.0
210
0.0
220
0.0
230
1.0
  0
TEXT
  8
0
  6
CONTINUOUS
 62
     7
  5
5F4
 10
961575.928
 20
7299850.029
 30
0.0
 40
8.0
  1
712.24'
 50
358.1925
  7
ROMANS
 72
     4
 11
961601.374562
 21
7299853.227967
 31
0.0
210
0.0
220
0.0
230
1.0
  0
TEXT
  8
0
  6
CONTINUOUS
 62
     7
  5
5F5
 10
960621.93
 20
7300500.801
 30
0.0
 40
8.0
  1
903.28'
 50
358.1925
  7
ROMANS
 72
     4
 11
960647.376562
 21
7300503.999967
 31
0.0
210
0.0
220
0.0
230
1.0
  0
TEXT
  8
0
  6
CONTINUOUS
 62
     7
  5
5F6
 10
960707.849
 20
7299877.416
 30
0.0
 40
8.0
  1
903.28'
 50
358.1925
  7
ROMANS
 72
     4
 11
960733.295562
 21
7299880.614967
 31
0.0
210
0.0
220
0.0
230
1.0
  0
TEXT
  8
0
  6
CONTINUOUS
 62
     7
  5
5F7
 10
960307.398
 20
7300191.313
 30
0.0
 40
8.0
  1
615.82'
 50
88.1925
  7
ROMANS
 72
     4
 11
960304.199033
 21
7300216.759562
 31
0.0
210
0.0
220
0.0
230
1.0
  0
TEXT
  8
0
  6
CONTINUOUS
 62
     7
  5
5F8
 10
961215.773
 20
7300158.686
 30
0.0
 40
8.0
  1
615.82'
 50
88.1925
  7
ROMANS
 72
     4
 11
961212.574033
 21
7300184.132562
 31
0.0
210
0.0
220
0.0
230
1.0
  0
TEXT
  8
0
  6
CONTINUOUS
 62
     7
  5
5F9
 10
961259.396
 20
7300369.923
 30
0.0
 40
8.0
  1
615.82'
 50
88.1925
  7
ROMANS
 72
     4
 11
961256.197033
 21
7300395.369562
 31
0.0
210
0.0
220
0.0
230
1.0
  0
TEXT
  8
0
  6
CONTINUOUS
 62
     7
  5
5FA
 10
961965.639
 20
7300150.843
 30
0.0
 40
8.0
  1
615.82'
 50
88.1925
  7
ROMANS
 72
     4
 11
961962.440033
 21
7300176.289562
 31
0.0
210
0.0
220
0.0
230
1.0
  0
TEXT
  8
0
  6
CONTINUOUS
 62
     7
  5
5FB
 10
961996.481
 20
7299957.065
 30
0.0
 40
8.0
  1
615.82'
 50
88.1925
  7
ROMANS
 72
     4
 11
961993.282033
 21
7299982.511562
 31
0.0
210
0.0
220
0.0
230
1.0
  0
TEXT
  8
0
  6
CONTINUOUS
 62
     7
  5
5FC
 10
962824.843
 20
7300093.354
 30
0.0
 40
8.0
  1
625.82'
 50
88.1925
  7
ROMANS
 72
     4
 11
962821.644033
 21
7300118.800562
 31
0.0
210
0.0
220
0.0
230
1.0
  0
TEXT
  8
0
  6
CONTINUOUS
 62
     7
  5
5FD
 10
962872.725
 20
7301358.674
 30
0.0
 40
8.0
  1
20'
 50
358.1925
  7
ROMANS
 72
     4
 11
962882.179523
 21
7301362.377632
 31
0.0
210
0.0
220
0.0
230
1.0
  0
TEXT
  8
0
  6
CONTINUOUS
 62
     7
  5
5FE
 10
962846.722
 20
7300518.487
 30
0.0
 40
8.0
  1
20'
 50
358.1925
  7
ROMANS
 72
     4
 11
962856.176523
 21
7300522.190632
 31
0.0
210
0.0
220
0.0
230
1.0
  0
TEXT
  8
0
  6
CONTINUOUS
 62
     7
  5
5FF
 10
962825.594
 20
7299857.602
 30
0.0
 40
8.0
  1
20'
 50
358.1925
  7
ROMANS
 72
     4
 11
962835.048523
 21
7299861.305632
 31
0.0
210
0.0
220
0.0
230
1.0
  0
TEXT
  8
0
  6
CONTINUOUS
 62
     7
  5
600
 10
961963.444
 20
7299887.734
 30
0.0
 40
8.0
  1
20'
 50
358.1925
  7
ROMANS
 72
     4
 11
961972.898523
 21
7299891.437632
 31
0.0
210
0.0
220
0.0
230
1.0
  0
TEXT
  8
0
  6
CONTINUOUS
 62
     7
  5
601
 10
961980.115
 20
7300406.509
 30
0.0
 40
8.0
  1
20'
 50
358.1925
  7
ROMANS
 72
     4
 11
961989.569523
 21
7300410.212632
 31
0.0
210
0.0
220
0.0
230
1.0
  0
TEXT
  8
0
  6
CONTINUOUS
 62
     7
  5
602
 10
961211.473
 20
7299907.039
 30
0.0
 40
8.0
  1
20'
 50
358.1925
  7
ROMANS
 72
     4
 11
961220.927523
 21
7299910.742632
 31
0.0
210
0.0
220
0.0
230
1.0
  0
TEXT
  8
0
  6
CONTINUOUS
 62
     7
  5
603
 10
961232.632
 20
7300568.869
 30
0.0
 40
8.0
  1
20'
 50
358.1925
  7
ROMANS
 72
     4
 11
961242.086523
 21
7300572.572632
 31
0.0
210
0.0
220
0.0
230
1.0
  0
TEXT
  8
0
  6
CONTINUOUS
 62
     7
  5
604
 10
961258.27
 20
7301380.333
 30
0.0
 40
8.0
  1
20'
 50
358.1925
  7
ROMANS
 72
     4
 11
961267.724523
 21
7301384.036632
 31
0.0
210
0.0
220
0.0
230
1.0
  0
TEXT
  8
0
  6
CONTINUOUS
 62
     7
  5
605
 10
961789.919
 20
7301369.768
 30
0.0
 40
8.0
  1
35'
 50
358.1925
  7
ROMANS
 72
     4
 11
961799.373523
 21
7301373.471632
 31
0.0
210
0.0
220
0.0
230
1.0
  0
TEXT
  8
0
  6
CONTINUOUS
 62
     7
  5
606
 10
961764.378
 20
7300606.083
 30
0.0
 40
8.0
  1
35'
 50
358.1925
  7
ROMANS
 72
     4
 11
961773.832523
 21
7300609.786632
 31
0.0
210
0.0
220
0.0
230
1.0
  0
TEXT
  8
0
  6
CONTINUOUS
 62
     7
  5
607
 10
961404.045
 20
7304446.958
 30
0.0
 40
8.0
  1
R
 50
351.528864
  7
ROMANS
 72
     1
 11
961407.715997
 21
7304454.499497
 31
0.0
210
0.0
220
0.0
230
1.0
 73
     3
  0
TEXT
  8
0
  6
CONTINUOUS
 62
     7
  5
608
 10
961412.434
 20
7304445.667
 30
0.0
 40
8.0
  1
=
 50
354.388997
  7
ROMANS
 72
     1
 11
961416.533223
 21
7304453.302788
 31
0.0
210
0.0
220
0.0
230
1.0
 73
     3
  0
TEXT
  8
0
  6
CONTINUOUS
 62
     7
  5
609
 10
961420.332
 20
7304444.89
 30
0.0
 40
8.0
  1
2
 50
354.388997
  7
ROMANS
 72
     1
 11
961423.436014
 21
7304452.623562
 31
0.0
210
0.0
220
0.0
230
1.0
 73
     3
  0
TEXT
  8
0
  6
CONTINUOUS
 62
     7
  5
60A
 10
961428.786
 20
7304444.171
 30
0.0
 40
8.0
  1
5
 50
357.249133
  7
ROMANS
 72
     1
 11
961431.511245
 21
7304452.049285
 31
0.0
210
0.0
220
0.0
230
1.0
 73
     3
  0
TEXT
  8
0
  6
CONTINUOUS
 62
     7
  5
60B
 10
961436.714
 20
7304443.791
 30
0.0
 40
8.0
  1
6
 50
357.249133
  7
ROMANS
 72
     1
 11
961439.615042
 21
7304451.660838
 31
0.0
210
0.0
220
0.0
230
1.0
 73
     3
  0
TEXT
  8
0
  6
CONTINUOUS
 62
     7
  5
60C
 10
961445.196
 20
7304443.646
 30
0.0
 40
8.0
  1
.
 50
0.109267
  7
ROMANS
 72
     1
 11
961446.502741
 21
7304451.648507
 31
0.0
210
0.0
220
0.0
230
1.0
 73
     3
  0
TEXT
  8
0
  6
CONTINUOUS
 62
     7
  5
60D
 10
961453.681
 20
7304443.683
 30
0.0
 40
8.0
  1
8
 50
2.969403
  7
ROMANS
 72
     1
 11
961455.596446
 21
7304451.793114
 31
0.0
210
0.0
220
0.0
230
1.0
 73
     3
  0
TEXT
  8
0
  6
CONTINUOUS
 62
     7
  5
60E
 10
961461.608
 20
7304444.094
 30
0.0
 40
8.0
  1
5
 50
2.969403
  7
ROMANS
 72
     1
 11
961463.534432
 21
7304452.204684
 31
0.0
210
0.0
220
0.0
230
1.0
 73
     3
  0
TEXT
  8
0
  6
CONTINUOUS
 62
     7
  5
60F
 10
961470.07
 20
7304444.704
 30
0.0
 40
8.0
  1
'
 50
5.829536
  7
ROMANS
 72
     1
 11
961470.583553
 21
7304452.79802
 31
0.0
210
0.0
220
0.0
230
1.0
 73
     3
  0
TEXT
  8
0
  6
CONTINUOUS
 62
     7
  5
610
 10
961405.857
 20
7304480.353
 30
0.0
 40
8.0
  1
R
 50
352.952328
  7
ROMANS
 72
     1
 11
961408.35796
 21
7304480.043808
 31
0.0
210
0.0
220
0.0
230
1.0
  0
TEXT
  8
0
  6
CONTINUOUS
 62
     7
  5
611
 10
961413.734
 20
7304479.379
 30
0.0
 40
8.0
  1
=
 50
352.952328
  7
ROMANS
 72
     1
 11
961417.041817
 21
7304478.970057
 31
0.0
210
0.0
220
0.0
230
1.0
  0
TEXT
  8
0
  6
CONTINUOUS
 62
     7
  5
612
 10
961421.459
 20
7304478.56
 30
0.0
 40
8.0
  1
2
 50
356.130072
  7
ROMANS
 72
     1
 11
961423.78668
 21
7304478.402542
 31
0.0
210
0.0
220
0.0
230
1.0
  0
TEXT
  8
0
  6
CONTINUOUS
 62
     7
  5
613
 10
961429.21
 20
7304477.971
 30
0.0
 40
8.0
  1
0
 50
359.307817
  7
ROMANS
 72
     1
 11
961431.860807
 21
7304477.938974
 31
0.0
210
0.0
220
0.0
230
1.0
  0
TEXT
  8
0
  6
CONTINUOUS
 62
     7
  5
614
 10
961437.145
 20
7304477.875
 30
0.0
 40
8.0
  1
8
 50
359.307817
  7
ROMANS
 72
     1
 11
961439.47783
 21
7304477.846816
 31
0.0
210
0.0
220
0.0
230
1.0
  0
TEXT
  8
0
  6
CONTINUOUS
 62
     7
  5
615
 10
961444.913
 20
7304477.956
 30
0.0
 40
8.0
  1
.
 50
2.485561
  7
ROMANS
 72
     1
 11
961446.233756
 21
7304478.013332
 31
0.0
210
0.0
220
0.0
230
1.0
  0
TEXT
  8
0
  6
CONTINUOUS
 62
     7
  5
616
 10
961452.677
 20
7304478.27
 30
0.0
 40
8.0
  1
0
 50
5.663306
  7
ROMANS
 72
     1
 11
961455.31506
 21
7304478.531607
 31
0.0
210
0.0
220
0.0
230
1.0
  0
TEXT
  8
0
  6
CONTINUOUS
 62
     7
  5
617
 10
961460.576
 20
7304479.053
 30
0.0
 40
8.0
  1
7
 50
5.663306
  7
ROMANS
 72
     1
 11
961462.897613
 21
7304479.283226
 31
0.0
210
0.0
220
0.0
230
1.0
  0
TEXT
  8
0
  6
CONTINUOUS
 62
     7
  5
618
 10
961468.281
 20
7304480.034
 30
0.0
 40
8.0
  1
'
 50
8.84105
  7
ROMANS
 72
     1
 11
961469.598162
 21
7304480.238874
 31
0.0
210
0.0
220
0.0
230
1.0
  0
TEXT
  8
0
  6
CONTINUOUS
 62
     7
  5
619
 10
961407.922
 20
7304465.991
 30
0.0
 40
8.0
  1
1
 50
352.952328
  7
ROMANS
 72
     1
 11
961410.226489
 21
7304473.767003
 31
0.0
210
0.0
220
0.0
230
1.0
 73
     3
  0
TEXT
  8
0
  6
CONTINUOUS
 62
     7
  5
61A
 10
961416.398
 20
7304464.87
 30
0.0
 40
8.0
  1
8
 50
356.130072
  7
ROMANS
 72
     1
 11
961419.265613
 21
7304472.694301
 31
0.0
210
0.0
220
0.0
230
1.0
 73
     3
  0
TEXT
  8
0
  6
CONTINUOUS
 62
     7
  5
61B
 10
961424.317
 20
7304464.335
 30
0.0
 40
8.0
  1
7
 50
356.130072
  7
ROMANS
 72
     1
 11
961427.184613
 21
7304472.159301
 31
0.0
210
0.0
220
0.0
230
1.0
 73
     3
  0
TEXT
  8
0
  6
CONTINUOUS
 62
     7
  5
61C
 10
961432.852
 20
7304463.926
 30
0.0
 40
8.0
  1
.
 50
359.307817
  7
ROMANS
 72
     1
 11
961434.270548
 21
7304471.909446
 31
0.0
210
0.0
220
0.0
230
1.0
 73
     3
  0
TEXT
  8
0
  6
CONTINUOUS
 62
     7
  5
61D
 10
961441.399
 20
7304463.791
 30
0.0
 40
8.0
  1
8
 50
2.485561
  7
ROMANS
 72
     1
 11
961443.382864
 21
7304471.88465
 31
0.0
210
0.0
220
0.0
230
1.0
 73
     3
  0
TEXT
  8
0
  6
CONTINUOUS
 62
     7
  5
61E
 10
961449.328
 20
7304464.134
 30
0.0
 40
8.0
  1
1
 50
2.485561
  7
ROMANS
 72
     1
 11
961450.312805
 21
7304472.184282
 31
0.0
210
0.0
220
0.0
230
1.0
 73
     3
  0
TEXT
  8
0
  6
CONTINUOUS
 62
     7
  5
61F
 10
961457.852
 20
7304464.714
 30
0.0
 40
8.0
  1
'
 50
5.663306
  7
ROMANS
 72
     1
 11
961458.389034
 21
7304472.806496
 31
0.0
210
0.0
220
0.0
230
1.0
 73
     3
  0
TEXT
  8
0
  6
CONTINUOUS
 62
     7
  5
620
 10
961474.123
 20
7304459.191
 30
0.0
 40
8.0
  1
2
 50
5.829536
  7
ROMANS
 72
     1
 11
961476.443935
 21
7304459.427961
 31
0.0
210
0.0
220
0.0
230
1.0
  0
TEXT
  8
0
  6
CONTINUOUS
 62
     7
  5
621
 10
961481.845
 20
7304460.167
 30
0.0
 40
8.0
  1
1
 50
8.689672
  7
ROMANS
 72
     1
 11
961483.163687
 21
7304460.368544
 31
0.0
210
0.0
220
0.0
230
1.0
  0
TEXT
  8
0
  6
CONTINUOUS
 62
     7
  5
622
 10
961489.554
 20
7304461.285
 30
0.0
 40
8.0
  1
9
 50
11.549806
  7
ROMANS
 72
     1
 11
961491.839759
 21
7304461.752113
 31
0.0
210
0.0
220
0.0
230
1.0
  0
TEXT
  8
0
  6
CONTINUOUS
 62
     7
  5
623
 10
961497.33
 20
7304462.874
 30
0.0
 40
8.0
  1
.
 50
11.549806
  7
ROMANS
 72
     1
 11
961498.625231
 21
7304463.13869
 31
0.0
210
0.0
220
0.0
230
1.0
  0
TEXT
  8
0
  6
CONTINUOUS
 62
     7
  5
624
 10
961504.939
 20
7304464.525
 30
0.0
 40
8.0
  1
1
 50
14.409939
  7
ROMANS
 72
     1
 11
961506.230064
 21
7304464.856728
 31
0.0
210
0.0
220
0.0
230
1.0
  0
TEXT
  8
0
  6
CONTINUOUS
 62
     7
  5
625
 10
961512.625
 20
7304466.5
 30
0.0
 40
8.0
  1
6
 50
14.409939
  7
ROMANS
 72
     1
 11
961515.065721
 21
7304467.127122
 31
0.0
210
0.0
220
0.0
230
1.0
  0
TEXT
  8
0
  6
CONTINUOUS
 62
     7
  5
626
 10
961520.101
 20
7304468.676
 30
0.0
 40
8.0
  1
'
 50
17.270075
  7
ROMANS
 72
     1
 11
961521.373903
 21
7304469.071736
 31
0.0
210
0.0
220
0.0
230
1.0
  0
TEXT
  8
0
  6
CONTINUOUS
 62
     7
  5
627
 10
961241.126
 20
7304528.484
 30
0.0
 40
8.0
  1
R
 50
354.277767
  7
ROMANS
 72
     1
 11
961243.633443
 21
7304528.232741
 31
0.0
210
0.0
220
0.0
230
1.0
  0
TEXT
  8
0
  6
CONTINUOUS
 62
     7
  5
628
 10
961249.024
 20
7304527.693
 30
0.0
 40
8.0
  1
=
 50
354.277767
  7
ROMANS
 72
     1
 11
961252.340392
 21
7304527.36068
 31
0.0
210
0.0
220
0.0
230
1.0
  0
TEXT
  8
0
  6
CONTINUOUS
 62
     7
  5
629
 10
961257.035
 20
7304526.697
 30
0.0
 40
8.0
  1
3
 50
351.636436
  7
ROMANS
 72
     1
 11
961259.343189
 21
7304526.357656
 31
0.0
210
0.0
220
0.0
230
1.0
  0
TEXT
  8
0
  6
CONTINUOUS
 62
     7
  5
62A
 10
961265.039
 20
7304525.605
 30
0.0
 40
8.0
  1
0
 50
348.995106
  7
ROMANS
 72
     1
 11
961267.64125
 21
7304525.098943
 31
0.0
210
0.0
220
0.0
230
1.0
  0
TEXT
  8
0
  6
CONTINUOUS
 62
     7
  5
62B
 10
961272.83
 20
7304524.088
 30
0.0
 40
8.0
  1
1
 50
348.995106
  7
ROMANS
 72
     1
 11
961274.138487
 21
7304523.83354
 31
0.0
210
0.0
220
0.0
230
1.0
  0
TEXT
  8
0
  6
CONTINUOUS
 62
     7
  5
62C
 10
961280.755
 20
7304522.538
 30
0.0
 40
8.0
  1
.
 50
346.353778
  7
ROMANS
 72
     1
 11
961282.039681
 21
7304522.226106
 31
0.0
210
0.0
220
0.0
230
1.0
  0
TEXT
  8
0
  6
CONTINUOUS
 62
     7
  5
62D
 10
961288.467
 20
7304520.665
 30
0.0
 40
8.0
  1
1
 50
346.353778
  7
ROMANS
 72
     1
 11
961289.762371
 21
7304520.35051
 31
0.0
210
0.0
220
0.0
230
1.0
  0
TEXT
  8
0
  6
CONTINUOUS
 62
     7
  5
62E
 10
961296.288
 20
7304518.662
 30
0.0
 40
8.0
  1
6
 50
343.712447
  7
ROMANS
 72
     1
 11
961298.706863
 21
7304517.955245
 31
0.0
210
0.0
220
0.0
230
1.0
  0
TEXT
  8
0
  6
CONTINUOUS
 62
     7
  5
62F
 10
961303.907
 20
7304516.437
 30
0.0
 40
8.0
  1
'
 50
343.712447
  7
ROMANS
 72
     1
 11
961305.186502
 21
7304516.063149
 31
0.0
210
0.0
220
0.0
230
1.0
  0
TEXT
  8
0
  6
CONTINUOUS
 62
     7
  5
630
 10
961268.397
 20
7304490.45
 30
0.0
 40
8.0
  1
R
 50
347.037483
  7
ROMANS
 72
     1
 11
961272.647291
 21
7304497.680866
 31
0.0
210
0.0
220
0.0
230
1.0
 73
     3
  0
TEXT
  8
0
  6
CONTINUOUS
 62
     7
  5
631
 10
961276.133
 20
7304488.669
 30
0.0
 40
8.0
  1
=
 50
347.037483
  7
ROMANS
 72
     1
 11
961281.175574
 21
7304495.717499
 31
0.0
210
0.0
220
0.0
230
1.0
 73
     3
  0
TEXT
  8
0
  6
CONTINUOUS
 62
     7
  5
632
 10
961283.347
 20
7304486.974
 30
0.0
 40
8.0
  1
2
 50
344.30825
  7
ROMANS
 72
     1
 11
961287.756745
 21
7304494.044858
 31
0.0
210
0.0
220
0.0
230
1.0
 73
     3
  0
TEXT
  8
0
  6
CONTINUOUS
 62
     7
  5
633
 10
961290.988
 20
7304484.828
 30
0.0
 40
8.0
  1
8
 50
344.30825
  7
ROMANS
 72
     1
 11
961295.397745
 21
7304491.898858
 31
0.0
210
0.0
220
0.0
230
1.0
 73
     3
  0
TEXT
  8
0
  6
CONTINUOUS
 62
     7
  5
634
 10
961298.082
 20
7304482.679
 30
0.0
 40
8.0
  1
2
 50
341.579014
  7
ROMANS
 72
     1
 11
961302.82343
 21
7304489.531863
 31
0.0
210
0.0
220
0.0
230
1.0
 73
     3
  0
TEXT
  8
0
  6
CONTINUOUS
 62
     7
  5
635
 10
961305.613
 20
7304480.171
 30
0.0
 40
8.0
  1
.
 50
341.579014
  7
ROMANS
 72
     1
 11
961309.395234
 21
7304487.343335
 31
0.0
210
0.0
220
0.0
230
1.0
 73
     3
  0
TEXT
  8
0
  6
CONTINUOUS
 62
     7
  5
636
 10
961312.555
 20
7304477.579
 30
0.0
 40
8.0
  1
0
 50
338.849781
  7
ROMANS
 72
     1
 11
961317.913938
 21
7304484.083582
 31
0.0
210
0.0
220
0.0
230
1.0
 73
     3
  0
TEXT
  8
0
  6
CONTINUOUS
 62
     7
  5
637
 10
961319.6
 20
7304474.848
 30
0.0
 40
8.0
  1
7
 50
336.862822
  7
ROMANS
 72
     1
 11
961324.88882
 21
7304481.287819
 31
0.0
210
0.0
220
0.0
230
1.0
 73
     3
  0
TEXT
  8
0
  6
CONTINUOUS
 62
     7
  5
638
 10
961277.297
 20
7304508.972
 30
0.0
 40
8.0
  1
1
 50
346.353778
  7
ROMANS
 72
     1
 11
961280.47978
 21
7304516.431678
 31
0.0
210
0.0
220
0.0
230
1.0
 73
     3
  0
TEXT
  8
0
  6
CONTINUOUS
 62
     7
  5
639
 10
961285.01
 20
7304507.097
 30
0.0
 40
8.0
  1
2
 50
346.353778
  7
ROMANS
 72
     1
 11
961289.164551
 21
7304514.320752
 31
0.0
210
0.0
220
0.0
230
1.0
 73
     3
  0
TEXT
  8
0
  6
CONTINUOUS
 62
     7
  5
63A
 10
961292.21
 20
7304505.269
 30
0.0
 40
8.0
  1
0
 50
343.712447
  7
ROMANS
 72
     1
 11
961296.998271
 21
7304512.204435
 31
0.0
210
0.0
220
0.0
230
1.0
 73
     3
  0
TEXT
  8
0
  6
CONTINUOUS
 62
     7
  5
63B
 10
961299.829
 20
7304503.043
 30
0.0
 40
8.0
  1
.
 50
343.712447
  7
ROMANS
 72
     1
 11
961303.341609
 21
7304510.351164
 31
0.0
210
0.0
220
0.0
230
1.0
 73
     3
  0
TEXT
  8
0
  6
CONTINUOUS
 62
     7
  5
63C
 10
961306.908
 20
7304500.797
 30
0.0
 40
8.0
  1
2
 50
341.071117
  7
ROMANS
 72
     1
 11
961311.70999
 21
7304507.607564
 31
0.0
210
0.0
220
0.0
230
1.0
 73
     3
  0
TEXT
  8
0
  6
CONTINUOUS
 62
     7
  5
63D
 10
961313.499
 20
7304498.463
 30
0.0
 40
8.0
  1
'
 50
338.429786
  7
ROMANS
 72
     1
 11
961317.679776
 21
7304505.412676
 31
0.0
210
0.0
220
0.0
230
1.0
 73
     3
  0
TEXT
  8
0
  6
CONTINUOUS
 62
     7
  5
63E
 10
960014.13
 20
7304532.499
 30
0.0
 40
8.0
  1
2418.22'
 50
358.1925
  7
ROMANS
 72
     4
 11
960043.574571
 21
7304535.5718
 31
0.0
210
0.0
220
0.0
230
1.0
  0
TEXT
  8
0
  6
CONTINUOUS
 62
     7
  5
63F
 10
962760.161
 20
7304446.942
 30
0.0
 40
8.0
  1
2443.05'
 50
358.1925
  7
ROMANS
 72
     4
 11
962789.605571
 21
7304450.0148
 31
0.0
210
0.0
220
0.0
230
1.0
  0
TEXT
  8
0
  6
CONTINUOUS
 62
     7
  5
640
 10
961532.592
 20
7304499.777
 30
0.0
 40
8.0
  1
R
 50
20.457633
  7
ROMANS
 72
     1
 11
961534.953066
 21
7304500.657777
 31
0.0
210
0.0
220
0.0
230
1.0
  0
TEXT
  8
0
  6
CONTINUOUS
 62
     7
  5
641
 10
961540.205
 20
7304502.489
 30
0.0
 40
8.0
  1
=
 50
17.662056
  7
ROMANS
 72
     1
 11
961543.380891
 21
7304503.500239
 31
0.0
210
0.0
220
0.0
230
1.0
  0
TEXT
  8
0
  6
CONTINUOUS
 62
     7
  5
642
 10
961547.767
 20
7304504.896
 30
0.0
 40
8.0
  1
3
 50
17.662056
  7
ROMANS
 72
     1
 11
961549.990028
 21
7304505.603837
 31
0.0
210
0.0
220
0.0
230
1.0
  0
TEXT
  8
0
  6
CONTINUOUS
 62
     7
  5
643
 10
961555.542
 20
7304507.104
 30
0.0
 40
8.0
  1
0
 50
14.866478
  7
ROMANS
 72
     1
 11
961558.104261
 21
7304507.78416
 31
0.0
210
0.0
220
0.0
230
1.0
  0
TEXT
  8
0
  6
CONTINUOUS
 62
     7
  5
644
 10
961563.355
 20
7304509.176
 30
0.0
 40
8.0
  1
1
 50
12.070897
  7
ROMANS
 72
     1
 11
961564.658527
 21
7304509.454759
 31
0.0
210
0.0
220
0.0
230
1.0
  0
TEXT
  8
0
  6
CONTINUOUS
 62
     7
  5
645
 10
961571.117
 20
7304510.836
 30
0.0
 40
8.0
  1
.
 50
12.070897
  7
ROMANS
 72
     1
 11
961572.40977
 21
7304511.112459
 31
0.0
210
0.0
220
0.0
230
1.0
  0
TEXT
  8
0
  6
CONTINUOUS
 62
     7
  5
646
 10
961579.047
 20
7304512.393
 30
0.0
 40
8.0
  1
1
 50
9.275319
  7
ROMANS
 72
     1
 11
961580.362571
 21
7304512.607851
 31
0.0
210
0.0
220
0.0
230
1.0
  0
TEXT
  8
0
  6
CONTINUOUS
 62
     7
  5
647
 10
961587.008
 20
7304513.81
 30
0.0
 40
8.0
  1
6
 50
6.479742
  7
ROMANS
 72
     1
 11
961589.511902
 21
7304514.094387
 31
0.0
210
0.0
220
0.0
230
1.0
  0
TEXT
  8
0
  6
CONTINUOUS
 62
     7
  5
648
 10
961594.895
 20
7304514.705
 30
0.0
 40
8.0
  1
'
 50
6.479742
  7
ROMANS
 72
     1
 11
961596.219485
 21
7304514.855432
 31
0.0
210
0.0
220
0.0
230
1.0
  0
TEXT
  8
0
  6
CONTINUOUS
 62
     7
  5
649
 10
961550.683
 20
7304491.132
 30
0.0
 40
8.0
  1
1
 50
17.662056
  7
ROMANS
 72
     1
 11
961549.525949
 21
7304499.159336
 31
0.0
210
0.0
220
0.0
230
1.0
 73
     3
  0
TEXT
  8
0
  6
CONTINUOUS
 62
     7
  5
64A
 10
961557.783
 20
7304493.215
 30
0.0
 40
8.0
  1
2
 50
14.866478
  7
ROMANS
 72
     1
 11
961557.985367
 21
7304501.545782
 31
0.0
210
0.0
220
0.0
230
1.0
 73
     3
  0
TEXT
  8
0
  6
CONTINUOUS
 62
     7
  5
64B
 10
961564.916
 20
7304495.194
 30
0.0
 40
8.0
  1
0
 50
12.070897
  7
ROMANS
 72
     1
 11
961565.83541
 21
7304503.571499
 31
0.0
210
0.0
220
0.0
230
1.0
 73
     3
  0
TEXT
  8
0
  6
CONTINUOUS
 62
     7
  5
64C
 10
961572.679
 20
7304496.854
 30
0.0
 40
8.0
  1
.
 50
12.070897
  7
ROMANS
 72
     1
 11
961572.298795
 21
7304504.953576
 31
0.0
210
0.0
220
0.0
230
1.0
 73
     3
  0
TEXT
  8
0
  6
CONTINUOUS
 62
     7
  5
64D
 10
961579.924
 20
7304498.35
 30
0.0
 40
8.0
  1
2
 50
9.275319
  7
ROMANS
 72
     1
 11
961580.937067
 21
7304506.621432
 31
0.0
210
0.0
220
0.0
230
1.0
 73
     3
  0
TEXT
  8
0
  6
CONTINUOUS
 62
     7
  5
64E
 10
961587.757
 20
7304499.63
 30
0.0
 40
8.0
  1
'
 50
9.275319
  7
ROMANS
 72
     1
 11
961587.783142
 21
7304507.740253
 31
0.0
210
0.0
220
0.0
230
1.0
 73
     3
  0
TEXT
  8
0
  6
CONTINUOUS
 62
     7
  5
64F
 10
961552.039
 20
7304465.412
 30
0.0
 40
8.0
  1
R
 50
23.358072
  7
ROMANS
 72
     1
 11
961551.180664
 21
7304473.75548
 31
0.0
210
0.0
220
0.0
230
1.0
 73
     3
  0
TEXT
  8
0
  6
CONTINUOUS
 62
     7
  5
650
 10
961559.326
 20
7304468.559
 30
0.0
 40
8.0
  1
=
 50
23.358072
  7
ROMANS
 72
     1
 11
961559.214034
 21
7304477.224815
 31
0.0
210
0.0
220
0.0
230
1.0
 73
     3
  0
TEXT
  8
0
  6
CONTINUOUS
 62
     7
  5
651
 10
961566.108
 20
7304471.244
 30
0.0
 40
8.0
  1
2
 50
20.032622
  7
ROMANS
 72
     1
 11
961565.559407
 21
7304479.559163
 31
0.0
210
0.0
220
0.0
230
1.0
 73
     3
  0
TEXT
  8
0
  6
CONTINUOUS
 62
     7
  5
652
 10
961572.979
 20
7304473.702
 30
0.0
 40
8.0
  1
8
 50
16.707175
  7
ROMANS
 72
     1
 11
961572.913672
 21
7304482.034984
 31
0.0
210
0.0
220
0.0
230
1.0
 73
     3
  0
TEXT
  8
0
  6
CONTINUOUS
 62
     7
  5
653
 10
961579.933
 20
7304475.931
 30
0.0
 40
8.0
  1
2
 50
13.381725
  7
ROMANS
 72
     1
 11
961580.351158
 21
7304484.253742
 31
0.0
210
0.0
220
0.0
230
1.0
 73
     3
  0
TEXT
  8
0
  6
CONTINUOUS
 62
     7
  5
654
 10
961587.656
 20
7304477.767
 30
0.0
 40
8.0
  1
.
 50
13.381725
  7
ROMANS
 72
     1
 11
961587.090606
 21
7304485.855759
 31
0.0
210
0.0
220
0.0
230
1.0
 73
     3
  0
TEXT
  8
0
  6
CONTINUOUS
 62
     7
  5
655
 10
961597.205
 20
7304479.818
 30
0.0
 40
8.0
  1
0
 50
8.465708
  7
ROMANS
 72
     1
 11
961598.649375
 21
7304488.121107
 31
0.0
210
0.0
220
0.0
230
1.0
 73
     3
  0
TEXT
  8
0
  6
CONTINUOUS
 62
     7
  5
656
 10
961605.054
 20
7304480.987
 30
0.0
 40
8.0
  1
7
 50
8.465708
  7
ROMANS
 72
     1
 11
961606.18384
 21
7304489.243292
 31
0.0
210
0.0
220
0.0
230
1.0
 73
     3
  0
TEXT
  8
0
  6
CONTINUOUS
 62
     7
  5
657
 10
961612.307
 20
7304481.78
 30
0.0
 40
8.0
  1
'
 50
5.140258
  7
ROMANS
 72
     1
 11
961612.917886
 21
7304489.867256
 31
0.0
210
0.0
220
0.0
230
1.0
 73
     3
  0
TEXT
  8
0
  6
CONTINUOUS
 62
     7
  5
658
 10
961553.959
 20
7304481.492
 30
0.0
 40
8.0
  1
8
 50
23.358072
  7
ROMANS
 72
     1
 11
961556.100799
 21
7304482.416979
 31
0.0
210
0.0
220
0.0
230
1.0
  0
TEXT
  8
0
  6
CONTINUOUS
 62
     7
  5
659
 10
961561.501
 20
7304484.466
 30
0.0
 40
8.0
  1
3
 50
20.032622
  7
ROMANS
 72
     1
 11
961563.692848
 21
7304485.265181
 31
0.0
210
0.0
220
0.0
230
1.0
  0
TEXT
  8
0
  6
CONTINUOUS
 62
     7
  5
65A
 10
961569.148
 20
7304487.169
 30
0.0
 40
8.0
  1
.
 50
16.707175
  7
ROMANS
 72
     1
 11
961570.414194
 21
7304487.549049
 31
0.0
210
0.0
220
0.0
230
1.0
  0
TEXT
  8
0
  6
CONTINUOUS
 62
     7
  5
65B
 10
961576.89
 20
7304489.596
 30
0.0
 40
8.0
  1
7
 50
13.381725
  7
ROMANS
 72
     1
 11
961579.159658
 21
7304490.135944
 31
0.0
210
0.0
220
0.0
230
1.0
  0
TEXT
  8
0
  6
CONTINUOUS
 62
     7
  5
65C
 10
961584.611
 20
7304491.434
 30
0.0
 40
8.0
  1
8
 50
13.381725
  7
ROMANS
 72
     1
 11
961586.880658
 21
7304491.973944
 31
0.0
210
0.0
220
0.0
230
1.0
  0
TEXT
  8
0
  6
CONTINUOUS
 62
     7
  5
65D
 10
961592.486
 20
7304493.17
 30
0.0
 40
8.0
  1
'
 50
10.923717
  7
ROMANS
 72
     1
 11
961593.794847
 21
7304493.422606
 31
0.0
210
0.0
220
0.0
230
1.0
  0
TEXT
  8
0
  6
CONTINUOUS
 62
     7
  5
65E
 10
961237.243
 20
7304508.791
 30
0.0
 40
8.0
  1
8
 50
354.1487
  7
ROMANS
 72
     1
 11
961239.563845
 21
7304508.553158
 31
0.0
210
0.0
220
0.0
230
1.0
  0
TEXT
  8
0
  6
CONTINUOUS
 62
     7
  5
65F
 10
961245.139
 20
7304507.981
 30
0.0
 40
8.0
  1
3
 50
354.1487
  7
ROMANS
 72
     1
 11
961247.459845
 21
7304507.743158
 31
0.0
210
0.0
220
0.0
230
1.0
  0
TEXT
  8
0
  6
CONTINUOUS
 62
     7
  5
660
 10
961253.166
 20
7304507.074
 30
0.0
 40
8.0
  1
.
 50
351.419464
  7
ROMANS
 72
     1
 11
961254.473203
 21
7304506.876758
 31
0.0
210
0.0
220
0.0
230
1.0
  0
TEXT
  8
0
  6
CONTINUOUS
 62
     7
  5
661
 10
961261.014
 20
7304505.89
 30
0.0
 40
8.0
  1
7
 50
351.419464
  7
ROMANS
 72
     1
 11
961263.320887
 21
7304505.541918
 31
0.0
210
0.0
220
0.0
230
1.0
  0
TEXT
  8
0
  6
CONTINUOUS
 62
     7
  5
662
 10
961268.948
 20
7304504.53
 30
0.0
 40
8.0
  1
8
 50
349.228475
  7
ROMANS
 72
     1
 11
961271.239893
 21
7304504.093978
 31
0.0
210
0.0
220
0.0
230
1.0
  0
LINE
  8
0
  6
DASHDOT
 62
     7
  5
663
 10
963837.996
 20
7299175.987
 30
0.0
 11
963857.71
 21
7299800.676
 31
0.0
  0
LINE
  8
0
  6
DASHDOT
 62
     7
  5
664
 10
963918.759
 20
7301787.555
 30
0.0
 11
963980.319
 21
7303738.291
 31
0.0
  0
LINE
  8
0
  6
DASHDOT
 62
     7
  5
665
 10
963819.787
 20
7301789.976
 30
0.0
 11
963881.447
 21
7303743.889
 31
0.0
  0
LINE
  8
0
  6
DASHDOT
 62
     7
  5
666
 10
963739.045
 20
7299179.109
 30
0.0
 11
963758.759
 21
7299803.798
 31
0.0
  0
TEXT
  8
0
  6
CONTINUOUS
 62
   230
  5
667
 10
963799.934
 20
7299481.094
 30
0.0
 40
8.0
  1
99' CRMWA R.O.W.
 50
88.1925
  7
ROMANS
210
0.0
220
0.0
230
1.0
  0
TEXT
  8
0
  6
CONTINUOUS
 62
   230
  5
668
 10
963877.589
 20
7301905.364
 30
0.0
 40
8.0
  1
99' CRMWA R.O.W.
 50
88.1925
  7
ROMANS
210
0.0
220
0.0
230
1.0
  0
TEXT
  8
0
  6
CONTINUOUS
 62
   230
  5
669
 10
963969.171
 20
7304151.529
 30
0.0
 40
8.0
  1
99' CRMWA R.O.W.
 50
88.1925
  7
ROMANS
210
0.0
220
0.0
230
1.0
  0
TEXT
  8
0
  6
CONTINUOUS
 62
   230
  5
66A
 10
963870.431
 20
7299518.593
 30
0.0
 40
8.0
  1
81.22'
 50
358.1925
  7
ROMANS
210
0.0
220
0.0
230
1.0
  0
INSERT
  8
0
  6
CONTINUOUS
 62
   230
  5
674
  2
*D16
 10
963848.206
 20
7299523.341
 30
0.0
 70
     0
 71
     0
  0
INSERT
  8
0
  6
CONTINUOUS
 62
   230
  5
67E
  2
*D17
 10
963927.15
 20
7299520.85
 30
0.0
 70
     0
 71
     0
  0
TEXT
  8
0
  6
CONTINUOUS
 62
   230
  5
67F
 10
963947.504
 20
7301960.907
 30
0.0
 40
8.0
  1
82.87'
 50
358.1925
  7
ROMANS
210
0.0
220
0.0
230
1.0
  0
INSERT
  8
0
  6
CONTINUOUS
 62
   230
  5
689
  2
*D18
 10
963925.279
 20
7301965.656
 30
0.0
 70
     0
 71
     0
  0
INSERT
  8
0
  6
CONTINUOUS
 62
   230
  5
693
  2
*D19
 10
964004.223
 20
7301963.164
 30
0.0
 70
     0
 71
     0
  0
TEXT
  8
0
  6
CONTINUOUS
 62
   230
  5
694
 10
963999.539
 20
7303609.832
 30
0.0
 40
8.0
  1
82.87'
 50
358.1925
  7
ROMANS
210
0.0
220
0.0
230
1.0
  0
INSERT
  8
0
  6
CONTINUOUS
 62
   230
  5
69E
  2
*D20
 10
963981.232
 20
7303614.457
 30
0.0
 70
     0
 71
     0
  0
INSERT
  8
0
  6
CONTINUOUS
 62
   230
  5
6A8
  2
*D21
 10
964056.259
 20
7303612.089
 30
0.0
 70
     0
 71
     0
  0
LINE
  8
0
  6
DASHDOT
 62
     7
  5
6A9
 10
963754.666
 20
7301256.903
 30
0.0
 11
963756.765
 21
7301323.425
 31
0.0
  0
ARC
  8
0
  6
DASHDOT
 62
     7
  5
6AA
 10
964107.091262
 20
7301312.391219
 30
0.0
 40
350.5
 50
144.196217
 51
178.195533
210
0.0
220
0.0
230
1.0
  0
ARC
  8
0
  6
DASHDOT
 62
     7
  5
6AB
 10
963469.333907
 20
7301795.737248
 30
0.0
 40
449.5
 50
324.193183
 51
358.956875
210
0.0
220
0.0
230
1.0
  0
LINE
  8
0
  6
DASHDOT
 62
     7
  5
6AC
 10
963653.271
 20
7301182.58
 30
0.0
 11
963657.815
 21
7301326.548
 31
0.0
  0
ARC
  8
0
  6
DASHDOT
 62
     7
  5
6AD
 10
964107.091262
 20
7301312.391219
 30
0.0
 40
449.5
 50
144.196217
 51
178.195533
210
0.0
220
0.0
230
1.0
  0
ARC
  8
0
  6
DASHDOT
 62
     7
  5
6AE
 10
963469.333907
 20
7301795.737248
 30
0.0
 40
350.5
 50
324.193183
 51
359.058122
210
0.0
220
0.0
230
1.0
  0
LINE
  8
0
  6
DASHDOT
 62
     7
  5
6AF
 10
963833.875
 20
7301532.755
 30
0.0
 11
963822.827
 21
7301517.438
 31
0.0
  0
LINE
  8
0
  6
DASHDOT
 62
     7
  5
6B0
 10
963753.587
 20
7301590.675
 30
0.0
 11
963741.616
 21
7301574.074
 31
0.0
  0
LINE
  8
0
  6
DASHDOT
 62
     7
  5
6B1
 10
964038.598
 20
7304449.8
 30
0.0
 11
963980.319
 21
7303738.291
 31
0.0
  0
LINE
  8
0
  6
DASHDOT
 62
     7
  5
6B2
 10
963939.928
 20
7304457.882
 30
0.0
 11
963881.447
 21
7303743.889
 31
0.0
  0
POLYLINE
  8
1
  6
HIDDEN
 62
   253
  5
6B4
 66
     1
 10
0.0
 20
0.0
 30
0.0
 70
     1
  0
VERTEX
  8
1
  6
HIDDEN
 62
   253
  5
6B5
 10
963937.96
 20
7299295.0
 30
0.0
  0
VERTEX
  8
1
  6
HIDDEN
 62
   253
  5
6B6
 10
958646.192
 20
7299438.056
 30
0.0
  0
VERTEX
  8
1
  6
HIDDEN
 62
   253
  5
6B7
 10
958790.272
 20
7304667.735
 30
0.0
  0
VERTEX
  8
1
  6
HIDDEN
 62
   253
  5
6B8
 10
964078.924
 20
7304524.732
 30
0.0
  0
SEQEND
  8
1
  6
HIDDEN
 62
   253
  5
6B9
  0
LINE
  8
0
  6
HIDDEN
 62
   253
  5
6BA
 10
958715.593
 20
7301486.203
 30
0.0
 11
958709.538
 21
7301486.394
 31
0.0
  0
TEXT
  8
19
  6
CONTINUOUS
 62
     1
  5
6BC
 10
959806.873
 20
7299307.057
 30
0.0
 40
24.0
  1
BLUEFIELD ST
 50
358.1925
  7
ROMANC
 72
     4
 11
959955.703599
 21
7299314.366283
 31
0.0
210
0.0
220
0.0
230
1.0
  0
TEXT
  8
19
  6
CONTINUOUS
 62
     1
  5
6BD
 10
963129.544
 20
7299210.66
 30
0.0
 40
24.0
  1
BLUEFIELD ST
 50
358.1925
  7
ROMANC
 72
     4
 11
963278.374599
 21
7299217.969283
 31
0.0
210
0.0
220
0.0
230
1.0
  0
TEXT
  8
19
  6
CONTINUOUS
 62
     1
  5
6BE
 10
961618.313
 20
7299248.539
 30
0.0
 40
24.0
  1
BLUEFIELD ST
 50
358.1925
  7
ROMANC
 72
     4
 11
961767.143599
 21
7299255.848283
 31
0.0
210
0.0
220
0.0
230
1.0
  0
TEXT
  8
19
  6
CONTINUOUS
 62
     1
  5
6BF
 10
961255.127
 20
7300694.54
 30
0.0
 40
24.0
  1
ZENITH AVE
 50
88.1925
  7
ROMANC
 72
     4
 11
961247.174017
 21
7300822.972753
 31
0.0
210
0.0
220
0.0
230
1.0
  0
TEXT
  8
19
  6
CONTINUOUS
 62
     1
  5
6C0
 10
960266.811
 20
7299394.964
 30
0.0
 40
24.0
  1
WALNUT AVE
 50
88.1925
  7
ROMANC
 72
     4
 11
960259.096408
 21
7299530.950992
 31
0.0
210
0.0
220
0.0
230
1.0
  0
TEXT
  8
19
  6
CONTINUOUS
 62
     1
  5
6C1
 10
960628.69
 20
7299852.08
 30
0.0
 40
24.0
  1
DUBUQUE ST
 50
358.1925
  7
ROMANC
 72
     4
 11
960761.655496
 21
7299859.889942
 31
0.0
210
0.0
220
0.0
230
1.0
  0
TEXT
  8
19
  6
CONTINUOUS
 62
     1
  5
6C2
 10
960642.929
 20
7300509.18
 30
0.0
 40
24.0
  1
FOOTHILL ST
 50
358.1925
  7
ROMANC
 72
     4
 11
960775.894496
 21
7300516.989942
 31
0.0
210
0.0
220
0.0
230
1.0
  0
TEXT
  8
19
  6
CONTINUOUS
 62
     1
  5
6C3
 10
961235.007
 20
7300011.266
 30
0.0
 40
24.0
  1
ZENITH AVE
 50
88.1925
  7
ROMANC
 72
     4
 11
961227.054017
 21
7300139.698753
 31
0.0
210
0.0
220
0.0
230
1.0
  0
TEXT
  8
19
  6
CONTINUOUS
 62
     1
  5
6C4
 10
962324.68
 20
7300459.014
 30
0.0
 40
24.0
  1
FOOTHILL ST
 50
358.1925
  7
ROMANC
 72
     4
 11
962457.645496
 21
7300466.823942
 31
0.0
210
0.0
220
0.0
230
1.0
  0
TEXT
  8
19
  6
CONTINUOUS
 62
     1
  5
6C5
 10
962853.004
 20
7300103.656
 30
0.0
 40
24.0
  1
DAVID AVE
 50
88.1925
  7
ROMANC
 72
     4
 11
962844.621862
 21
7300218.489523
 31
0.0
210
0.0
220
0.0
230
1.0
  0
TEXT
  8
19
  6
CONTINUOUS
 62
     1
  5
6C6
 10
961992.703
 20
7300006.768
 30
0.0
 40
24.0
  1
BEECH AVE
 50
88.1925
  7
ROMANC
 72
     4
 11
961984.499703
 21
7300127.268701
 31
0.0
210
0.0
220
0.0
230
1.0
  0
TEXT
  8
19
  6
CONTINUOUS
 62
     1
  5
6C7
 10
962198.379
 20
7299799.574
 30
0.0
 40
24.0
  1
DUBUQUE ST
 50
358.1925
  7
ROMANC
 72
     4
 11
962331.344496
 21
7299807.383942
 31
0.0
210
0.0
220
0.0
230
1.0
  0
TEXT
  8
19
  6
CONTINUOUS
 62
     1
  5
6C8
 10
963900.103
 20
7299326.386
 30
0.0
 40
24.0
  1
N GUAVE AVE
 50
88.1925
  7
ROMANC
 72
     4
 11
963892.865254
 21
7299477.48347
 31
0.0
210
0.0
220
0.0
230
1.0
  0
TEXT
  8
19
  6
CONTINUOUS
 62
     1
  5
6C9
 10
960343.011
 20
7301818.682
 30
0.0
 40
24.0
  1
WALNUT AVE
 50
88.1925
  7
ROMANC
 72
     4
 11
960335.296408
 21
7301954.668992
 31
0.0
210
0.0
220
0.0
230
1.0
  0
TEXT
  8
19
  6
CONTINUOUS
 62
     1
  5
6CA
 10
960755.878
 20
7301470.285
 30
0.0
 40
24.0
  1
INDEPENDENCE ST
 50
358.1925
  7
ROMANC
 72
     4
 11
960947.204444
 21
7301476.253229
 31
0.0
210
0.0
220
0.0
230
1.0
  0
TEXT
  8
19
  6
CONTINUOUS
 62
     1
  5
6CB
 10
962087.431
 20
7301425.612
 30
0.0
 40
24.0
  1
INDEPENDENCE ST
 50
358.1925
  7
ROMANC
 72
     4
 11
962278.757444
 21
7301431.580229
 31
0.0
210
0.0
220
0.0
230
1.0
  0
TEXT
  8
19
  6
CONTINUOUS
 62
     1
  5
6CC
 10
962889.86
 20
7301089.958
 30
0.0
 40
24.0
  1
DAVID AVE
 50
88.1925
  7
ROMANC
 72
     4
 11
962881.477862
 21
7301204.791523
 31
0.0
210
0.0
220
0.0
230
1.0
  0
TEXT
  8
19
  6
CONTINUOUS
 62
     1
  5
6CD
 10
961784.054
 20
7300695.829
 30
0.0
 40
24.0
  1
ASPEN AVE
 50
88.1925
  7
ROMANC
 72
     4
 11
961775.832787
 21
7300815.761984
 31
0.0
210
0.0
220
0.0
230
1.0
  0
TEXT
  8
19
  6
CONTINUOUS
 62
     1
  5
6CE
 10
960307.566
 20
7300699.958
 30
0.0
 40
24.0
  1
WALNUT AVE
 50
88.1925
  7
ROMANC
 72
     4
 11
960299.851408
 21
7300835.944992
 31
0.0
210
0.0
220
0.0
230
1.0
  0
TEXT
  8
19
  6
CONTINUOUS
 62
     1
  5
6CF
 10
964040.729
 20
7303632.667
 30
0.0
 40
24.0
  1
N GUAVE AVE
 50
88.1925
  7
ROMANC
 72
     4
 11
964033.491254
 21
7303783.76447
 31
0.0
210
0.0
220
0.0
230
1.0
  0
TEXT
  8
19
  6
CONTINUOUS
 62
     1
  5
6D0
 10
958754.788
 20
7300534.73
 30
0.0
 40
24.0
  1
N MARTIN LUTHER KING, JR BLVD
 50
88.1925
  7
ROMANC
 72
     4
 11
958754.464171
 21
7300904.918405
 31
0.0
210
0.0
220
0.0
230
1.0
  0
TEXT
  8
19
  6
CONTINUOUS
 62
     1
  5
6D1
 10
958815.816
 20
7303802.56
 30
0.0
 40
24.0
  1
N. MARTIN LUTHER KING, JR. BLVD.
 50
88.1925
  7
ROMANC
 72
     4
 11
958815.536897
 21
7304174.165699
 31
0.0
210
0.0
220
0.0
230
1.0
  0
TEXT
  8
19
  6
CONTINUOUS
 62
     1
  5
6D2
 10
959000.194
 20
7304544.65
 30
0.0
 40
24.0
  1
EAST STONEHILL ST
 50
358.1925
  7
ROMANC
 72
     4
 11
959210.785853
 21
7304550.010264
 31
0.0
210
0.0
220
0.0
230
1.0
  0
TEXT
  8
19
  6
CONTINUOUS
 62
     1
  5
6D3
 10
963460.434
 20
7304402.552
 30
0.0
 40
24.0
  1
E STONEHILL ST
 50
358.1925
  7
ROMANC
 72
     4
 11
963633.062752
 21
7304409.110277
 31
0.0
210
0.0
220
0.0
230
1.0
  0
POLYLINE
  8
58
  6
DIVIDE
 62
   216
  5
6D5
 66
     1
 10
0.0
 20
0.0
 30
0.0
  0
VERTEX
  8
58
  6
DIVIDE
 62
   216
  5
6D6
 10
963935.481
 20
7299202.925
 30
0.0
  0
VERTEX
  8
58
  6
DIVIDE
 62
   216
  5
6D7
 10
959002.57
 20
7299358.594
 30
0.0
  0
VERTEX
  8
58
  6
DIVIDE
 62
   216
  5
6D8
 10
959136.306
 20
7303596.485
 30
0.0
  0
VERTEX
  8
58
  6
DIVIDE
 62
   216
  5
6D9
 10
963523.123
 20
7303458.049
 30
0.0
  0
VERTEX
  8
58
  6
DIVIDE
 62
   216
  5
6DA
 10
963407.933
 20
7299807.866
 30
0.0
  0
VERTEX
  8
58
  6
DIVIDE
 62
   216
  5
6DB
 10
963908.683
 20
7299792.064
 30
0.0
  0
VERTEX
  8
58
  6
DIVIDE
 62
   216
  5
6DC
 10
963994.111
 20
7302499.116
 30
0.0
  0
SEQEND
  8
58
  6
DIVIDE
 62
   216
  5
6DD
  0
LINE
  8
58
  6
DIVIDE
 62
   216
  5
6DE
 10
964024.096
 20
7302498.17
 30
0.0
 11
963994.111
 21
7302499.116
 31
0.0
  0
LINE
  8
58
  6
DIVIDE
 62
   216
  5
6DF
 10
964084.769
 20
7304420.813
 30
0.0
 11
958807.396
 21
7304587.352
 31
0.0
  0
ENDSEC
  0
EOF
