  0
SECTION
  2
HEADER
  9
$ACADVER
  1
AC1009
  9
$INSBASE
 10
0.0
 20
0.0
 30
0.0
  9
$EXTMIN
 10
953373.736
 20
7299340.105
 30
0.0
  9
$EXTMAX
 10
2944107.56
 20
9346560.999
 30
0.0
  9
$LIMMIN
 10
0.0
 20
0.0
  9
$LIMMAX
 10
12.0
 20
9.0
  9
$ORTHOMODE
 70
     0
  9
$REGENMODE
 70
     1
  9
$FILLMODE
 70
     1
  9
$QTEXTMODE
 70
     0
  9
$MIRRTEXT
 70
     1
  9
$DRAGMODE
 70
     2
  9
$LTSCALE
 40
1.0
  9
$OSMODE
 70
     0
  9
$ATTMODE
 70
     1
  9
$TEXTSIZE
 40
0.2
  9
$TRACEWID
 40
0.05
  9
$TEXTSTYLE
  7
STANDARD
  9
$CLAYER
  8
0
  9
$CELTYPE
  6
CONTINUOUS
  9
$CECOLOR
 62
   256
  9
$DIMSCALE
 40
1.0
  9
$DIMASZ
 40
0.18
  9
$DIMEXO
 40
0.0625
  9
$DIMDLI
 40
0.38
  9
$DIMRND
 40
0.0
  9
$DIMDLE
 40
0.0
  9
$DIMEXE
 40
0.18
  9
$DIMTP
 40
0.0
  9
$DIMTM
 40
0.0
  9
$DIMTXT
 40
0.18
  9
$DIMCEN
 40
0.09
  9
$DIMTSZ
 40
0.0
  9
$DIMTOL
 70
     0
  9
$DIMLIM
 70
     0
  9
$DIMTIH
 70
     1
  9
$DIMTOH
 70
     1
  9
$DIMSE1
 70
     0
  9
$DIMSE2
 70
     0
  9
$DIMTAD
 70
     0
  9
$DIMZIN
 70
     0
  9
$DIMBLK
  1

  9
$DIMASO
 70
     1
  9
$DIMSHO
 70
     1
  9
$DIMPOST
  1

  9
$DIMAPOST
  1

  9
$DIMALT
 70
     0
  9
$DIMALTD
 70
     2
  9
$DIMALTF
 40
25.4
  9
$DIMLFAC
 40
1.0
  9
$DIMTOFL
 70
     0
  9
$DIMTVP
 40
0.0
  9
$DIMTIX
 70
     0
  9
$DIMSOXD
 70
     0
  9
$DIMSAH
 70
     0
  9
$DIMBLK1
  1

  9
$DIMBLK2
  1

  9
$DIMSTYLE
  2
STANDARD
  9
$DIMCLRD
 70
     0
  9
$DIMCLRE
 70
     0
  9
$DIMCLRT
 70
     0
  9
$DIMTFAC
 40
1.0
  9
$DIMGAP
 40
0.09
  9
$LUNITS
 70
     2
  9
$LUPREC
 70
     4
  9
$AXISMODE
 70
     0
  9
$AXISUNIT
 10
0.0
 20
0.0
  9
$SKETCHINC
 40
0.1
  9
$FILLETRAD
 40
0.0
  9
$AUNITS
 70
     0
  9
$AUPREC
 70
     0
  9
$MENU
  1
acad
  9
$ELEVATION
 40
0.0
  9
$PELEVATION
 40
0.0
  9
$THICKNESS
 40
0.0
  9
$LIMCHECK
 70
     0
  9
$BLIPMODE
 70
     1
  9
$CHAMFERA
 40
0.0
  9
$CHAMFERB
 40
0.0
  9
$SKPOLY
 70
     0
  9
$TDCREATE
 40
2453013.903182870
  9
$TDUPDATE
 40
2453013.903182870
  9
$TDINDWG
 40
0.0000000000
  9
$TDUSRTIMER
 40
0.0000000000
  9
$USRTIMER
 70
     1
  9
$ANGBASE
 50
0.0
  9
$ANGDIR
 70
     0
  9
$PDMODE
 70
     0
  9
$PDSIZE
 40
0.0
  9
$PLINEWID
 40
0.0
  9
$COORDS
 70
     0
  9
$SPLFRAME
 70
     0
  9
$SPLINETYPE
 70
     6
  9
$SPLINESEGS
 70
    10
  9
$ATTDIA
 70
     0
  9
$ATTREQ
 70
     1
  9
$HANDLING
 70
     1
  9
$HANDSEED
  5
7FC
  9
$SURFTAB1
 70
     6
  9
$SURFTAB2
 70
     6
  9
$SURFTYPE
 70
     6
  9
$SURFU
 70
     6
  9
$SURFV
 70
     6
  9
$UCSNAME
  2

  9
$UCSORG
 10
0.0
 20
0.0
 30
0.0
  9
$UCSXDIR
 10
1.0
 20
0.0
 30
0.0
  9
$UCSYDIR
 10
0.0
 20
1.0
 30
0.0
  9
$PUCSNAME
  2

  9
$PUCSORG
 10
0.0
 20
0.0
 30
0.0
  9
$PUCSXDIR
 10
1.0
 20
0.0
 30
0.0
  9
$PUCSYDIR
 10
0.0
 20
1.0
 30
0.0
  9
$USERI1
 70
     0
  9
$USERI2
 70
     0
  9
$USERI3
 70
     0
  9
$USERI4
 70
     0
  9
$USERI5
 70
     0
  9
$USERR1
 40
0.0
  9
$USERR2
 40
0.0
  9
$USERR3
 40
0.0
  9
$USERR4
 40
0.0
  9
$USERR5
 40
0.0
  9
$WORLDVIEW
 70
     1
  9
$SHADEDGE
 70
     3
  9
$SHADEDIF
 70
    70
  9
$TILEMODE
 70
     1
  9
$MAXACTVP
 70
    16
  9
$PINSBASE
 10
0.0
 20
0.0
 30
0.0
  9
$PLIMCHECK
 70
     0
  9
$PEXTMIN
 10
-1.000000E+20
 20
-1.000000E+20
 30
-1.000000E+20
  9
$PEXTMAX
 10
-1.000000E+20
 20
-1.000000E+20
 30
-1.000000E+20
  9
$PLIMMIN
 10
0.0
 20
0.0
  9
$PLIMMAX
 10
12.0
 20
9.0
  9
$UNITMODE
 70
     0
  9
$VISRETAIN
 70
     0
  9
$PLINEGEN
 70
     1
  9
$PSLTSCALE
 70
     0
  9
$TREEDEPTH
 70
  3020
  9
$DWGCODEPAGE
  3
ansi_1252
  0
ENDSEC
  0
SECTION
  2
TABLES
  0
TABLE
  2
VPORT
 70
     1
  0
VPORT
  2
*ACTIVE
 70
     0
 10
0.0
 20
0.0
 11
1.0
 21
1.0
 12
0.0
 22
0.0
 13
0.0
 23
0.0
 14
0.0
 24
0.0
 15
0.0
 25
0.0
 16
0.0
 26
0.0
 36
1.0
 17
955850.792362
 27
7301973.157
 37
0.0
 40
5402.73
 41
1.223922
 42
50.0
 43
0.004
 44
0.0
 50
0.0
 51
0.0
 71
     0
 72
   100
 73
     1
 74
     0
 75
     0
 76
     0
 77
     0
 78
     0
  0
ENDTAB
  0
TABLE
  2
LTYPE
 70
     7
  0
LTYPE
  2
CONTINUOUS
 70
     0
  3
Solid line
 72
    65
 73
     0
 40
0.0
  0
LTYPE
  2
DOT
 70
    64
  3
. . . . . . . . . . . . . . . . . . . . . . . . . . . . . . . . .
 72
    65
 73
     2
 40
0.25
 49
0.0
 49
-0.25
  0
LTYPE
  2
HIDDEN
 70
    64
  3
__ __ __ __ __ __ __ __ __ __ __ __ __ __ __ __ __ __ __ __ __ 
 72
    65
 73
     2
 40
0.375
 49
0.25
 49
-0.125
  0
LTYPE
  2
DASHED
 70
    64
  3
__ __ __ __ __ __ __ __ __ __ __ __ __ __ __ __ __ __ __ __ __
 72
    65
 73
     2
 40
0.75
 49
0.5
 49
-0.25
  0
LTYPE
  2
DASHDOT
 70
    64
  3
__ . __ . __ . __ . __ . __ . __ . __ . __ . __ . __ . __ . _
 72
    65
 73
     4
 40
1.0
 49
0.5
 49
-0.25
 49
0.0
 49
-0.25
  0
LTYPE
  2
DIVIDE
 70
    64
  3
____ . . ____ . . ____ . . ____ . . ____ . . ____ . . ____ . .
 72
    65
 73
     6
 40
1.25
 49
0.5
 49
-0.25
 49
0.0
 49
-0.25
 49
0.0
 49
-0.25
  0
LTYPE
  2
CENTER
 70
    64
  3
____ _ ____ _ ____ _ ____ _ ____ _ ____ _ ____ _ ____ _ ____ _
 72
    65
 73
     4
 40
2.0
 49
1.25
 49
-0.25
 49
0.25
 49
-0.25
  0
ENDTAB
  0
TABLE
  2
LAYER
 70
     8
  0
LAYER
  2
0
 70
    64
 62
     7
  6
CONTINUOUS
  0
LAYER
  2
CONSTRUCTION_CLASS
 70
     1
 62
     7
  6
CONTINUOUS
  0
LAYER
  2
PATTERN_CLASS
 70
     0
 62
     7
  6
CONTINUOUS
  0
LAYER
  2
6
 70
    64
 62
     7
  6
CONTINUOUS
  0
LAYER
  2
DEFPOINTS
 70
    64
 62
     7
  6
CONTINUOUS
  0
LAYER
  2
19
 70
    64
 62
     7
  6
CONTINUOUS
  0
LAYER
  2
1
 70
    64
 62
     7
  6
CONTINUOUS
  0
LAYER
  2
58
 70
    64
 62
     7
  6
CONTINUOUS
  0
ENDTAB
  0
TABLE
  2
STYLE
 70
     4
  0
STYLE
  2
STANDARD
 70
     0
 40
0.0
 41
1.0
 50
0.0
 71
     0
 42
0.0
  3
txt
  4

  0
STYLE
  2
MONOTXT
 70
     0
 40
0.2
 41
1.0
 50
0.0
 71
     0
 42
0.2
  3
MONOTXT
  4

  0
STYLE
  2
ROMANS
 70
     0
 40
0.2
 41
1.0
 50
0.0
 71
     0
 42
0.2
  3
ROMANS
  4

  0
STYLE
  2
ROMANC
 70
     0
 40
0.2
 41
1.0
 50
0.0
 71
     0
 42
0.2
  3
ROMANC
  4

  0
ENDTAB
  0
TABLE
  2
VIEW
 70
     0
  0
ENDTAB
  0
TABLE
  2
UCS
 70
     0
  0
ENDTAB
  0
TABLE
  2
APPID
 70
     1
  0
APPID
  2
ACAD
 70
     0
  0
ENDTAB
  0
TABLE
  2
DIMSTYLE
 70
     2
  0
DIMSTYLE
  2
STANDARD
 70
     0
  3

  4

  5

  6

  7

 40
1.0
 41
0.18
 42
0.0625
 43
0.38
 44
0.18
 45
0.0
 46
0.0
 47
0.0
 48
0.0
140
0.18
141
0.09
142
0.0
143
25.4
144
1.0
145
0.0
146
1.0
147
0.09
 71
     0
 72
     0
 73
     1
 74
     1
 75
     0
 76
     0
 77
     0
 78
     0
170
     0
171
     2
172
     0
173
     0
174
     0
175
     0
176
     0
177
     0
178
     0
  0
DIMSTYLE
  2
MSADIM
 70
     0
  3

  4

  5

  6

  7

 40
1.0
 41
8.0
 42
4.0
 43
0.0
 44
4.0
 45
0.0
 46
0.0
 47
0.0
 48
0.0
140
8.0
141
4.0
142
0.0
143
25.4
144
1.0
145
4.0
146
1.0
147
4.0
 71
     0
 72
     0
 73
     1
 74
     1
 75
     1
 76
     1
 77
     0
 78
     2
170
     0
171
     2
172
     0
173
     1
174
     0
175
     0
176
     0
177
     0
178
     0
  0
ENDTAB
  0
ENDSEC
  0
SECTION
  2
BLOCKS
  0
BLOCK
  8
0
  6
CONTINUOUS
 62
     7
  5
406
  2
*M0
 70
     1
 10
0.0
 20
0.0
 30
0.0
  3
*M0
  0
LINE
  8
0
  6
CONTINUOUS
 62
     7
  5
407
 10
-3380.543
 20
-922.986
 30
0.0
 11
-3376.229
 21
-927.56
 31
0.0
  0
LINE
  8
0
  6
CONTINUOUS
 62
     7
  5
408
 10
-3378.908
 20
-923.034
 30
0.0
 11
-3376.181
 21
-925.925
 31
0.0
  0
LINE
  8
0
  6
CONTINUOUS
 62
     7
  5
409
 10
-3377.597
 20
-922.74
 30
0.0
 11
-3376.133
 21
-924.29
 31
0.0
  0
LINE
  8
0
  6
CONTINUOUS
 62
     7
  5
40A
 10
-3380.876
 20
-924.318
 30
0.0
 11
-3376.277
 21
-929.194
 31
0.0
  0
LINE
  8
0
  6
CONTINUOUS
 62
     7
  5
40B
 10
-3380.924
 20
-925.953
 30
0.0
 11
-3377.612
 21
-929.462
 31
0.0
  0
LINE
  8
0
  6
CONTINUOUS
 62
     7
  5
40C
 10
-3380.972
 20
-927.587
 30
0.0
 11
-3379.532
 21
-929.114
 31
0.0
  0
LINE
  8
0
  6
CONTINUOUS
 62
     7
  5
40D
 10
-3380.844
 20
-923.228
 30
0.0
 11
-3376.245
 21
-928.104
 31
0.0
  0
LINE
  8
0
  6
CONTINUOUS
 62
     7
  5
40E
 10
-3379.454
 20
-923.018
 30
0.0
 11
-3376.197
 21
-926.469
 31
0.0
  0
LINE
  8
0
  6
CONTINUOUS
 62
     7
  5
40F
 10
-3378.141
 20
-922.724
 30
0.0
 11
-3376.149
 21
-924.835
 31
0.0
  0
LINE
  8
0
  6
CONTINUOUS
 62
     7
  5
410
 10
-3376.506
 20
-922.772
 30
0.0
 11
-3376.101
 21
-923.201
 31
0.0
  0
LINE
  8
0
  6
CONTINUOUS
 62
     7
  5
411
 10
-3380.892
 20
-924.862
 30
0.0
 11
-3376.523
 21
-929.494
 31
0.0
  0
LINE
  8
0
  6
CONTINUOUS
 62
     7
  5
412
 10
-3380.94
 20
-926.497
 30
0.0
 11
-3378.157
 21
-929.446
 31
0.0
  0
LINE
  8
0
  6
CONTINUOUS
 62
     7
  5
413
 10
-3380.988
 20
-928.132
 30
0.0
 11
-3380.077
 21
-929.098
 31
0.0
  0
ENDBLK
  8
0
  6
CONTINUOUS
 62
     7
  5
414
  0
BLOCK
  8
0
  6
CONTINUOUS
 62
     7
  5
62E
  2
*D1
 70
     1
 10
0.0
 20
0.0
 30
0.0
  3
*N1
  0
POLYLINE
  8
0
  6
CONTINUOUS
 62
     7
  5
62F
 66
     1
 10
0.0
 20
0.0
 30
0.0
  0
VERTEX
  8
0
  6
CONTINUOUS
 62
     7
  5
630
 10
957856.78
 20
7303016.503
 30
0.0
  0
VERTEX
  8
0
  6
CONTINUOUS
 62
     7
  5
631
 10
957854.546
 20
7303008.565
 30
0.0
  0
VERTEX
  8
0
  6
CONTINUOUS
 62
     7
  5
632
 10
957852.782
 20
7303016.62
 30
0.0
  0
SEQEND
  8
0
  6
CONTINUOUS
 62
     7
  5
633
  0
LINE
  8
0
  6
CONTINUOUS
 62
     7
  5
634
 10
957854.546
 20
7303008.565
 30
0.0
 11
957858.291
 21
7303136.185
 31
0.0
  0
ENDBLK
  8
0
  6
CONTINUOUS
 62
     7
  5
635
  0
BLOCK
  8
0
  6
CONTINUOUS
 62
     7
  5
638
  2
*D2
 70
     1
 10
0.0
 20
0.0
 30
0.0
  3
*N2
  0
POLYLINE
  8
0
  6
CONTINUOUS
 62
     7
  5
639
 66
     1
 10
0.0
 20
0.0
 30
0.0
  0
VERTEX
  8
0
  6
CONTINUOUS
 62
     7
  5
63A
 10
957848.01
 20
7302925.372
 30
0.0
  0
VERTEX
  8
0
  6
CONTINUOUS
 62
     7
  5
63B
 10
957850.244
 20
7302933.31
 30
0.0
  0
VERTEX
  8
0
  6
CONTINUOUS
 62
     7
  5
63C
 10
957852.008
 20
7302925.255
 30
0.0
  0
SEQEND
  8
0
  6
CONTINUOUS
 62
     7
  5
63D
  0
LINE
  8
0
  6
CONTINUOUS
 62
     7
  5
63E
 10
957850.244
 20
7302933.31
 30
0.0
 11
957848.279
 21
7302866.362
 31
0.0
  0
ENDBLK
  8
0
  6
CONTINUOUS
 62
     7
  5
63F
  0
BLOCK
  8
0
  6
CONTINUOUS
 62
     7
  5
642
  2
*D3
 70
     1
 10
0.0
 20
0.0
 30
0.0
  3
*N3
  0
POLYLINE
  8
0
  6
CONTINUOUS
 62
     7
  5
643
 66
     1
 10
0.0
 20
0.0
 30
0.0
  0
VERTEX
  8
0
  6
CONTINUOUS
 62
     7
  5
644
 10
958118.062
 20
7303214.784
 30
0.0
  0
VERTEX
  8
0
  6
CONTINUOUS
 62
     7
  5
645
 10
958120.296
 20
7303222.722
 30
0.0
  0
VERTEX
  8
0
  6
CONTINUOUS
 62
     7
  5
646
 10
958122.06
 20
7303214.667
 30
0.0
  0
SEQEND
  8
0
  6
CONTINUOUS
 62
     7
  5
647
  0
LINE
  8
0
  6
CONTINUOUS
 62
     7
  5
648
 10
958120.296
 20
7303222.722
 30
0.0
 11
958116.55
 21
7303095.102
 31
0.0
  0
ENDBLK
  8
0
  6
CONTINUOUS
 62
     7
  5
649
  0
BLOCK
  8
0
  6
CONTINUOUS
 62
     7
  5
64C
  2
*D4
 70
     1
 10
0.0
 20
0.0
 30
0.0
  3
*N4
  0
POLYLINE
  8
0
  6
CONTINUOUS
 62
     7
  5
64D
 66
     1
 10
0.0
 20
0.0
 30
0.0
  0
VERTEX
  8
0
  6
CONTINUOUS
 62
     7
  5
64E
 10
958124.863
 20
7303310.161
 30
0.0
  0
VERTEX
  8
0
  6
CONTINUOUS
 62
     7
  5
64F
 10
958122.629
 20
7303302.223
 30
0.0
  0
VERTEX
  8
0
  6
CONTINUOUS
 62
     7
  5
650
 10
958120.865
 20
7303310.278
 30
0.0
  0
SEQEND
  8
0
  6
CONTINUOUS
 62
     7
  5
651
  0
LINE
  8
0
  6
CONTINUOUS
 62
     7
  5
652
 10
958122.629
 20
7303302.223
 30
0.0
 11
958124.103
 21
7303352.434
 31
0.0
  0
ENDBLK
  8
0
  6
CONTINUOUS
 62
     7
  5
653
  0
BLOCK
  8
0
  6
CONTINUOUS
 62
     7
  5
656
  2
*D5
 70
     1
 10
0.0
 20
0.0
 30
0.0
  3
*N5
  0
POLYLINE
  8
0
  6
CONTINUOUS
 62
     7
  5
657
 66
     1
 10
0.0
 20
0.0
 30
0.0
  0
VERTEX
  8
0
  6
CONTINUOUS
 62
     7
  5
658
 10
958425.62
 20
7303570.101
 30
0.0
  0
VERTEX
  8
0
  6
CONTINUOUS
 62
     7
  5
659
 10
958427.854
 20
7303578.039
 30
0.0
  0
VERTEX
  8
0
  6
CONTINUOUS
 62
     7
  5
65A
 10
958429.618
 20
7303569.984
 30
0.0
  0
SEQEND
  8
0
  6
CONTINUOUS
 62
     7
  5
65B
  0
LINE
  8
0
  6
CONTINUOUS
 62
     7
  5
65C
 10
958427.854
 20
7303578.039
 30
0.0
 11
958424.968
 21
7303479.709
 31
0.0
  0
ENDBLK
  8
0
  6
CONTINUOUS
 62
     7
  5
65D
  0
BLOCK
  8
0
  6
CONTINUOUS
 62
     7
  5
660
  2
*D6
 70
     1
 10
0.0
 20
0.0
 30
0.0
  3
*N6
  0
POLYLINE
  8
0
  6
CONTINUOUS
 62
     7
  5
661
 66
     1
 10
0.0
 20
0.0
 30
0.0
  0
VERTEX
  8
0
  6
CONTINUOUS
 62
     7
  5
662
 10
958420.57
 20
7303261.697
 30
0.0
  0
VERTEX
  8
0
  6
CONTINUOUS
 62
     7
  5
663
 10
958418.336
 20
7303253.759
 30
0.0
  0
VERTEX
  8
0
  6
CONTINUOUS
 62
     7
  5
664
 10
958416.572
 20
7303261.814
 30
0.0
  0
SEQEND
  8
0
  6
CONTINUOUS
 62
     7
  5
665
  0
LINE
  8
0
  6
CONTINUOUS
 62
     7
  5
666
 10
958418.336
 20
7303253.759
 30
0.0
 11
958423.617
 21
7303433.682
 31
0.0
  0
ENDBLK
  8
0
  6
CONTINUOUS
 62
     7
  5
667
  0
BLOCK
  8
0
  6
CONTINUOUS
 62
     7
  5
66A
  2
*D7
 70
     1
 10
0.0
 20
0.0
 30
0.0
  3
*N7
  0
POLYLINE
  8
0
  6
CONTINUOUS
 62
     7
  5
66B
 66
     1
 10
0.0
 20
0.0
 30
0.0
  0
VERTEX
  8
0
  6
CONTINUOUS
 62
     7
  5
66C
 10
958416.102
 20
7303245.821
 30
0.0
  0
VERTEX
  8
0
  6
CONTINUOUS
 62
     7
  5
66D
 10
958418.336
 20
7303253.759
 30
0.0
  0
VERTEX
  8
0
  6
CONTINUOUS
 62
     7
  5
66E
 10
958420.1
 20
7303245.704
 30
0.0
  0
SEQEND
  8
0
  6
CONTINUOUS
 62
     7
  5
66F
  0
LINE
  8
0
  6
CONTINUOUS
 62
     7
  5
670
 10
958418.336
 20
7303253.759
 30
0.0
 11
958414.407
 21
7303119.863
 31
0.0
  0
ENDBLK
  8
0
  6
CONTINUOUS
 62
     7
  5
671
  0
BLOCK
  8
0
  6
CONTINUOUS
 62
     7
  5
674
  2
*D8
 70
     1
 10
0.0
 20
0.0
 30
0.0
  3
*N8
  0
POLYLINE
  8
0
  6
CONTINUOUS
 62
     7
  5
675
 66
     1
 10
0.0
 20
0.0
 30
0.0
  0
VERTEX
  8
0
  6
CONTINUOUS
 62
     7
  5
676
 10
958411.79
 20
7302962.523
 30
0.0
  0
VERTEX
  8
0
  6
CONTINUOUS
 62
     7
  5
677
 10
958409.556
 20
7302954.585
 30
0.0
  0
VERTEX
  8
0
  6
CONTINUOUS
 62
     7
  5
678
 10
958407.792
 20
7302962.64
 30
0.0
  0
SEQEND
  8
0
  6
CONTINUOUS
 62
     7
  5
679
  0
LINE
  8
0
  6
CONTINUOUS
 62
     7
  5
67A
 10
958409.556
 20
7302954.585
 30
0.0
 11
958412.933
 21
7303069.652
 31
0.0
  0
ENDBLK
  8
0
  6
CONTINUOUS
 62
     7
  5
67B
  0
BLOCK
  8
0
  6
CONTINUOUS
 62
     7
  5
67E
  2
*D9
 70
     1
 10
0.0
 20
0.0
 30
0.0
  3
*N9
  0
POLYLINE
  8
0
  6
CONTINUOUS
 62
     7
  5
67F
 66
     1
 10
0.0
 20
0.0
 30
0.0
  0
VERTEX
  8
0
  6
CONTINUOUS
 62
     7
  5
680
 10
957472.238
 20
7302361.519
 30
0.0
  0
VERTEX
  8
0
  6
CONTINUOUS
 62
     7
  5
681
 10
957464.169
 20
7302359.819
 30
0.0
  0
VERTEX
  8
0
  6
CONTINUOUS
 62
     7
  5
682
 10
957470.489
 20
7302365.116
 30
0.0
  0
SEQEND
  8
0
  6
CONTINUOUS
 62
     7
  5
683
  0
LINE
  8
0
  6
CONTINUOUS
 62
     7
  5
684
 10
957464.169
 20
7302359.819
 30
0.0
 11
957557.57
 21
7302405.238
 31
0.0
  0
LINE
  8
0
  6
CONTINUOUS
 62
     7
  5
685
 10
957557.57
 20
7302405.238
 30
0.0
 11
957573.57
 21
7302405.238
 31
0.0
  0
TEXT
  8
0
  6
CONTINUOUS
 62
     7
  5
686
 10
957577.57
 20
7302401.238
 30
0.0
 40
8.0
  1
90'
  7
ROMANS
 11
957577.57
 21
7302405.238
 31
0.0
210
0.0
220
0.0
230
1.0
 73
     2
  0
ENDBLK
  8
0
  6
CONTINUOUS
 62
     7
  5
687
  0
BLOCK
  8
0
  6
CONTINUOUS
 62
     7
  5
68A
  2
*D10
 70
     1
 10
0.0
 20
0.0
 30
0.0
  3
*N10
  0
POLYLINE
  8
0
  6
CONTINUOUS
 62
     7
  5
68B
 66
     1
 10
0.0
 20
0.0
 30
0.0
  0
VERTEX
  8
0
  6
CONTINUOUS
 62
     7
  5
68C
 10
957375.479
 20
7302316.045
 30
0.0
  0
VERTEX
  8
0
  6
CONTINUOUS
 62
     7
  5
68D
 10
957383.434
 20
7302318.216
 30
0.0
  0
VERTEX
  8
0
  6
CONTINUOUS
 62
     7
  5
68E
 10
957377.436
 20
7302312.557
 30
0.0
  0
SEQEND
  8
0
  6
CONTINUOUS
 62
     7
  5
68F
  0
LINE
  8
0
  6
CONTINUOUS
 62
     7
  5
690
 10
957383.434
 20
7302318.216
 30
0.0
 11
957319.609
 21
7302282.399
 31
0.0
  0
ENDBLK
  8
0
  6
CONTINUOUS
 62
     7
  5
691
  0
BLOCK
  8
0
  6
CONTINUOUS
 62
     7
  5
694
  2
*D11
 70
     1
 10
0.0
 20
0.0
 30
0.0
  3
*N11
  0
POLYLINE
  8
0
  6
CONTINUOUS
 62
     7
  5
695
 66
     1
 10
0.0
 20
0.0
 30
0.0
  0
VERTEX
  8
0
  6
CONTINUOUS
 62
     7
  5
696
 10
957014.664
 20
7301958.279
 30
0.0
  0
VERTEX
  8
0
  6
CONTINUOUS
 62
     7
  5
697
 10
957008.603
 20
7301952.687
 30
0.0
  0
VERTEX
  8
0
  6
CONTINUOUS
 62
     7
  5
698
 10
957011.32
 20
7301960.473
 30
0.0
  0
SEQEND
  8
0
  6
CONTINUOUS
 62
     7
  5
699
  0
LINE
  8
0
  6
CONTINUOUS
 62
     7
  5
69A
 10
957008.603
 20
7301952.687
 30
0.0
 11
957043.65
 21
7302006.101
 31
0.0
  0
ENDBLK
  8
0
  6
CONTINUOUS
 62
     7
  5
69B
  0
BLOCK
  8
0
  6
CONTINUOUS
 62
     7
  5
69E
  2
*D12
 70
     1
 10
0.0
 20
0.0
 30
0.0
  3
*N12
  0
POLYLINE
  8
0
  6
CONTINUOUS
 62
     7
  5
69F
 66
     1
 10
0.0
 20
0.0
 30
0.0
  0
VERTEX
  8
0
  6
CONTINUOUS
 62
     7
  5
6A0
 10
956956.153
 20
7301869.052
 30
0.0
  0
VERTEX
  8
0
  6
CONTINUOUS
 62
     7
  5
6A1
 10
956962.365
 20
7301874.475
 30
0.0
  0
VERTEX
  8
0
  6
CONTINUOUS
 62
     7
  5
6A2
 10
956959.436
 20
7301866.766
 30
0.0
  0
SEQEND
  8
0
  6
CONTINUOUS
 62
     7
  5
6A3
  0
LINE
  8
0
  6
CONTINUOUS
 62
     7
  5
6A4
 10
956962.365
 20
7301874.475
 30
0.0
 11
956925.228
 21
7301821.123
 31
0.0
  0
LINE
  8
0
  6
CONTINUOUS
 62
     7
  5
6A5
 10
956925.228
 20
7301821.123
 30
0.0
 11
956909.228
 21
7301821.123
 31
0.0
  0
TEXT
  8
0
  6
CONTINUOUS
 62
     7
  5
6A6
 10
956886.562
 20
7301817.123
 30
0.0
 40
8.0
  1
90'
  7
ROMANS
 11
956886.562
 21
7301821.123
 31
0.0
210
0.0
220
0.0
230
1.0
 73
     2
  0
ENDBLK
  8
0
  6
CONTINUOUS
 62
     7
  5
6A7
  0
BLOCK
  8
0
  6
CONTINUOUS
 62
     7
  5
6AA
  2
*D13
 70
     1
 10
0.0
 20
0.0
 30
0.0
  3
*N13
  0
POLYLINE
  8
0
  6
CONTINUOUS
 62
     7
  5
6AB
 66
     1
 10
0.0
 20
0.0
 30
0.0
  0
VERTEX
  8
0
  6
CONTINUOUS
 62
     7
  5
6AC
 10
955281.714
 20
7304260.31
 30
0.0
  0
VERTEX
  8
0
  6
CONTINUOUS
 62
     7
  5
6AD
 10
955279.48
 20
7304252.372
 30
0.0
  0
VERTEX
  8
0
  6
CONTINUOUS
 62
     7
  5
6AE
 10
955277.716
 20
7304260.427
 30
0.0
  0
SEQEND
  8
0
  6
CONTINUOUS
 62
     7
  5
6AF
  0
LINE
  8
0
  6
CONTINUOUS
 62
     7
  5
6B0
 10
955279.48
 20
7304252.372
 30
0.0
 11
955280.871
 21
7304299.773
 31
0.0
  0
LINE
  8
0
  6
CONTINUOUS
 62
     7
  5
6B1
 10
955280.871
 20
7304299.773
 30
0.0
 11
955296.871
 21
7304299.773
 31
0.0
  0
TEXT
  8
0
  6
CONTINUOUS
 62
     7
  5
6B2
 10
955300.871
 20
7304295.773
 30
0.0
 40
8.0
  1
65'
  7
ROMANS
 11
955300.871
 21
7304299.773
 31
0.0
210
0.0
220
0.0
230
1.0
 73
     2
  0
ENDBLK
  8
0
  6
CONTINUOUS
 62
     7
  5
6B3
  0
BLOCK
  8
0
  6
CONTINUOUS
 62
     7
  5
6B6
  2
*D14
 70
     1
 10
0.0
 20
0.0
 30
0.0
  3
*N14
  0
POLYLINE
  8
0
  6
CONTINUOUS
 62
     7
  5
6B7
 66
     1
 10
0.0
 20
0.0
 30
0.0
  0
VERTEX
  8
0
  6
CONTINUOUS
 62
     7
  5
6B8
 10
955275.325
 20
7304178.974
 30
0.0
  0
VERTEX
  8
0
  6
CONTINUOUS
 62
     7
  5
6B9
 10
955277.559
 20
7304186.912
 30
0.0
  0
VERTEX
  8
0
  6
CONTINUOUS
 62
     7
  5
6BA
 10
955279.323
 20
7304178.857
 30
0.0
  0
SEQEND
  8
0
  6
CONTINUOUS
 62
     7
  5
6BB
  0
LINE
  8
0
  6
CONTINUOUS
 62
     7
  5
6BC
 10
955277.559
 20
7304186.912
 30
0.0
 11
955275.936
 21
7304131.611
 31
0.0
  0
ENDBLK
  8
0
  6
CONTINUOUS
 62
     7
  5
6BD
  0
BLOCK
  8
0
  6
CONTINUOUS
 62
     7
  5
6C0
  2
*D15
 70
     1
 10
0.0
 20
0.0
 30
0.0
  3
*N15
  0
POLYLINE
  8
0
  6
CONTINUOUS
 62
     7
  5
6C1
 66
     1
 10
0.0
 20
0.0
 30
0.0
  0
VERTEX
  8
0
  6
CONTINUOUS
 62
     7
  5
6C2
 10
955400.485
 20
7304071.218
 30
0.0
  0
VERTEX
  8
0
  6
CONTINUOUS
 62
     7
  5
6C3
 10
955408.423
 20
7304068.984
 30
0.0
  0
VERTEX
  8
0
  6
CONTINUOUS
 62
     7
  5
6C4
 10
955400.368
 20
7304067.22
 30
0.0
  0
SEQEND
  8
0
  6
CONTINUOUS
 62
     7
  5
6C5
  0
LINE
  8
0
  6
CONTINUOUS
 62
     7
  5
6C6
 10
955408.423
 20
7304068.984
 30
0.0
 11
955362.183
 21
7304070.341
 31
0.0
  0
ENDBLK
  8
0
  6
CONTINUOUS
 62
     7
  5
6C7
  0
BLOCK
  8
0
  6
CONTINUOUS
 62
     7
  5
6CA
  2
*D16
 70
     1
 10
0.0
 20
0.0
 30
0.0
  3
*N16
  0
POLYLINE
  8
0
  6
CONTINUOUS
 62
     7
  5
6CB
 66
     1
 10
0.0
 20
0.0
 30
0.0
  0
VERTEX
  8
0
  6
CONTINUOUS
 62
     7
  5
6CC
 10
955490.797
 20
7304064.565
 30
0.0
  0
VERTEX
  8
0
  6
CONTINUOUS
 62
     7
  5
6CD
 10
955482.859
 20
7304066.799
 30
0.0
  0
VERTEX
  8
0
  6
CONTINUOUS
 62
     7
  5
6CE
 10
955490.914
 20
7304068.563
 30
0.0
  0
SEQEND
  8
0
  6
CONTINUOUS
 62
     7
  5
6CF
  0
LINE
  8
0
  6
CONTINUOUS
 62
     7
  5
6D0
 10
955482.859
 20
7304066.799
 30
0.0
 11
955539.249
 21
7304065.144
 31
0.0
  0
LINE
  8
0
  6
CONTINUOUS
 62
     7
  5
6D1
 10
955539.249
 20
7304065.144
 30
0.0
 11
955555.249
 21
7304065.144
 31
0.0
  0
TEXT
  8
0
  6
CONTINUOUS
 62
     7
  5
6D2
 10
955559.249
 20
7304061.144
 30
0.0
 40
8.0
  1
75'
  7
ROMANS
 11
955559.249
 21
7304065.144
 31
0.0
210
0.0
220
0.0
230
1.0
 73
     2
  0
ENDBLK
  8
0
  6
CONTINUOUS
 62
     7
  5
6D3
  0
BLOCK
  8
0
  6
CONTINUOUS
 62
     7
  5
6D6
  2
*D17
 70
     1
 10
0.0
 20
0.0
 30
0.0
  3
*N17
  0
POLYLINE
  8
0
  6
CONTINUOUS
 62
     7
  5
6D7
 66
     1
 10
0.0
 20
0.0
 30
0.0
  0
VERTEX
  8
0
  6
CONTINUOUS
 62
     7
  5
6D8
 10
955085.893
 20
7303578.389
 30
0.0
  0
VERTEX
  8
0
  6
CONTINUOUS
 62
     7
  5
6D9
 10
955077.955
 20
7303580.623
 30
0.0
  0
VERTEX
  8
0
  6
CONTINUOUS
 62
     7
  5
6DA
 10
955086.01
 20
7303582.387
 30
0.0
  0
SEQEND
  8
0
  6
CONTINUOUS
 62
     7
  5
6DB
  0
LINE
  8
0
  6
CONTINUOUS
 62
     7
  5
6DC
 10
955077.955
 20
7303580.623
 30
0.0
 11
955203.143
 21
7303576.948
 31
0.0
  0
LINE
  8
0
  6
CONTINUOUS
 62
     7
  5
6DD
 10
955203.143
 20
7303576.948
 30
0.0
 11
955219.143
 21
7303576.948
 31
0.0
  0
TEXT
  8
0
  6
CONTINUOUS
 62
     7
  5
6DE
 10
955223.143
 20
7303572.948
 30
0.0
 40
8.0
  1
350'
  7
ROMANS
 11
955223.143
 21
7303576.948
 31
0.0
210
0.0
220
0.0
230
1.0
 73
     2
  0
ENDBLK
  8
0
  6
CONTINUOUS
 62
     7
  5
6DF
  0
BLOCK
  8
0
  6
CONTINUOUS
 62
     7
  5
6E2
  2
*D18
 70
     1
 10
0.0
 20
0.0
 30
0.0
  3
*N18
  0
POLYLINE
  8
0
  6
CONTINUOUS
 62
     7
  5
6E3
 66
     1
 10
0.0
 20
0.0
 30
0.0
  0
VERTEX
  8
0
  6
CONTINUOUS
 62
     7
  5
6E4
 10
955423.024
 20
7303572.496
 30
0.0
  0
VERTEX
  8
0
  6
CONTINUOUS
 62
     7
  5
6E5
 10
955430.962
 20
7303570.262
 30
0.0
  0
VERTEX
  8
0
  6
CONTINUOUS
 62
     7
  5
6E6
 10
955422.907
 20
7303568.498
 30
0.0
  0
SEQEND
  8
0
  6
CONTINUOUS
 62
     7
  5
6E7
  0
LINE
  8
0
  6
CONTINUOUS
 62
     7
  5
6E8
 10
955430.962
 20
7303570.262
 30
0.0
 11
955252.766
 21
7303575.492
 31
0.0
  0
ENDBLK
  8
0
  6
CONTINUOUS
 62
     7
  5
6E9
  0
BLOCK
  8
0
  6
CONTINUOUS
 62
     7
  5
6EC
  2
*D19
 70
     1
 10
0.0
 20
0.0
 30
0.0
  3
*N19
  0
POLYLINE
  8
0
  6
CONTINUOUS
 62
     7
  5
6ED
 66
     1
 10
0.0
 20
0.0
 30
0.0
  0
VERTEX
  8
0
  6
CONTINUOUS
 62
     7
  5
6EE
 10
956136.253
 20
7303105.904
 30
0.0
  0
VERTEX
  8
0
  6
CONTINUOUS
 62
     7
  5
6EF
 10
956129.96
 20
7303100.575
 30
0.0
  0
VERTEX
  8
0
  6
CONTINUOUS
 62
     7
  5
6F0
 10
956133.005
 20
7303108.238
 30
0.0
  0
SEQEND
  8
0
  6
CONTINUOUS
 62
     7
  5
6F1
  0
LINE
  8
0
  6
CONTINUOUS
 62
     7
  5
6F2
 10
956129.96
 20
7303100.575
 30
0.0
 11
956159.381
 21
7303141.505
 31
0.0
  0
LINE
  8
0
  6
CONTINUOUS
 62
     7
  5
6F3
 10
956159.381
 20
7303141.505
 30
0.0
 11
956175.381
 21
7303141.505
 31
0.0
  0
TEXT
  8
0
  6
CONTINUOUS
 62
     7
  5
6F4
 10
956179.381
 20
7303137.505
 30
0.0
 40
8.0
  1
90'
  7
ROMANS
 11
956179.381
 21
7303141.505
 31
0.0
210
0.0
220
0.0
230
1.0
 73
     2
  0
ENDBLK
  8
0
  6
CONTINUOUS
 62
     7
  5
6F5
  0
BLOCK
  8
0
  6
CONTINUOUS
 62
     7
  5
6F8
  2
*D20
 70
     1
 10
0.0
 20
0.0
 30
0.0
  3
*N20
  0
POLYLINE
  8
0
  6
CONTINUOUS
 62
     7
  5
6F9
 66
     1
 10
0.0
 20
0.0
 30
0.0
  0
VERTEX
  8
0
  6
CONTINUOUS
 62
     7
  5
6FA
 10
956087.958
 20
7303012.107
 30
0.0
  0
VERTEX
  8
0
  6
CONTINUOUS
 62
     7
  5
6FB
 10
956093.674
 20
7303018.051
 30
0.0
  0
VERTEX
  8
0
  6
CONTINUOUS
 62
     7
  5
6FC
 10
956091.428
 20
7303010.117
 30
0.0
  0
SEQEND
  8
0
  6
CONTINUOUS
 62
     7
  5
6FD
  0
LINE
  8
0
  6
CONTINUOUS
 62
     7
  5
6FE
 10
956093.674
 20
7303018.051
 30
0.0
 11
956057.985
 21
7302955.841
 31
0.0
  0
ENDBLK
  8
0
  6
CONTINUOUS
 62
     7
  5
6FF
  0
BLOCK
  8
0
  6
CONTINUOUS
 62
     7
  5
702
  2
*D21
 70
     1
 10
0.0
 20
0.0
 30
0.0
  3
*N21
  0
POLYLINE
  8
0
  6
CONTINUOUS
 62
     7
  5
703
 66
     1
 10
0.0
 20
0.0
 30
0.0
  0
VERTEX
  8
0
  6
CONTINUOUS
 62
     7
  5
704
 10
955019.745
 20
7303104.516
 30
0.0
  0
VERTEX
  8
0
  6
CONTINUOUS
 62
     7
  5
705
 10
955027.683
 20
7303102.282
 30
0.0
  0
VERTEX
  8
0
  6
CONTINUOUS
 62
     7
  5
706
 10
955019.628
 20
7303100.517
 30
0.0
  0
SEQEND
  8
0
  6
CONTINUOUS
 62
     7
  5
707
  0
LINE
  8
0
  6
CONTINUOUS
 62
     7
  5
708
 10
955027.683
 20
7303102.282
 30
0.0
 11
954955.76
 21
7303104.392
 31
0.0
  0
ENDBLK
  8
0
  6
CONTINUOUS
 62
     7
  5
709
  0
BLOCK
  8
0
  6
CONTINUOUS
 62
     7
  5
70C
  2
*D22
 70
     1
 10
0.0
 20
0.0
 30
0.0
  3
*N22
  0
POLYLINE
  8
0
  6
CONTINUOUS
 62
     7
  5
70D
 66
     1
 10
0.0
 20
0.0
 30
0.0
  0
VERTEX
  8
0
  6
CONTINUOUS
 62
     7
  5
70E
 10
955107.543
 20
7303097.937
 30
0.0
  0
VERTEX
  8
0
  6
CONTINUOUS
 62
     7
  5
70F
 10
955099.605
 20
7303100.171
 30
0.0
  0
VERTEX
  8
0
  6
CONTINUOUS
 62
     7
  5
710
 10
955107.66
 20
7303101.935
 30
0.0
  0
SEQEND
  8
0
  6
CONTINUOUS
 62
     7
  5
711
  0
LINE
  8
0
  6
CONTINUOUS
 62
     7
  5
712
 10
955099.605
 20
7303100.171
 30
0.0
 11
955145.556
 21
7303098.822
 31
0.0
  0
LINE
  8
0
  6
CONTINUOUS
 62
     7
  5
713
 10
955145.556
 20
7303098.822
 30
0.0
 11
955161.556
 21
7303098.822
 31
0.0
  0
TEXT
  8
0
  6
CONTINUOUS
 62
     7
  5
714
 10
955165.556
 20
7303094.822
 30
0.0
 40
8.0
  1
75'
  7
ROMANS
 11
955165.556
 21
7303098.822
 31
0.0
210
0.0
220
0.0
230
1.0
 73
     2
  0
ENDBLK
  8
0
  6
CONTINUOUS
 62
     7
  5
715
  0
BLOCK
  8
0
  6
CONTINUOUS
 62
     7
  5
718
  2
*D23
 70
     1
 10
0.0
 20
0.0
 30
0.0
  3
*N23
  0
POLYLINE
  8
0
  6
CONTINUOUS
 62
     7
  5
719
 66
     1
 10
0.0
 20
0.0
 30
0.0
  0
VERTEX
  8
0
  6
CONTINUOUS
 62
     7
  5
71A
 10
956048.419
 20
7302139.938
 30
0.0
  0
VERTEX
  8
0
  6
CONTINUOUS
 62
     7
  5
71B
 10
956046.504
 20
7302131.917
 30
0.0
  0
VERTEX
  8
0
  6
CONTINUOUS
 62
     7
  5
71C
 10
956044.419
 20
7302139.895
 30
0.0
  0
SEQEND
  8
0
  6
CONTINUOUS
 62
     7
  5
71D
  0
LINE
  8
0
  6
CONTINUOUS
 62
     7
  5
71E
 10
956046.504
 20
7302131.917
 30
0.0
 11
956045.973
 21
7302181.956
 31
0.0
  0
LINE
  8
0
  6
CONTINUOUS
 62
     7
  5
71F
 10
956045.973
 20
7302181.956
 30
0.0
 11
956029.973
 21
7302181.956
 31
0.0
  0
TEXT
  8
0
  6
CONTINUOUS
 62
     7
  5
720
 10
956007.307
 20
7302177.956
 30
0.0
 40
8.0
  1
90'
  7
ROMANS
 11
956007.307
 21
7302181.956
 31
0.0
210
0.0
220
0.0
230
1.0
 73
     2
  0
ENDBLK
  8
0
  6
CONTINUOUS
 62
     7
  5
721
  0
BLOCK
  8
0
  6
CONTINUOUS
 62
     7
  5
724
  2
*D24
 70
     1
 10
0.0
 20
0.0
 30
0.0
  3
*N24
  0
POLYLINE
  8
0
  6
CONTINUOUS
 62
     7
  5
725
 66
     1
 10
0.0
 20
0.0
 30
0.0
  0
VERTEX
  8
0
  6
CONTINUOUS
 62
     7
  5
726
 10
956041.629
 20
7302034.013
 30
0.0
  0
VERTEX
  8
0
  6
CONTINUOUS
 62
     7
  5
727
 10
956043.863
 20
7302041.951
 30
0.0
  0
VERTEX
  8
0
  6
CONTINUOUS
 62
     7
  5
728
 10
956045.628
 20
7302033.896
 30
0.0
  0
SEQEND
  8
0
  6
CONTINUOUS
 62
     7
  5
729
  0
LINE
  8
0
  6
CONTINUOUS
 62
     7
  5
72A
 10
956043.863
 20
7302041.951
 30
0.0
 11
956042.162
 21
7301983.973
 31
0.0
  0
ENDBLK
  8
0
  6
CONTINUOUS
 62
     7
  5
72B
  0
BLOCK
  8
0
  6
CONTINUOUS
 62
     7
  5
72E
  2
*D25
 70
     1
 10
0.0
 20
0.0
 30
0.0
  3
*N25
  0
POLYLINE
  8
0
  6
CONTINUOUS
 62
     7
  5
72F
 66
     1
 10
0.0
 20
0.0
 30
0.0
  0
VERTEX
  8
0
  6
CONTINUOUS
 62
     7
  5
730
 10
955455.689
 20
7301827.1
 30
0.0
  0
VERTEX
  8
0
  6
CONTINUOUS
 62
     7
  5
731
 10
955447.751
 20
7301829.334
 30
0.0
  0
VERTEX
  8
0
  6
CONTINUOUS
 62
     7
  5
732
 10
955455.806
 20
7301831.098
 30
0.0
  0
SEQEND
  8
0
  6
CONTINUOUS
 62
     7
  5
733
  0
LINE
  8
0
  6
CONTINUOUS
 62
     7
  5
734
 10
955447.751
 20
7301829.334
 30
0.0
 11
955557.633
 21
7301826.109
 31
0.0
  0
ENDBLK
  8
0
  6
CONTINUOUS
 62
     7
  5
735
  0
BLOCK
  8
0
  6
CONTINUOUS
 62
     7
  5
738
  2
*D26
 70
     1
 10
0.0
 20
0.0
 30
0.0
  3
*N26
  0
POLYLINE
  8
0
  6
CONTINUOUS
 62
     7
  5
739
 66
     1
 10
0.0
 20
0.0
 30
0.0
  0
VERTEX
  8
0
  6
CONTINUOUS
 62
     7
  5
73A
 10
955719.512
 20
7301823.359
 30
0.0
  0
VERTEX
  8
0
  6
CONTINUOUS
 62
     7
  5
73B
 10
955727.45
 20
7301821.125
 30
0.0
  0
VERTEX
  8
0
  6
CONTINUOUS
 62
     7
  5
73C
 10
955719.395
 20
7301819.361
 30
0.0
  0
SEQEND
  8
0
  6
CONTINUOUS
 62
     7
  5
73D
  0
LINE
  8
0
  6
CONTINUOUS
 62
     7
  5
73E
 10
955727.45
 20
7301821.125
 30
0.0
 11
955607.578
 21
7301824.644
 31
0.0
  0
LINE
  8
0
  6
CONTINUOUS
 62
     7
  5
73F
 10
955607.578
 20
7301824.644
 30
0.0
 11
955591.578
 21
7301824.644
 31
0.0
  0
TEXT
  8
0
  6
CONTINUOUS
 62
     7
  5
740
 10
955560.912
 20
7301820.644
 30
0.0
 40
8.0
  1
250'
  7
ROMANS
 11
955560.912
 21
7301824.644
 31
0.0
210
0.0
220
0.0
230
1.0
 73
     2
  0
ENDBLK
  8
0
  6
CONTINUOUS
 62
     7
  5
741
  0
BLOCK
  8
0
  6
CONTINUOUS
 62
     7
  5
744
  2
*D27
 70
     1
 10
0.0
 20
0.0
 30
0.0
  3
*N27
  0
POLYLINE
  8
0
  6
CONTINUOUS
 62
     7
  5
745
 66
     1
 10
0.0
 20
0.0
 30
0.0
  0
VERTEX
  8
0
  6
CONTINUOUS
 62
     7
  5
746
 10
954863.516
 20
7300913.84
 30
0.0
  0
VERTEX
  8
0
  6
CONTINUOUS
 62
     7
  5
747
 10
954855.454
 20
7300915.574
 30
0.0
  0
VERTEX
  8
0
  6
CONTINUOUS
 62
     7
  5
748
 10
954863.383
 20
7300917.838
 30
0.0
  0
SEQEND
  8
0
  6
CONTINUOUS
 62
     7
  5
749
  0
LINE
  8
0
  6
CONTINUOUS
 62
     7
  5
74A
 10
954855.454
 20
7300915.574
 30
0.0
 11
954919.502
 21
7300917.696
 31
0.0
  0
ENDBLK
  8
0
  6
CONTINUOUS
 62
     7
  5
74B
  0
BLOCK
  8
0
  6
CONTINUOUS
 62
     7
  5
74E
  2
*D28
 70
     1
 10
0.0
 20
0.0
 30
0.0
  3
*N28
  0
POLYLINE
  8
0
  6
CONTINUOUS
 62
     7
  5
74F
 66
     1
 10
0.0
 20
0.0
 30
0.0
  0
VERTEX
  8
0
  6
CONTINUOUS
 62
     7
  5
750
 10
955109.119
 20
7301181.859
 30
0.0
  0
VERTEX
  8
0
  6
CONTINUOUS
 62
     7
  5
751
 10
955117.159
 20
7301180.025
 30
0.0
  0
VERTEX
  8
0
  6
CONTINUOUS
 62
     7
  5
752
 10
955109.202
 20
7301177.86
 30
0.0
  0
SEQEND
  8
0
  6
CONTINUOUS
 62
     7
  5
753
  0
LINE
  8
0
  6
CONTINUOUS
 62
     7
  5
754
 10
955117.159
 20
7301180.025
 30
0.0
 11
955037.128
 21
7301178.372
 31
0.0
  0
ENDBLK
  8
0
  6
CONTINUOUS
 62
     7
  5
755
  0
BLOCK
  8
0
  6
CONTINUOUS
 62
     7
  5
758
  2
*D29
 70
     1
 10
0.0
 20
0.0
 30
0.0
  3
*N29
  0
POLYLINE
  8
0
  6
CONTINUOUS
 62
     7
  5
759
 66
     1
 10
0.0
 20
0.0
 30
0.0
  0
VERTEX
  8
0
  6
CONTINUOUS
 62
     7
  5
75A
 10
955775.86
 20
7301072.65
 30
0.0
  0
VERTEX
  8
0
  6
CONTINUOUS
 62
     7
  5
75B
 10
955783.798
 20
7301070.416
 30
0.0
  0
VERTEX
  8
0
  6
CONTINUOUS
 62
     7
  5
75C
 10
955775.743
 20
7301068.652
 30
0.0
  0
SEQEND
  8
0
  6
CONTINUOUS
 62
     7
  5
75D
  0
LINE
  8
0
  6
CONTINUOUS
 62
     7
  5
75E
 10
955783.798
 20
7301070.416
 30
0.0
 11
955691.897
 21
7301073.113
 31
0.0
  0
ENDBLK
  8
0
  6
CONTINUOUS
 62
     7
  5
75F
  0
BLOCK
  8
0
  6
CONTINUOUS
 62
     7
  5
762
  2
*D30
 70
     1
 10
0.0
 20
0.0
 30
0.0
  3
*N30
  0
POLYLINE
  8
0
  6
CONTINUOUS
 62
     7
  5
763
 66
     1
 10
0.0
 20
0.0
 30
0.0
  0
VERTEX
  8
0
  6
CONTINUOUS
 62
     7
  5
764
 10
955815.71
 20
7301067.479
 30
0.0
  0
VERTEX
  8
0
  6
CONTINUOUS
 62
     7
  5
765
 10
955807.772
 20
7301069.713
 30
0.0
  0
VERTEX
  8
0
  6
CONTINUOUS
 62
     7
  5
766
 10
955815.827
 20
7301071.477
 30
0.0
  0
SEQEND
  8
0
  6
CONTINUOUS
 62
     7
  5
767
  0
LINE
  8
0
  6
CONTINUOUS
 62
     7
  5
768
 10
955807.772
 20
7301069.713
 30
0.0
 11
955873.701
 21
7301067.778
 31
0.0
  0
LINE
  8
0
  6
CONTINUOUS
 62
     7
  5
769
 10
955873.701
 20
7301067.778
 30
0.0
 11
955889.701
 21
7301067.778
 31
0.0
  0
TEXT
  8
0
  6
CONTINUOUS
 62
     7
  5
76A
 10
955893.701
 20
7301063.778
 30
0.0
 40
8.0
  1
25'
  7
ROMANS
 11
955893.701
 21
7301067.778
 31
0.0
210
0.0
220
0.0
230
1.0
 73
     2
  0
ENDBLK
  8
0
  6
CONTINUOUS
 62
     7
  5
76B
  0
BLOCK
  8
0
  6
CONTINUOUS
 62
     7
  5
76E
  2
*D31
 70
     1
 10
0.0
 20
0.0
 30
0.0
  3
*N31
  0
POLYLINE
  8
0
  6
CONTINUOUS
 62
     7
  5
76F
 66
     1
 10
0.0
 20
0.0
 30
0.0
  0
VERTEX
  8
0
  6
CONTINUOUS
 62
     7
  5
770
 10
955199.378
 20
7301182.421
 30
0.0
  0
VERTEX
  8
0
  6
CONTINUOUS
 62
     7
  5
771
 10
955191.257
 20
7301183.853
 30
0.0
  0
VERTEX
  8
0
  6
CONTINUOUS
 62
     7
  5
772
 10
955199.096
 20
7301186.411
 30
0.0
  0
SEQEND
  8
0
  6
CONTINUOUS
 62
     7
  5
773
  0
LINE
  8
0
  6
CONTINUOUS
 62
     7
  5
774
 10
955191.257
 20
7301183.853
 30
0.0
 11
955251.368
 21
7301188.092
 31
0.0
  0
LINE
  8
0
  6
CONTINUOUS
 62
     7
  5
775
 10
955251.368
 20
7301188.092
 30
0.0
 11
955267.368
 21
7301188.092
 31
0.0
  0
TEXT
  8
0
  6
CONTINUOUS
 62
     7
  5
776
 10
955271.368
 20
7301184.092
 30
0.0
 40
8.0
  1
75'
  7
ROMANS
 11
955271.368
 21
7301188.092
 31
0.0
210
0.0
220
0.0
230
1.0
 73
     2
  0
ENDBLK
  8
0
  6
CONTINUOUS
 62
     7
  5
777
  0
BLOCK
  8
0
  6
CONTINUOUS
 62
     7
  5
77A
  2
*D32
 70
     1
 10
0.0
 20
0.0
 30
0.0
  3
*N32
  0
POLYLINE
  8
0
  6
CONTINUOUS
 62
     7
  5
77B
 66
     1
 10
0.0
 20
0.0
 30
0.0
  0
VERTEX
  8
0
  6
CONTINUOUS
 62
     7
  5
77C
 10
954797.291
 20
7300912.876
 30
0.0
  0
VERTEX
  8
0
  6
CONTINUOUS
 62
     7
  5
77D
 10
954805.331
 20
7300911.042
 30
0.0
  0
VERTEX
  8
0
  6
CONTINUOUS
 62
     7
  5
77E
 10
954797.374
 20
7300908.877
 30
0.0
  0
SEQEND
  8
0
  6
CONTINUOUS
 62
     7
  5
77F
  0
LINE
  8
0
  6
CONTINUOUS
 62
     7
  5
780
 10
954805.331
 20
7300911.042
 30
0.0
 11
954725.3
 21
7300909.39
 31
0.0
  0
LINE
  8
0
  6
CONTINUOUS
 62
     7
  5
781
 10
954725.3
 20
7300909.39
 30
0.0
 11
954709.3
 21
7300909.39
 31
0.0
  0
TEXT
  8
0
  6
CONTINUOUS
 62
     7
  5
782
 10
954686.634
 20
7300905.39
 30
0.0
 40
8.0
  1
50'
  7
ROMANS
 11
954686.634
 21
7300909.39
 31
0.0
210
0.0
220
0.0
230
1.0
 73
     2
  0
ENDBLK
  8
0
  6
CONTINUOUS
 62
     7
  5
783
  0
BLOCK
  8
0
  6
CONTINUOUS
 62
     7
  5
786
  2
*D33
 70
     1
 10
0.0
 20
0.0
 30
0.0
  3
*N33
  0
POLYLINE
  8
0
  6
CONTINUOUS
 62
     7
  5
787
 66
     1
 10
0.0
 20
0.0
 30
0.0
  0
VERTEX
  8
0
  6
CONTINUOUS
 62
     7
  5
788
 10
955926.451
 20
7300003.574
 30
0.0
  0
VERTEX
  8
0
  6
CONTINUOUS
 62
     7
  5
789
 10
955924.217
 20
7299995.636
 30
0.0
  0
VERTEX
  8
0
  6
CONTINUOUS
 62
     7
  5
78A
 10
955922.453
 20
7300003.691
 30
0.0
  0
SEQEND
  8
0
  6
CONTINUOUS
 62
     7
  5
78B
  0
LINE
  8
0
  6
CONTINUOUS
 62
     7
  5
78C
 10
955924.217
 20
7299995.636
 30
0.0
 11
955925.977
 21
7300055.613
 31
0.0
  0
ENDBLK
  8
0
  6
CONTINUOUS
 62
     7
  5
78D
  0
BLOCK
  8
0
  6
CONTINUOUS
 62
     7
  5
790
  2
*D34
 70
     1
 10
0.0
 20
0.0
 30
0.0
  3
*N34
  0
POLYLINE
  8
0
  6
CONTINUOUS
 62
     7
  5
791
 66
     1
 10
0.0
 20
0.0
 30
0.0
  0
VERTEX
  8
0
  6
CONTINUOUS
 62
     7
  5
792
 10
955917.286
 20
7299895.791
 30
0.0
  0
VERTEX
  8
0
  6
CONTINUOUS
 62
     7
  5
793
 10
955919.52
 20
7299903.729
 30
0.0
  0
VERTEX
  8
0
  6
CONTINUOUS
 62
     7
  5
794
 10
955921.284
 20
7299895.674
 30
0.0
  0
SEQEND
  8
0
  6
CONTINUOUS
 62
     7
  5
795
  0
LINE
  8
0
  6
CONTINUOUS
 62
     7
  5
796
 10
955919.52
 20
7299903.729
 30
0.0
 11
955917.759
 21
7299843.752
 31
0.0
  0
LINE
  8
0
  6
CONTINUOUS
 62
     7
  5
797
 10
955917.759
 20
7299843.752
 30
0.0
 11
955901.759
 21
7299843.752
 31
0.0
  0
TEXT
  8
0
  6
CONTINUOUS
 62
     7
  5
798
 10
955879.093
 20
7299839.752
 30
0.0
 40
8.0
  1
90'
  7
ROMANS
 11
955879.093
 21
7299843.752
 31
0.0
210
0.0
220
0.0
230
1.0
 73
     2
  0
ENDBLK
  8
0
  6
CONTINUOUS
 62
     7
  5
799
  0
BLOCK
  8
0
  6
CONTINUOUS
 62
     7
  5
79C
  2
*D35
 70
     1
 10
0.0
 20
0.0
 30
0.0
  3
*N35
  0
POLYLINE
  8
0
  6
CONTINUOUS
 62
     7
  5
79D
 66
     1
 10
0.0
 20
0.0
 30
0.0
  0
VERTEX
  8
0
  6
CONTINUOUS
 62
     7
  5
79E
 10
955914.361
 20
7299659.763
 30
0.0
  0
VERTEX
  8
0
  6
CONTINUOUS
 62
     7
  5
79F
 10
955912.127
 20
7299651.825
 30
0.0
  0
VERTEX
  8
0
  6
CONTINUOUS
 62
     7
  5
7A0
 10
955910.362
 20
7299659.88
 30
0.0
  0
SEQEND
  8
0
  6
CONTINUOUS
 62
     7
  5
7A1
  0
LINE
  8
0
  6
CONTINUOUS
 62
     7
  5
7A2
 10
955912.127
 20
7299651.825
 30
0.0
 11
955913.945
 21
7299713.801
 31
0.0
  0
LINE
  8
0
  6
CONTINUOUS
 62
     7
  5
7A3
 10
955913.945
 20
7299713.801
 30
0.0
 11
955929.945
 21
7299713.801
 31
0.0
  0
TEXT
  8
0
  6
CONTINUOUS
 62
     7
  5
7A4
 10
955933.945
 20
7299709.801
 30
0.0
 40
8.0
  1
90'
  7
ROMANS
 11
955933.945
 21
7299713.801
 31
0.0
210
0.0
220
0.0
230
1.0
 73
     2
  0
ENDBLK
  8
0
  6
CONTINUOUS
 62
     7
  5
7A5
  0
BLOCK
  8
0
  6
CONTINUOUS
 62
     7
  5
7A8
  2
*D36
 70
     1
 10
0.0
 20
0.0
 30
0.0
  3
*N36
  0
POLYLINE
  8
0
  6
CONTINUOUS
 62
     7
  5
7A9
 66
     1
 10
0.0
 20
0.0
 30
0.0
  0
VERTEX
  8
0
  6
CONTINUOUS
 62
     7
  5
7AA
 10
955907.311
 20
7299555.92
 30
0.0
  0
VERTEX
  8
0
  6
CONTINUOUS
 62
     7
  5
7AB
 10
955909.545
 20
7299563.858
 30
0.0
  0
VERTEX
  8
0
  6
CONTINUOUS
 62
     7
  5
7AC
 10
955911.309
 20
7299555.803
 30
0.0
  0
SEQEND
  8
0
  6
CONTINUOUS
 62
     7
  5
7AD
  0
LINE
  8
0
  6
CONTINUOUS
 62
     7
  5
7AE
 10
955909.545
 20
7299563.858
 30
0.0
 11
955908.137
 21
7299515.875
 31
0.0
  0
ENDBLK
  8
0
  6
CONTINUOUS
 62
     7
  5
7AF
  0
BLOCK
  8
0
  6
CONTINUOUS
 62
     7
  5
7B2
  2
*D37
 70
     1
 10
0.0
 20
0.0
 30
0.0
  3
*N37
  0
POLYLINE
  8
0
  6
CONTINUOUS
 62
     7
  5
7B3
 66
     1
 10
0.0
 20
0.0
 30
0.0
  0
VERTEX
  8
0
  6
CONTINUOUS
 62
     7
  5
7B4
 10
956060.425
 20
7299935.612
 30
0.0
  0
VERTEX
  8
0
  6
CONTINUOUS
 62
     7
  5
7B5
 10
956062.659
 20
7299943.55
 30
0.0
  0
VERTEX
  8
0
  6
CONTINUOUS
 62
     7
  5
7B6
 10
956064.423
 20
7299935.495
 30
0.0
  0
SEQEND
  8
0
  6
CONTINUOUS
 62
     7
  5
7B7
  0
LINE
  8
0
  6
CONTINUOUS
 62
     7
  5
7B8
 10
956062.659
 20
7299943.55
 30
0.0
 11
956057.202
 21
7299757.62
 31
0.0
  0
ENDBLK
  8
0
  6
CONTINUOUS
 62
     7
  5
7B9
  0
BLOCK
  8
0
  6
CONTINUOUS
 62
     7
  5
7BD
  2
*D38
 70
     1
 10
0.0
 20
0.0
 30
0.0
  3
*N38
  0
POLYLINE
  8
0
  6
CONTINUOUS
 62
     7
  5
7BE
 66
     1
 10
0.0
 20
0.0
 30
0.0
  0
VERTEX
  8
0
  6
CONTINUOUS
 62
     7
  5
7BF
 10
956054.918
 20
7299611.616
 30
0.0
  0
VERTEX
  8
0
  6
CONTINUOUS
 62
     7
  5
7C0
 10
956052.684
 20
7299603.678
 30
0.0
  0
VERTEX
  8
0
  6
CONTINUOUS
 62
     7
  5
7C1
 10
956050.919
 20
7299611.733
 30
0.0
  0
SEQEND
  8
0
  6
CONTINUOUS
 62
     7
  5
7C2
  0
LINE
  8
0
  6
CONTINUOUS
 62
     7
  5
7C3
 10
956052.684
 20
7299603.678
 30
0.0
 11
956055.969
 21
7299715.636
 31
0.0
  0
ENDBLK
  8
0
  6
CONTINUOUS
 62
     7
  5
7C4
  0
ENDSEC
  0
SECTION
  2
ENTITIES
  0
LINE
  8
0
  6
CONTINUOUS
 62
     2
  5
28
 10
955744.968
 20
7299783.404
 30
0.0
 11
955747.168
 21
7299858.36
 31
0.0
  0
LINE
  8
0
  6
CONTINUOUS
 62
     2
  5
29
 10
955588.804
 20
7299572.944
 30
0.0
 11
955588.81
 21
7299573.147
 31
0.0
  0
LINE
  8
0
  6
CONTINUOUS
 62
     2
  5
2A
 10
956113.602
 20
7299557.542
 30
0.0
 11
955951.762
 21
7299562.292
 31
0.0
  0
LINE
  8
0
  6
CONTINUOUS
 62
     2
  5
2B
 10
956231.533
 20
7299741.576
 30
0.0
 11
956234.541
 21
7299844.056
 31
0.0
  0
LINE
  8
0
  6
CONTINUOUS
 62
     2
  5
2C
 10
955908.618
 20
7303652.359
 30
0.0
 11
956070.457
 21
7303647.609
 31
0.0
  0
LINE
  8
0
  6
CONTINUOUS
 62
     2
  5
2D
 10
955913.018
 20
7303802.29
 30
0.0
 11
956074.857
 21
7303797.54
 31
0.0
  0
LINE
  8
0
  6
CONTINUOUS
 62
     2
  5
2E
 10
956426.697
 20
7303837.246
 30
0.0
 11
956451.622
 21
7304686.507
 31
0.0
  0
LINE
  8
0
  6
CONTINUOUS
 62
     2
  5
2F
 10
956351.802
 20
7303839.444
 30
0.0
 11
956376.727
 21
7304688.705
 31
0.0
  0
LINE
  8
0
  6
CONTINUOUS
 62
     2
  5
30
 10
956475.225
 20
7303785.79
 30
0.0
 11
958779.967
 21
7303718.148
 31
0.0
  0
LINE
  8
0
  6
CONTINUOUS
 62
     2
  5
31
 10
956595.85
 20
7303632.189
 30
0.0
 11
957608.826
 21
7303602.459
 31
0.0
  0
LINE
  8
0
  6
CONTINUOUS
 62
     2
  5
32
 10
955864.429
 20
7303853.748
 30
0.0
 11
955889.354
 21
7304703.009
 31
0.0
  0
LINE
  8
0
  6
CENTER
 62
     7
  5
33
 10
956174.924
 20
7303019.298
 30
0.0
 11
958757.232
 21
7302943.509
 31
0.0
  0
LINE
  8
0
  6
CENTER
 62
     7
  5
34
 10
955772.274
 20
7303267.838
 30
0.0
 11
956174.924
 21
7303019.298
 31
0.0
  0
LINE
  8
0
  6
CONTINUOUS
 62
     2
  5
35
 10
956044.021
 20
7303152.977
 30
0.0
 11
956055.729
 21
7303145.77
 31
0.0
  0
LINE
  8
0
  6
CONTINUOUS
 62
     2
  5
36
 10
955918.2
 20
7303124.886
 30
0.0
 11
956052.679
 21
7303041.878
 31
0.0
  0
LINE
  8
0
  6
CONTINUOUS
 62
     2
  5
37
 10
956188.353
 20
7303063.886
 30
0.0
 11
956223.884
 21
7303062.843
 31
0.0
  0
LINE
  8
0
  6
CONTINUOUS
 62
     2
  5
38
 10
956161.491
 20
7302974.636
 30
0.0
 11
956221.244
 21
7302972.882
 31
0.0
  0
LINE
  8
0
  6
CONTINUOUS
 62
     2
  5
39
 10
955854.195
 20
7303505.059
 30
0.0
 11
955857.094
 21
7303603.839
 31
0.0
  0
LINE
  8
0
  6
CONTINUOUS
 62
     2
  5
3A
 10
956332.002
 20
7303164.802
 30
0.0
 11
956344.467
 21
7303589.535
 31
0.0
  0
LINE
  8
0
  6
CONTINUOUS
 62
     2
  5
3B
 10
956508.638
 20
7303047.075
 30
0.0
 11
957154.011
 21
7303028.134
 31
0.0
  0
LINE
  8
0
  6
CONTINUOUS
 62
     2
  5
3C
 10
956304.507
 20
7302227.994
 30
0.0
 11
956323.199
 21
7302864.885
 31
0.0
  0
LINE
  8
0
  6
CONTINUOUS
 62
     2
  5
3D
 10
955819.19
 20
7302312.344
 30
0.0
 11
955841.832
 21
7303083.823
 31
0.0
  0
LINE
  8
0
  6
CONTINUOUS
 62
     2
  5
3E
 10
955989.071
 20
7302132.328
 30
0.0
 11
956026.556
 21
7302131.228
 31
0.0
  0
LINE
  8
0
  6
CONTINUOUS
 62
     2
  5
3F
 10
955861.473
 20
7302046.027
 30
0.0
 11
956023.915
 21
7302041.26
 31
0.0
  0
LINE
  8
0
  6
CONTINUOUS
 62
     2
  5
40
 10
955876.3
 20
7299994.654
 30
0.0
 11
955963.909
 21
7299992.082
 31
0.0
  0
LINE
  8
0
  6
CONTINUOUS
 62
     2
  5
41
 10
955798.693
 20
7299906.954
 30
0.0
 11
955961.27
 21
7299902.182
 31
0.0
  0
LINE
  8
0
  6
CONTINUOUS
 62
     2
  5
42
 10
955866.327
 20
7299654.845
 30
0.0
 11
955954.402
 21
7299652.26
 31
0.0
  0
LINE
  8
0
  6
CONTINUOUS
 62
     2
  5
43
 10
955754.943
 20
7300123.281
 30
0.0
 11
955809.95
 21
7301997.501
 31
0.0
  0
LINE
  8
0
  6
CONTINUOUS
 62
     2
  5
44
 10
956241.506
 20
7300081.392
 30
0.0
 11
956295.707
 21
7301928.151
 31
0.0
  0
LINE
  8
0
  6
CENTER
 62
     7
  5
45
 10
955644.446
 20
7299956.402
 30
0.0
 11
955705.605
 21
7299954.607
 31
0.0
  0
LINE
  8
0
  6
CONTINUOUS
 62
     2
  5
46
 10
955432.697
 20
7304309.432
 30
0.0
 11
955444.631
 21
7304716.061
 31
0.0
  0
LINE
  8
0
  6
CONTINUOUS
 62
     2
  5
47
 10
957560.9
 20
7303316.3
 30
0.0
 11
958767.134
 21
7303280.898
 31
0.0
  0
LINE
  8
0
  6
CONTINUOUS
 62
     2
  5
48
 10
957460.519
 20
7303244.151
 30
0.0
 11
958764.932
 21
7303205.867
 31
0.0
  0
LINE
  8
0
  6
CONTINUOUS
 62
     2
  5
49
 10
956406.675
 20
7303155.071
 30
0.0
 11
956415.697
 21
7303462.447
 31
0.0
  0
LINE
  8
0
  6
CENTER
 62
     7
  5
4A
 10
957363.517
 20
7303284.576
 30
0.0
 11
958766.034
 21
7303243.413
 31
0.0
  0
LINE
  8
0
  6
CENTER
 62
     7
  5
4B
 10
957810.005
 20
7303671.581
 30
0.0
 11
957354.314
 21
7303241.948
 31
0.0
  0
LINE
  8
0
  6
CONTINUOUS
 62
     2
  5
4C
 10
957555.391
 20
7303369.592
 30
0.0
 11
957544.452
 21
7303359.409
 31
0.0
  0
LINE
  8
0
  6
CONTINUOUS
 62
     2
  5
4D
 10
957625.273
 20
7303559.349
 30
0.0
 11
957323.422
 21
7303274.639
 31
0.0
  0
LINE
  8
0
  6
CONTINUOUS
 62
     2
  5
4E
 10
957352.406
 20
7303142.334
 30
0.0
 11
957351.965
 21
7303127.328
 31
0.0
  0
LINE
  8
0
  6
CONTINUOUS
 62
     2
  5
4F
 10
957262.248
 20
7303138.509
 30
0.0
 11
957261.997
 21
7303129.968
 31
0.0
  0
LINE
  8
0
  6
CONTINUOUS
 62
     2
  5
50
 10
957453.921
 20
7303019.331
 30
0.0
 11
958758.333
 21
7302981.048
 31
0.0
  0
ARC
  8
0
  6
CONTINUOUS
 62
     2
  5
51
 10
958104.171563
 20
7302787.587586
 30
0.0
 40
800.00263
 50
88.3189
 51
133.3189
210
0.0
220
0.0
230
1.0
  0
ARC
  8
0
  6
CONTINUOUS
 62
     2
  5
52
 10
957456.946021
 20
7303124.220865
 30
0.0
 40
105.000345
 50
178.3189
 51
268.3189
210
0.0
220
0.0
230
1.0
  0
ARC
  8
0
  6
CONTINUOUS
 62
     2
  5
53
 10
957608.12371
 20
7303577.48243
 30
0.0
 40
25.000082
 50
313.3189
 51
88.3189
210
0.0
220
0.0
230
1.0
  0
ARC
  8
0
  6
CONTINUOUS
 62
     2
  5
54
 10
957561.663038
 20
7303341.242964
 30
0.0
 40
25.000082
 50
133.3189
 51
268.3189
210
0.0
220
0.0
230
1.0
  0
ARC
  8
0
  6
CONTINUOUS
 62
     2
  5
55
 10
957457.38607
 20
7303139.214458
 30
0.0
 40
105.000345
 50
88.3189
 51
178.3189
210
0.0
220
0.0
230
1.0
  0
ARC
  8
0
  6
CONTINUOUS
 62
     2
  5
56
 10
957457.197083
 20
7303132.775175
 30
0.0
 40
195.000641
 50
133.3189
 51
178.3189
210
0.0
220
0.0
230
1.0
  0
ARC
  8
0
  6
CONTINUOUS
 62
     2
  5
57
 10
957157.074158
 20
7303133.02185
 30
0.0
 40
105.000345
 50
268.3189
 51
358.3189
210
0.0
220
0.0
230
1.0
  0
ARC
  8
0
  6
CENTER
 62
     7
  5
58
 10
957457.197083
 20
7303132.775175
 30
0.0
 40
150.000493
 50
133.3189
 51
178.3189
210
0.0
220
0.0
230
1.0
  0
ARC
  8
0
  6
CONTINUOUS
 62
     2
  5
59
 10
956134.062306
 20
7299744.46376
 30
0.0
 40
97.500321
 50
268.3189
 51
358.3189
210
0.0
220
0.0
230
1.0
  0
ARC
  8
0
  6
CONTINUOUS
 62
     2
  5
5A
 10
955869.98225
 20
7299779.726218
 30
0.0
 40
125.000411
 50
178.3189
 51
268.3189
210
0.0
220
0.0
230
1.0
  0
ARC
  8
0
  6
CONTINUOUS
 62
     2
  5
5B
 10
956184.549021
 20
7299845.526491
 30
0.0
 40
50.000164
 50
358.3189
 51
88.3189
210
0.0
220
0.0
230
1.0
  0
ARC
  8
0
  6
CONTINUOUS
 62
     2
  5
5C
 10
955797.214531
 20
7299856.89443
 30
0.0
 40
50.000164
 50
88.3189
 51
178.3189
210
0.0
220
0.0
230
1.0
  0
ARC
  8
0
  6
CONTINUOUS
 62
     2
  5
5D
 10
956144.036756
 20
7300084.318539
 30
0.0
 40
97.500321
 50
268.3189
 51
358.3189
210
0.0
220
0.0
230
1.0
  0
ARC
  8
0
  6
CONTINUOUS
 62
     2
  5
5E
 10
955879.9567
 20
7300119.580996
 30
0.0
 40
125.000411
 50
178.3189
 51
268.3189
210
0.0
220
0.0
230
1.0
  0
ARC
  8
0
  6
CONTINUOUS
 62
     2
  5
5F
 10
956119.068713
 20
7299744.90381
 30
0.0
 40
187.500616
 50
268.3189
 51
358.3189
210
0.0
220
0.0
230
1.0
  0
ARC
  8
0
  6
CONTINUOUS
 62
     2
  5
60
 10
956199.540344
 20
7302231.121319
 30
0.0
 40
105.000345
 50
268.3189
 51
358.3189
210
0.0
220
0.0
230
1.0
  0
ARC
  8
0
  6
CONTINUOUS
 62
     2
  5
61
 10
956190.739359
 20
7301931.249455
 30
0.0
 40
105.000345
 50
358.3189
 51
88.3189
210
0.0
220
0.0
230
1.0
  0
ARC
  8
0
  6
CONTINUOUS
 62
     2
  5
62
 10
956218.230703
 20
7302867.949199
 30
0.0
 40
105.000345
 50
358.3189
 51
88.3189
210
0.0
220
0.0
230
1.0
  0
ARC
  8
0
  6
CONTINUOUS
 62
     2
  5
63
 10
956503.328997
 20
7302867.08506
 30
0.0
 40
105.000345
 50
88.3189
 51
178.3189
210
0.0
220
0.0
230
1.0
  0
ARC
  8
0
  6
CONTINUOUS
 62
     2
  5
64
 10
956511.689933
 20
7303151.96333
 30
0.0
 40
105.000345
 50
178.3189
 51
268.3189
210
0.0
220
0.0
230
1.0
  0
ARC
  8
0
  6
CONTINUOUS
 62
     2
  5
65
 10
956227.031688
 20
7303167.821063
 30
0.0
 40
105.000345
 50
268.3189
 51
358.3189
210
0.0
220
0.0
230
1.0
  0
ARC
  8
0
  6
CONTINUOUS
 62
     2
  5
66
 10
955859.994891
 20
7301995.980389
 30
0.0
 40
50.000164
 50
88.3189
 51
178.3189
210
0.0
220
0.0
230
1.0
  0
ARC
  8
0
  6
CONTINUOUS
 62
     2
  5
67
 10
955994.182535
 20
7302307.178768
 30
0.0
 40
175.000575
 50
178.3189
 51
268.3189
210
0.0
220
0.0
230
1.0
  0
LINE
  8
0
  6
CONTINUOUS
 62
     2
  5
68
 10
955668.6
 20
7302291.781
 30
0.0
 11
955708.116
 21
7303638.182
 31
0.0
  0
ARC
  8
0
  6
CONTINUOUS
 62
     2
  5
69
 10
955610.101672
 20
7302003.314543
 30
0.0
 40
50.000164
 50
358.3189
 51
88.3189
210
0.0
220
0.0
230
1.0
  0
ARC
  8
0
  6
CONTINUOUS
 62
     2
  5
6A
 10
956254.093828
 20
7303493.368706
 30
0.0
 40
400.001315
 50
178.3189
 51
238.3189
210
0.0
220
0.0
230
1.0
  0
ARC
  8
0
  6
CONTINUOUS
 62
     2
  5
6B
 10
955891.878943
 20
7303082.350843
 30
0.0
 40
50.000164
 50
58.3189
 51
178.3189
210
0.0
220
0.0
230
1.0
  0
ARC
  8
0
  6
CONTINUOUS
 62
     2
  5
6C
 10
955907.141768
 20
7303602.393961
 30
0.0
 40
50.000164
 50
88.3189
 51
178.3189
210
0.0
220
0.0
230
1.0
  0
ARC
  8
0
  6
CONTINUOUS
 62
     2
  5
6D
 10
955914.475922
 20
7303852.28718
 30
0.0
 40
50.000164
 50
178.3189
 51
268.3189
210
0.0
220
0.0
230
1.0
  0
ARC
  8
0
  6
CONTINUOUS
 62
     2
  5
6E
 10
956294.476258
 20
7303591.026022
 30
0.0
 40
50.000164
 50
358.3189
 51
88.3189
210
0.0
220
0.0
230
1.0
  0
ARC
  8
0
  6
CONTINUOUS
 62
     2
  5
6F
 10
956301.810412
 20
7303840.919241
 30
0.0
 40
50.000164
 50
268.3189
 51
358.3189
210
0.0
220
0.0
230
1.0
  0
ARC
  8
0
  6
CONTINUOUS
 62
     2
  5
70
 10
956476.735666
 20
7303835.785333
 30
0.0
 40
50.000164
 50
178.3189
 51
268.3189
210
0.0
220
0.0
230
1.0
  0
ARC
  8
0
  6
CONTINUOUS
 62
     2
  5
71
 10
956590.681044
 20
7303457.278427
 30
0.0
 40
175.000575
 50
88.3189
 51
178.3189
210
0.0
220
0.0
230
1.0
  0
LINE
  8
0
  6
CONTINUOUS
 62
     2
  5
72
 10
955738.662
 20
7299568.546
 30
0.0
 11
955737.722
 21
7299536.512
 31
0.0
  0
LINE
  8
0
  6
CONTINUOUS
 62
     2
  5
73
 10
955584.6
 20
7299429.681
 30
0.0
 11
955587.87
 21
7299541.113
 31
0.0
  0
LINE
  8
0
  6
CENTER
 62
     7
  5
74
 10
954808.455
 20
7301434.165
 30
0.0
 11
954863.416
 21
7300096.444
 31
0.0
  0
LINE
  8
0
  6
CENTER
 62
     7
  5
75
 10
954863.416
 20
7300096.444
 30
0.0
 11
954874.944
 21
7299819.301
 31
0.0
  0
LINE
  8
0
  6
CENTER
 62
     7
  5
76
 10
954874.944
 20
7299819.301
 30
0.0
 11
954864.13
 21
7299450.826
 31
0.0
  0
LINE
  8
0
  6
CENTER
 62
     7
  5
77
 10
954874.944
 20
7299819.301
 30
0.0
 11
955243.42
 21
7299808.487
 31
0.0
  0
LINE
  8
0
  6
CENTER
 62
     7
  5
78
 10
954863.416
 20
7300096.444
 30
0.0
 11
953899.225
 21
7300124.742
 31
0.0
  0
LINE
  8
0
  6
CENTER
 62
     7
  5
79
 10
955213.262
 20
7299781.364
 30
0.0
 11
955131.708
 21
7301738.721
 31
0.0
  0
LINE
  8
0
  6
CENTER
 62
     7
  5
7A
 10
953837.621
 20
7299749.338
 30
0.0
 11
953859.742
 21
7300503.045
 31
0.0
  0
LINE
  8
0
  6
CENTER
 62
     7
  5
7B
 10
953837.621
 20
7299749.338
 30
0.0
 11
953835.05
 21
7299661.722
 31
0.0
  0
LINE
  8
0
  6
CENTER
 62
     7
  5
7C
 10
953837.621
 20
7299749.338
 30
0.0
 11
954607.153
 21
7299726.753
 31
0.0
  0
LINE
  8
0
  6
CENTER
 62
     7
  5
7D
 10
953859.742
 20
7300503.045
 30
0.0
 11
954582.437
 21
7300481.835
 31
0.0
  0
LINE
  8
0
  6
CONTINUOUS
 62
     7
  5
7E
 10
953820.954
 20
7301241.972
 30
0.0
 11
953506.713
 21
7301251.195
 31
0.0
  0
LINE
  8
0
  6
CONTINUOUS
 62
     7
  5
7F
 10
953822.155
 20
7301282.891
 30
0.0
 11
953510.342
 21
7301292.043
 31
0.0
  0
LINE
  8
0
  6
CONTINUOUS
 62
     7
  5
80
 10
954100.577
 20
7302038.174
 30
0.0
 11
954099.493
 21
7302001.231
 31
0.0
  0
LINE
  8
0
  6
CONTINUOUS
 62
     7
  5
81
 10
954058.907
 20
7302013.602
 30
0.0
 11
954058.579
 21
7302002.431
 31
0.0
  0
LINE
  8
0
  6
CONTINUOUS
 62
     7
  5
82
 10
954023.079
 20
7301698.925
 30
0.0
 11
953976.357
 21
7301605.737
 31
0.0
  0
LINE
  8
0
  6
CONTINUOUS
 62
     7
  5
83
 10
953986.501
 20
7301717.306
 30
0.0
 11
953939.659
 21
7301624.194
 31
0.0
  0
LINE
  8
0
  6
CONTINUOUS
 62
     7
  5
84
 10
953904.277
 20
7301320.551
 30
0.0
 11
953903.442
 21
7301292.087
 31
0.0
  0
POINT
  8
0
  6
CONTINUOUS
 62
     7
  5
85
 10
953863.296
 20
7301321.753
 30
0.0
  0
LINE
  8
0
  6
CONTINUOUS
 62
     7
  5
86
 10
953901.563
 20
7301228.093
 30
0.0
 11
953881.496
 21
7300544.364
 31
0.0
  0
LINE
  8
0
  6
CONTINUOUS
 62
     7
  5
87
 10
953859.747
 20
7301200.832
 30
0.0
 11
953839.285
 21
7300503.646
 31
0.0
  0
LINE
  8
0
  6
CONTINUOUS
 62
     7
  5
88
 10
953859.378
 20
7299790.723
 30
0.0
 11
953879.032
 21
7300460.387
 31
0.0
  0
LINE
  8
0
  6
CONTINUOUS
 62
     7
  5
89
 10
953817.164
 20
7299749.938
 30
0.0
 11
953839.285
 21
7300503.646
 31
0.0
  0
LINE
  8
0
  6
CONTINUOUS
 62
     7
  5
8A
 10
953856.913
 20
7299706.746
 30
0.0
 11
953855.574
 21
7299661.12
 31
0.0
  0
LINE
  8
0
  6
CONTINUOUS
 62
     7
  5
8B
 10
953817.164
 20
7299749.938
 30
0.0
 11
953814.593
 21
7299662.323
 31
0.0
  0
LINE
  8
0
  6
CONTINUOUS
 62
     7
  5
8C
 10
954783.988
 20
7300116.217
 30
0.0
 11
953899.736
 21
7300142.169
 31
0.0
  0
LINE
  8
0
  6
CONTINUOUS
 62
     7
  5
8D
 10
954792.578
 20
7300080.945
 30
0.0
 11
953898.709
 21
7300107.18
 31
0.0
  0
LINE
  8
0
  6
CONTINUOUS
 62
     2
  5
8E
 10
954992.024
 20
7299840.793
 30
0.0
 11
955003.73
 21
7299840.449
 31
0.0
  0
LINE
  8
0
  6
CONTINUOUS
 62
     2
  5
8F
 10
954999.165
 20
7299790.538
 30
0.0
 11
955005.826
 21
7299790.342
 31
0.0
  0
LINE
  8
0
  6
CONTINUOUS
 62
     7
  5
90
 10
954888.36
 20
7300097.458
 30
0.0
 11
954895.09
 21
7299936.573
 31
0.0
  0
LINE
  8
0
  6
CONTINUOUS
 62
     7
  5
91
 10
954841.013
 20
7300033.053
 30
0.0
 11
954849.929
 21
7299818.154
 31
0.0
  0
LINE
  8
0
  6
CONTINUOUS
 62
     7
  5
92
 10
954896.242
 20
7299693.543
 30
0.0
 11
954889.097
 21
7299450.093
 31
0.0
  0
LINE
  8
0
  6
CONTINUOUS
 62
     7
  5
93
 10
954849.916
 20
7299820.036
 30
0.0
 11
954839.358
 21
7299460.311
 31
0.0
  0
LINE
  8
0
  6
CONTINUOUS
 62
     7
  5
94
 10
954834.45
 20
7301411.25
 30
0.0
 11
954888.428
 21
7300097.456
 31
0.0
  0
LINE
  8
0
  6
CONTINUOUS
 62
     7
  5
95
 10
954785.883
 20
7301374.217
 30
0.0
 11
954835.485
 21
7300168.249
 31
0.0
  0
LINE
  8
0
  6
CONTINUOUS
 62
     2
  5
96
 10
955192.643
 20
7299677.71
 30
0.0
 11
955192.052
 21
7299691.941
 31
0.0
  0
ARC
  8
0
  6
CONTINUOUS
 62
     7
  5
97
 10
954785.475846
 20
7300166.209373
 30
0.0
 40
50.000164
 50
268.3189
 51
2.350944
210
0.0
220
0.0
230
1.0
  0
ARC
  8
0
  6
CONTINUOUS
 62
     7
  5
98
 10
954791.066664
 20
7300030.986713
 30
0.0
 40
50.000164
 50
2.387006
 51
88.3189
210
0.0
220
0.0
230
1.0
  0
ARC
  8
0
  6
CONTINUOUS
 62
     7
  5
99
 10
954995.002348
 20
7299940.754837
 30
0.0
 40
100.000329
 50
182.387006
 51
268.3189
210
0.0
220
0.0
230
1.0
  0
ARC
  8
0
  6
CONTINUOUS
 62
     7
  5
9A
 10
954996.238964
 20
7299690.610072
 30
0.0
 40
100.000329
 50
88.3189
 51
178.3189
210
0.0
220
0.0
230
1.0
  0
ARC
  8
0
  6
CONTINUOUS
 62
     7
  5
9B
 10
954789.436444
 20
7299461.78768
 30
0.0
 40
50.000164
 50
348.222006
 51
358.3189
210
0.0
220
0.0
230
1.0
  0
ARC
  8
0
  6
CONTINUOUS
 62
     7
  5
9C
 10
953379.363542
 20
7302022.380602
 30
0.0
 40
720.502369
 50
333.318956
 51
358.3189
210
0.0
220
0.0
230
1.0
  0
ARC
  8
0
  6
CONTINUOUS
 62
     7
  5
9D
 10
953379.363542
 20
7302022.380602
 30
0.0
 40
679.502234
 50
333.318956
 51
358.3189
210
0.0
220
0.0
230
1.0
  0
ARC
  8
0
  6
CONTINUOUS
 62
     7
  5
9E
 10
954583.502208
 20
7301300.630639
 30
0.0
 40
679.502234
 50
153.318956
 51
178.3189
210
0.0
220
0.0
230
1.0
  0
ARC
  8
0
  6
CONTINUOUS
 62
     7
  5
9F
 10
954583.502208
 20
7301300.630639
 30
0.0
 40
720.502369
 50
153.318956
 51
178.3189
210
0.0
220
0.0
230
1.0
  0
ARC
  8
0
  6
CONTINUOUS
 62
     7
  5
A0
 10
953823.326914
 20
7301322.937049
 30
0.0
 40
40.000132
 50
268.3189
 51
358.3189
210
0.0
220
0.0
230
1.0
  0
ARC
  8
0
  6
CONTINUOUS
 62
     7
  5
A1
 10
953819.777184
 20
7301201.988731
 30
0.0
 40
40.000132
 50
358.3189
 51
88.3189
210
0.0
220
0.0
230
1.0
  0
ARC
  8
0
  6
CONTINUOUS
 62
     7
  5
A2
 10
953911.499621
 20
7300543.512345
 30
0.0
 40
30.000099
 50
178.3189
 51
268.3189
210
0.0
220
0.0
230
1.0
  0
ARC
  8
0
  6
CONTINUOUS
 62
     7
  5
A3
 10
953909.035345
 20
7300459.548223
 30
0.0
 40
30.000099
 50
88.3189
 51
178.3189
210
0.0
220
0.0
230
1.0
  0
ARC
  8
0
  6
CONTINUOUS
 62
     7
  5
A4
 10
953889.379812
 20
7299789.834395
 30
0.0
 40
30.000099
 50
178.3189
 51
268.3189
210
0.0
220
0.0
230
1.0
  0
ARC
  8
0
  6
CONTINUOUS
 62
     7
  5
A5
 10
953886.915536
 20
7299705.870273
 30
0.0
 40
30.000099
 50
88.3189
 51
178.3189
210
0.0
220
0.0
230
1.0
  0
ARC
  8
0
  6
CONTINUOUS
 62
     7
  5
A6
 10
954434.841432
 20
7299644.113059
 30
0.0
 40
620.50204
 50
178.3189
 51
195.240972
210
0.0
220
0.0
230
1.0
  0
ARC
  8
0
  6
CENTER
 62
     7
  5
A7
 10
954434.841432
 20
7299644.113059
 30
0.0
 40
600.001973
 50
178.3189
 51
195.837519
210
0.0
220
0.0
230
1.0
  0
ARC
  8
0
  6
CONTINUOUS
 62
     7
  5
A8
 10
954434.841432
 20
7299644.113059
 30
0.0
 40
579.501905
 50
178.3189
 51
196.478453
210
0.0
220
0.0
230
1.0
  0
LINE
  8
0
  6
CONTINUOUS
 62
     7
  5
A9
 10
953899.736
 20
7300142.169
 30
0.0
 11
953898.709
 21
7300107.18
 31
0.0
  0
ARC
  8
0
  6
CONTINUOUS
 62
     7
  5
AA
 10
953923.447681
 20
7301291.486224
 30
0.0
 40
20.000066
 50
178.3189
 51
268.3189
210
0.0
220
0.0
230
1.0
  0
ARC
  8
0
  6
CONTINUOUS
 62
     7
  5
AB
 10
953921.570138
 20
7301227.513559
 30
0.0
 40
20.000066
 50
88.3189
 51
178.3189
210
0.0
220
0.0
230
1.0
  0
LINE
  8
0
  6
CONTINUOUS
 62
     2
  5
AC
 10
953922.844
 20
7301271.517
 30
0.0
 11
953922.141
 21
7301247.564
 31
0.0
  0
ARC
  8
0
  6
CONTINUOUS
 62
     2
  5
AD
 10
955092.122956
 20
7299687.795958
 30
0.0
 40
100.000329
 50
2.387267
 51
88.3189
210
0.0
220
0.0
230
1.0
  0
LINE
  8
0
  6
CONTINUOUS
 62
     2
  5
AE
 10
955341.788
 20
7299830.528
 30
0.0
 11
955390.579
 21
7299829.096
 31
0.0
  0
LINE
  8
0
  6
CONTINUOUS
 62
     2
  5
AF
 10
955289.637
 20
7299581.928
 30
0.0
 11
955383.244
 21
7299579.18
 31
0.0
  0
ARC
  8
0
  6
CONTINUOUS
 62
     2
  5
B0
 10
955292.542568
 20
7299681.913813
 30
0.0
 40
100.000329
 50
182.387267
 51
268.3189
210
0.0
220
0.0
230
1.0
  0
LINE
  8
0
  6
CONTINUOUS
 62
     2
  5
B1
 10
955424.827
 20
7302014.862
 30
0.0
 11
955217.726
 21
7301819.636
 31
0.0
  0
LINE
  8
0
  6
CONTINUOUS
 62
     2
  5
B2
 10
955015.9
 20
7301629.576
 30
0.0
 11
954957.577
 21
7301574.658
 31
0.0
  0
ARC
  8
0
  6
CONTINUOUS
 62
     2
  5
B3
 10
954934.362952
 20
7301415.321585
 30
0.0
 40
100.000329
 50
133.296094
 51
182.350944
210
0.0
220
0.0
230
1.0
  0
LINE
  8
0
  6
CONTINUOUS
 62
     2
  5
B4
 10
955599.078
 20
7299922.984
 30
0.0
 11
955660.092
 21
7302001.899
 31
0.0
  0
ARC
  8
0
  6
CONTINUOUS
 62
     2
  5
B5
 10
955499.111372
 20
7299925.959664
 30
0.0
 40
100.000329
 50
268.3189
 51
358.3189
210
0.0
220
0.0
230
1.0
  0
LINE
  8
0
  6
CENTER
 62
     7
  5
B6
 10
955052.535
 20
7302604.778
 30
0.0
 11
955054.253
 21
7302663.321
 31
0.0
  0
LINE
  8
0
  6
CENTER
 62
     7
  5
B7
 10
955052.535
 20
7302604.778
 30
0.0
 11
955195.308
 21
7302453.303
 31
0.0
  0
LINE
  8
0
  6
CENTER
 62
     7
  5
B8
 10
955067.575
 20
7302662.93
 30
0.0
 11
954771.101
 21
7302671.631
 31
0.0
  0
LINE
  8
0
  6
CENTER
 62
     7
  5
B9
 10
955075.643
 20
7302937.806
 30
0.0
 11
954779.168
 21
7302946.507
 31
0.0
  0
LINE
  8
0
  6
CENTER
 62
     7
  5
BA
 10
955084.372
 20
7303235.228
 30
0.0
 11
954223.877
 21
7303260.483
 31
0.0
  0
LINE
  8
0
  6
CONTINUOUS
 62
     2
  5
BB
 10
955016.926
 20
7302756.954
 30
0.0
 11
955019.568
 21
7302846.983
 31
0.0
  0
ARC
  8
0
  6
CONTINUOUS
 62
     2
  5
BC
 10
954956.979754
 20
7302758.735103
 30
0.0
 40
60.000197
 50
268.3189
 51
358.3189
210
0.0
220
0.0
230
1.0
  0
LINE
  8
0
  6
CONTINUOUS
 62
     2
  5
BD
 10
955024.993
 20
7303031.829
 30
0.0
 11
955028.955
 21
7303166.808
 31
0.0
  0
ARC
  8
0
  6
CONTINUOUS
 62
     2
  5
BE
 10
954959.620049
 20
7302848.696662
 30
0.0
 40
60.000197
 50
358.3189
 51
88.3189
210
0.0
220
0.0
230
1.0
  0
ARC
  8
0
  6
CONTINUOUS
 62
     2
  5
BF
 10
954965.047324
 20
7303033.617645
 30
0.0
 40
60.000197
 50
268.3189
 51
358.3189
210
0.0
220
0.0
230
1.0
  0
LINE
  8
0
  6
CONTINUOUS
 62
     2
  5
C0
 10
954803.606
 20
7302645.682
 30
0.0
 11
954805.071
 21
7302695.616
 31
0.0
  0
LINE
  8
0
  6
CONTINUOUS
 62
     2
  5
C1
 10
954963.277
 20
7302973.633
 30
0.0
 11
954813.139
 21
7302970.492
 31
0.0
  0
LINE
  8
0
  6
CONTINUOUS
 62
     2
  5
C2
 10
954961.372
 20
7302908.699
 30
0.0
 11
954811.674
 21
7302920.571
 31
0.0
  0
LINE
  8
0
  6
CONTINUOUS
 62
     2
  5
C3
 10
954811.674
 20
7302920.571
 30
0.0
 11
954813.139
 21
7302970.492
 31
0.0
  0
LINE
  8
0
  6
CONTINUOUS
 62
     2
  5
C4
 10
954803.606
 20
7302645.682
 30
0.0
 11
954982.671
 21
7302631.479
 31
0.0
  0
LINE
  8
0
  6
CONTINUOUS
 62
     2
  5
C5
 10
954805.071
 20
7302695.616
 30
0.0
 11
954955.21
 21
7302698.757
 31
0.0
  0
LINE
  8
0
  6
CONTINUOUS
 62
     2
  5
C6
 10
954980.495
 20
7303218.269
 30
0.0
 11
954249.799
 21
7303239.714
 31
0.0
  0
LINE
  8
0
  6
CONTINUOUS
 62
     2
  5
C7
 10
954981.668
 20
7303258.242
 30
0.0
 11
954250.972
 21
7303279.687
 31
0.0
  0
LINE
  8
0
  6
CONTINUOUS
 62
     2
  5
C8
 10
955033.063
 20
7303306.772
 30
0.0
 11
955058.379
 21
7304169.356
 31
0.0
  0
ARC
  8
0
  6
CONTINUOUS
 62
     2
  5
C9
 10
954983.110622
 20
7303308.20682
 30
0.0
 40
50.000164
 50
268.3189
 51
358.3189
210
0.0
220
0.0
230
1.0
  0
ARC
  8
0
  6
CONTINUOUS
 62
     2
  5
CA
 10
954979.003496
 20
7303168.266617
 30
0.0
 40
50.000164
 50
358.3189
 51
88.3189
210
0.0
220
0.0
230
1.0
  0
LINE
  8
0
  6
CONTINUOUS
 62
     2
  5
CB
 10
954982.671
 20
7302631.479
 30
0.0
 11
955119.57
 21
7302486.294
 31
0.0
  0
LINE
  8
0
  6
CONTINUOUS
 62
     2
  5
CC
 10
955088.708
 20
7302276.949
 30
0.0
 11
955133.866
 21
7302425.203
 31
0.0
  0
LINE
  8
0
  6
CONTINUOUS
 62
     2
  5
CD
 10
955203.838
 20
7302397.355
 30
0.0
 11
955478.744
 21
7303298.944
 31
0.0
  0
LINE
  8
0
  6
CONTINUOUS
 62
     2
  5
CE
 10
955207.272
 20
7302665.896
 30
0.0
 11
955383.967
 21
7303245.426
 31
0.0
  0
ARC
  8
0
  6
CONTINUOUS
 62
     2
  5
CF
 10
955074.077292
 20
7302443.415744
 30
0.0
 40
62.500205
 50
343.0439
 51
43.3189
210
0.0
220
0.0
230
1.0
  0
LINE
  8
0
  6
CONTINUOUS
 62
     2
  5
D0
 10
955349.002
 20
7304185.883
 30
0.0
 11
955194.032
 21
7304190.431
 31
0.0
  0
LINE
  8
0
  6
CONTINUOUS
 62
     2
  5
D1
 10
955363.425
 20
7304250.449
 30
0.0
 11
954839.034
 21
7304265.84
 31
0.0
  0
LINE
  8
0
  6
CONTINUOUS
 62
     2
  5
D2
 10
955009.919
 20
7304220.823
 30
0.0
 11
954872.173
 21
7304224.866
 31
0.0
  0
LINE
  8
0
  6
CENTER
 62
     7
  5
D3
 10
955116.638
 20
7304217.691
 30
0.0
 11
955083.129
 21
7304218.674
 31
0.0
  0
ARC
  8
0
  6
CONTINUOUS
 62
     2
  5
D4
 10
955008.428122
 20
7304170.838214
 30
0.0
 40
50.000164
 50
358.3189
 51
88.3189
210
0.0
220
0.0
230
1.0
  0
LINE
  8
0
  6
CONTINUOUS
 62
     2
  5
D5
 10
955383.967
 20
7303245.426
 30
0.0
 11
955409.68
 21
7304121.536
 31
0.0
  0
LINE
  8
0
  6
CONTINUOUS
 62
     2
  5
D6
 10
955414.888
 20
7304298.977
 30
0.0
 11
955415.21
 21
7304309.946
 31
0.0
  0
ARC
  8
0
  6
CONTINUOUS
 62
     2
  5
D7
 10
955347.182778
 20
7304123.379781
 30
0.0
 40
62.500205
 50
358.3189
 51
88.3189
210
0.0
220
0.0
230
1.0
  0
ARC
  8
0
  6
CONTINUOUS
 62
     2
  5
D8
 10
955364.884688
 20
7304300.437259
 30
0.0
 40
50.000164
 50
268.3189
 51
358.3189
210
0.0
220
0.0
230
1.0
  0
LINE
  8
0
  6
CONTINUOUS
 62
     2
  5
D9
 10
955659.461
 20
7303689.709
 30
0.0
 11
955659.59
 21
7303689.705
 31
0.0
  0
LINE
  8
0
  6
CONTINUOUS
 62
     2
  5
DA
 10
955529.805
 20
7303783.499
 30
0.0
 11
955662.229
 21
7303779.613
 31
0.0
  0
LINE
  8
0
  6
CONTINUOUS
 62
     2
  5
DB
 10
955476.381
 20
7303840.154
 30
0.0
 11
955490.104
 21
7304307.748
 31
0.0
  0
ARC
  8
0
  6
CONTINUOUS
 62
     2
  5
DC
 10
955658.128647
 20
7303639.715302
 30
0.0
 40
50.000164
 50
358.3189
 51
88.3189
210
0.0
220
0.0
230
1.0
  0
ARC
  8
0
  6
CONTINUOUS
 62
     2
  5
DD
 10
955657.064989
 20
7303609.733502
 30
0.0
 40
80.000263
 50
88.3189
 51
163.0439
210
0.0
220
0.0
230
1.0
  0
ARC
  8
0
  6
CONTINUOUS
 62
     2
  5
DE
 10
955531.405881
 20
7303838.519114
 30
0.0
 40
55.000181
 50
178.3189
 51
243.352672
210
0.0
220
0.0
230
1.0
  0
ARC
  8
0
  6
CONTINUOUS
 62
     2
  5
DF
 10
955663.702604
 20
7303829.634148
 30
0.0
 40
50.000164
 50
268.3189
 51
358.3189
210
0.0
220
0.0
230
1.0
  0
LINE
  8
0
  6
CENTER
 62
     7
  5
E0
 10
955312.971
 20
7302107.047
 30
0.0
 11
955120.488
 21
7302308.876
 31
0.0
  0
LINE
  8
0
  6
CONTINUOUS
 62
     2
  5
E1
 10
955353.328
 20
7302150.987
 30
0.0
 11
955458.633
 21
7302147.896
 31
0.0
  0
LINE
  8
0
  6
CONTINUOUS
 62
     2
  5
E2
 10
955532.159
 20
7302055.693
 30
0.0
 11
955611.565
 21
7302053.362
 31
0.0
  0
LINE
  8
0
  6
CONTINUOUS
 62
     2
  5
E3
 10
955318.685
 20
7302166.346
 30
0.0
 11
955238.71
 21
7302250.048
 31
0.0
  0
ARC
  8
0
  6
CONTINUOUS
 62
     2
  5
E4
 10
955354.805261
 20
7302200.889714
 30
0.0
 40
50.000164
 50
223.661272
 51
268.3189
210
0.0
220
0.0
230
1.0
  0
ARC
  8
0
  6
CONTINUOUS
 62
     2
  5
E5
 10
955347.269689
 20
7302353.631307
 30
0.0
 40
150.000493
 50
163.0439
 51
223.661272
210
0.0
220
0.0
230
1.0
  0
ARC
  8
0
  6
CONTINUOUS
 62
     2
  5
E6
 10
955518.652003
 20
7302296.124339
 30
0.0
 40
150.000493
 50
268.3189
 51
358.3189
210
0.0
220
0.0
230
1.0
  0
ARC
  8
0
  6
CONTINUOUS
 62
     2
  5
E7
 10
955610.101672
 20
7302003.314543
 30
0.0
 40
50.000164
 50
358.3189
 51
88.3189
210
0.0
220
0.0
230
1.0
  0
ARC
  8
0
  6
CONTINUOUS
 62
     2
  5
E8
 10
955527.710676
 20
7301905.689261
 30
0.0
 40
150.000493
 50
88.3189
 51
118.85995
210
0.0
220
0.0
230
1.0
  0
LINE
  8
0
  6
CONTINUOUS
 62
     2
  5
E9
 10
955713.69
 20
7303828.134
 30
0.0
 11
955739.496
 21
7304707.407
 31
0.0
  0
LINE
  8
0
  6
CENTER
 62
     7
  5
EA
 10
955419.81
 20
7303188.61
 30
0.0
 11
955464.622
 21
7304715.475
 31
0.0
  0
LINE
  8
0
  6
CENTER
 62
     7
  5
EB
 10
955127.388
 20
7302275.272
 30
0.0
 11
955580.03
 21
7303759.859
 31
0.0
  0
LINE
  8
0
  6
CONTINUOUS
 62
     2
  5
EC
 10
955379.593
 20
7301972.148
 30
0.0
 11
955088.708
 21
7302276.949
 31
0.0
  0
LINE
  8
0
  6
CONTINUOUS
 62
     2
  5
ED
 10
954969.324
 20
7302163.123
 30
0.0
 11
955088.708
 21
7302276.949
 31
0.0
  0
LINE
  8
0
  6
CONTINUOUS
 62
     2
  5
EE
 10
955022.248
 20
7302107.634
 30
0.0
 11
954969.324
 21
7302163.123
 31
0.0
  0
LINE
  8
0
  6
CONTINUOUS
 62
     2
  5
EF
 10
954532.244
 20
7301640.002
 30
0.0
 11
955022.248
 21
7302107.634
 31
0.0
  0
LINE
  8
0
  6
CONTINUOUS
 62
     2
  5
F0
 10
954785.883
 20
7301374.217
 30
0.0
 11
954532.244
 21
7301640.002
 31
0.0
  0
ARC
  8
0
  6
CONTINUOUS
 62
     7
  5
F1
 10
957985.364886
 20
7301295.425807
 30
0.0
 40
492.001618
 50
88.784725
 51
177.83195
210
0.0
220
0.0
230
1.0
  0
ARC
  8
0
  6
CONTINUOUS
 62
     2
  5
F2
 10
957985.364886
 20
7301295.425807
 30
0.0
 40
520.00171
 50
88.3189
 51
178.3189
210
0.0
220
0.0
230
1.0
  0
ARC
  8
0
  6
CONTINUOUS
 62
     2
  5
F3
 10
957985.364886
 20
7301295.425807
 30
0.0
 40
920.003025
 50
88.3189
 51
109.852322
210
0.0
220
0.0
230
1.0
  0
LINE
  8
0
  6
CONTINUOUS
 62
     7
  5
F4
 10
957603.388
 20
7301232.594
 30
0.0
 11
957579.571
 21
7301233.293
 31
0.0
  0
ARC
  8
0
  6
CONTINUOUS
 62
     7
  5
F5
 10
957985.364886
 20
7301295.425807
 30
0.0
 40
380.001249
 50
88.3189
 51
178.3189
210
0.0
220
0.0
230
1.0
  0
ARC
  8
0
  6
CONTINUOUS
 62
     7
  5
F6
 10
957985.364886
 20
7301295.425807
 30
0.0
 40
404.001328
 50
90.152594
 51
176.485206
210
0.0
220
0.0
230
1.0
  0
LINE
  8
0
  6
CONTINUOUS
 62
     2
  5
F7
 10
958012.339
 20
7302215.048
 30
0.0
 11
958593.108
 21
7302198.003
 31
0.0
  0
LINE
  8
0
  6
CONTINUOUS
 62
     2
  5
F8
 10
958000.606
 20
7301815.276
 30
0.0
 11
958044.609
 21
7301813.985
 31
0.0
  0
LINE
  8
0
  6
CONTINUOUS
 62
     7
  5
F9
 10
957996.498
 20
7301675.313
 30
0.0
 11
958070.513
 21
7301673.14
 31
0.0
  0
LINE
  8
0
  6
CONTINUOUS
 62
     2
  5
FA
 10
957065.83
 20
7301322.389
 30
0.0
 11
957056.004
 21
7300987.618
 31
0.0
  0
LINE
  8
0
  6
CONTINUOUS
 62
     2
  5
FB
 10
957465.595
 20
7301310.657
 30
0.0
 11
957464.306
 21
7301266.713
 31
0.0
  0
LINE
  8
0
  6
CONTINUOUS
 62
     7
  5
FC
 10
957605.558
 20
7301306.549
 30
0.0
 11
957603.388
 21
7301232.594
 31
0.0
  0
LINE
  8
0
  6
CONTINUOUS
 62
     7
  5
FD
 10
958013.077
 20
7301728.505
 30
0.0
 11
958013.137
 21
7301730.527
 31
0.0
  0
LINE
  8
0
  6
CONTINUOUS
 62
     7
  5
FE
 10
958013.137
 20
7301730.527
 30
0.0
 11
957993.147
 21
7301731.114
 31
0.0
  0
LINE
  8
0
  6
CONTINUOUS
 62
     7
  5
FF
 10
957993.147
 20
7301731.114
 30
0.0
 11
957994.174
 21
7301766.104
 31
0.0
  0
LINE
  8
0
  6
CONTINUOUS
 62
     7
  5
100
 10
957994.174
 20
7301766.104
 30
0.0
 11
958014.164
 21
7301765.517
 31
0.0
  0
LINE
  8
0
  6
CONTINUOUS
 62
     7
  5
101
 10
958014.164
 20
7301765.517
 30
0.0
 11
958014.223
 21
7301767.532
 31
0.0
  0
ARC
  8
0
  6
CONTINUOUS
 62
     2
  5
102
 10
957995.234642
 20
7301768.062682
 30
0.0
 40
19.000062
 50
358.3189
 51
88.3189
210
0.0
220
0.0
230
1.0
  0
LINE
  8
0
  6
CONTINUOUS
 62
     2
  5
103
 10
958044.609
 20
7301813.985
 30
0.0
 11
958043.161
 21
7301764.666
 31
0.0
  0
LINE
  8
0
  6
CONTINUOUS
 62
     7
  5
104
 10
958043.161
 20
7301764.666
 30
0.0
 11
958063.152
 21
7301764.079
 31
0.0
  0
LINE
  8
0
  6
CONTINUOUS
 62
     7
  5
105
 10
958063.152
 20
7301764.079
 30
0.0
 11
958062.125
 21
7301729.09
 31
0.0
  0
LINE
  8
0
  6
CONTINUOUS
 62
     7
  5
106
 10
958062.125
 20
7301729.09
 30
0.0
 11
958042.134
 21
7301729.676
 31
0.0
  0
LINE
  8
0
  6
CONTINUOUS
 62
     7
  5
107
 10
958042.134
 20
7301729.676
 30
0.0
 11
958042.075
 21
7301727.654
 31
0.0
  0
ARC
  8
0
  6
CONTINUOUS
 62
     7
  5
108
 10
958072.057199
 20
7301726.791084
 30
0.0
 40
30.000099
 50
178.3189
 51
268.3189
210
0.0
220
0.0
230
1.0
  0
ARC
  8
0
  6
CONTINUOUS
 62
     7
  5
109
 10
957983.095213
 20
7301729.402043
 30
0.0
 40
30.000099
 50
268.3189
 51
358.3189
210
0.0
220
0.0
230
1.0
  0
LINE
  8
0
  6
CONTINUOUS
 62
     7
  5
10A
 10
957551.356
 20
7301293.12
 30
0.0
 11
957549.402
 21
7301293.177
 31
0.0
  0
LINE
  8
0
  6
CONTINUOUS
 62
     7
  5
10B
 10
957549.402
 20
7301293.177
 30
0.0
 11
957549.988
 21
7301313.161
 31
0.0
  0
LINE
  8
0
  6
CONTINUOUS
 62
     7
  5
10C
 10
957549.988
 20
7301313.161
 30
0.0
 11
957515.073
 21
7301314.186
 31
0.0
  0
LINE
  8
0
  6
CONTINUOUS
 62
     7
  5
10D
 10
957515.073
 20
7301314.186
 30
0.0
 11
957514.487
 21
7301294.202
 31
0.0
  0
LINE
  8
0
  6
CONTINUOUS
 62
     7
  5
10E
 10
957514.487
 20
7301294.202
 30
0.0
 11
957512.398
 21
7301294.263
 31
0.0
  0
ARC
  8
0
  6
CONTINUOUS
 62
     7
  5
10F
 10
957512.962704
 20
7301313.292146
 30
0.0
 40
19.000062
 50
178.3189
 51
268.3189
210
0.0
220
0.0
230
1.0
  0
LINE
  8
0
  6
CONTINUOUS
 62
     2
  5
110
 10
957464.306
 20
7301266.713
 30
0.0
 11
957513.638
 21
7301265.266
 31
0.0
  0
LINE
  8
0
  6
CONTINUOUS
 62
     7
  5
111
 10
957513.638
 20
7301265.266
 30
0.0
 11
957513.051
 21
7301245.282
 31
0.0
  0
LINE
  8
0
  6
CONTINUOUS
 62
     7
  5
112
 10
957513.051
 20
7301245.282
 30
0.0
 11
957547.966
 21
7301244.258
 31
0.0
  0
LINE
  8
0
  6
CONTINUOUS
 62
     7
  5
113
 10
957547.966
 20
7301244.258
 30
0.0
 11
957548.553
 21
7301264.241
 31
0.0
  0
LINE
  8
0
  6
CONTINUOUS
 62
     7
  5
114
 10
957548.553
 20
7301264.241
 30
0.0
 11
957550.507
 21
7301264.184
 31
0.0
  0
ARC
  8
0
  6
CONTINUOUS
 62
     7
  5
115
 10
957549.65779
 20
7301234.181333
 30
0.0
 40
30.000099
 50
358.3189
 51
88.3189
210
0.0
220
0.0
230
1.0
  0
ARC
  8
0
  6
CONTINUOUS
 62
     7
  5
116
 10
957552.268749
 20
7301323.14332
 30
0.0
 40
30.000099
 50
268.3189
 51
358.3189
210
0.0
220
0.0
230
1.0
  0
ARC
  8
0
  6
CONTINUOUS
 62
     2
  5
117
 10
957985.364886
 20
7301295.425807
 30
0.0
 40
920.003025
 50
156.733603
 51
178.3189
210
0.0
220
0.0
230
1.0
  0
LINE
  8
0
  6
CONTINUOUS
 62
     2
  5
118
 10
958460.463
 20
7301801.78
 30
0.0
 11
958459.639
 21
7301773.722
 31
0.0
  0
LINE
  8
0
  6
CONTINUOUS
 62
     2
  5
119
 10
958043.785
 20
7301785.927
 30
0.0
 11
958459.639
 21
7301773.722
 31
0.0
  0
LINE
  8
0
  6
CONTINUOUS
 62
     2
  5
11A
 10
958460.463
 20
7301801.78
 30
0.0
 11
958576.872
 21
7301798.363
 31
0.0
  0
ARC
  8
0
  6
CONTINUOUS
 62
     2
  5
11B
 10
958566.116728
 20
7301278.381232
 30
0.0
 40
920.003025
 50
79.428383
 51
88.3189
210
0.0
220
0.0
230
1.0
  0
ARC
  8
0
  6
CONTINUOUS
 62
     2
  5
11C
 10
958566.116728
 20
7301278.381232
 30
0.0
 40
520.00171
 50
72.450481
 51
86.165183
210
0.0
220
0.0
230
1.0
  0
LINE
  8
0
  6
CONTINUOUS
 62
     2
  5
11D
 10
957459.73
 20
7301110.805
 30
0.0
 11
957487.726
 21
7301109.983
 31
0.0
  0
LINE
  8
0
  6
CONTINUOUS
 62
     2
  5
11E
 10
957454.595
 20
7300935.852
 30
0.0
 11
957054.829
 21
7300947.585
 31
0.0
  0
LINE
  8
0
  6
CONTINUOUS
 62
     7
  5
11F
 10
957492.302
 20
7301265.892
 30
0.0
 11
957487.726
 21
7301109.983
 31
0.0
  0
LINE
  8
0
  6
CONTINUOUS
 62
     7
  5
120
 10
958396.44
 20
7301550.165
 30
0.0
 11
958593.324
 21
7301544.387
 31
0.0
  0
LINE
  8
0
  6
CONTINUOUS
 62
     7
  5
121
 10
958449.214
 20
7301340.578
 30
0.0
 11
958580.224
 21
7301336.732
 31
0.0
  0
LINE
  8
0
  6
CONTINUOUS
 62
     7
  5
122
 10
958306.665
 20
7301334.528
 30
0.0
 11
958299.733
 21
7301334.731
 31
0.0
  0
LINE
  8
0
  6
CONTINUOUS
 62
     7
  5
123
 10
958305.596
 20
7301298.125
 30
0.0
 11
958298.664
 21
7301298.329
 31
0.0
  0
LINE
  8
0
  6
CONTINUOUS
 62
     7
  5
124
 10
958292.504
 20
7301292.513
 30
0.0
 11
958291.878
 21
7301271.177
 31
0.0
  0
LINE
  8
0
  6
CONTINUOUS
 62
     7
  5
125
 10
958435.449
 20
7300926.455
 30
0.0
 11
958280.547
 21
7300931.001
 31
0.0
  0
LINE
  8
0
  6
CONTINUOUS
 62
     7
  5
126
 10
957709.683
 20
7300969.381
 30
0.0
 11
957783.908
 21
7300967.203
 31
0.0
  0
LINE
  8
0
  6
CONTINUOUS
 62
     7
  5
127
 10
958133.565
 20
7300955.391
 30
0.0
 11
958268.436
 21
7300867.247
 31
0.0
  0
LINE
  8
0
  6
CONTINUOUS
 62
     7
  5
128
 10
957939.304
 20
7300961.295
 30
0.0
 11
958096.991
 21
7300863.453
 31
0.0
  0
LINE
  8
0
  6
CONTINUOUS
 62
     7
  5
129
 10
957816.606
 20
7300862.998
 30
0.0
 11
957819.339
 21
7300956.125
 31
0.0
  0
LINE
  8
0
  6
CONTINUOUS
 62
     7
  5
12A
 10
957793.567
 20
7300956.882
 30
0.0
 11
957790.939
 21
7300867.319
 31
0.0
  0
LINE
  8
0
  6
CONTINUOUS
 62
     7
  5
12B
 10
957346.217
 20
7300820.431
 30
0.0
 11
957728.495
 21
7300809.211
 31
0.0
  0
LINE
  8
0
  6
CONTINUOUS
 62
     7
  5
12C
 10
957728.495
 20
7300809.211
 30
0.0
 11
957727.028
 21
7300759.216
 31
0.0
  0
LINE
  8
0
  6
CONTINUOUS
 62
     7
  5
12D
 10
957724.484
 20
7300672.548
 30
0.0
 11
957341.401
 21
7300683.791
 31
0.0
  0
LINE
  8
0
  6
CONTINUOUS
 62
     7
  5
12E
 10
957341.401
 20
7300683.791
 30
0.0
 11
957345.473
 21
7300822.537
 31
0.0
  0
LINE
  8
0
  6
CONTINUOUS
 62
     7
  5
12F
 10
957645.986
 20
7301325.491
 30
0.0
 11
957642.187
 21
7301196.03
 31
0.0
  0
LINE
  8
0
  6
CONTINUOUS
 62
     7
  5
130
 10
957642.187
 20
7301196.03
 30
0.0
 11
957649.086
 21
7300919.368
 31
0.0
  0
LINE
  8
0
  6
CONTINUOUS
 62
     7
  5
131
 10
957649.086
 20
7300919.368
 30
0.0
 11
957688.496
 21
7300862.311
 31
0.0
  0
LINE
  8
0
  6
CONTINUOUS
 62
     7
  5
132
 10
957594.969
 20
7300945.735
 30
0.0
 11
957603.388
 21
7301232.594
 31
0.0
  0
LINE
  8
0
  6
CONTINUOUS
 62
     7
  5
133
 10
957579.562
 20
7301235.317
 30
0.0
 11
957571.015
 21
7300944.083
 31
0.0
  0
LINE
  8
0
  6
CONTINUOUS
 62
     7
  5
134
 10
958617.986
 20
7300408.79
 30
0.0
 11
958586.664
 21
7299341.573
 31
0.0
  0
LINE
  8
0
  6
CONTINUOUS
 62
     7
  5
135
 10
958396.44
 20
7301550.165
 30
0.0
 11
958297.899
 21
7301497.096
 31
0.0
  0
LINE
  8
0
  6
CONTINUOUS
 62
     7
  5
136
 10
958297.899
 20
7301497.096
 30
0.0
 11
958294.793
 21
7301391.249
 31
0.0
  0
ARC
  8
0
  6
CONTINUOUS
 62
     7
  5
137
 10
958571.28463
 20
7301282.568378
 30
0.0
 40
262.309207
 50
56.797236
 51
88.3189
210
0.0
220
0.0
230
1.0
  0
LINE
  8
0
  6
CONTINUOUS
 62
     7
  5
138
 10
957766.098
 20
7300748.039
 30
0.0
 11
957736.755
 21
7300748.9
 31
0.0
  0
LINE
  8
0
  6
CONTINUOUS
 62
     7
  5
139
 10
957764.525
 20
7300694.473
 30
0.0
 11
957735.183
 21
7300695.334
 31
0.0
  0
LINE
  8
0
  6
CONTINUOUS
 62
     7
  5
13A
 10
958344.763
 20
7301551.749
 30
0.0
 11
958297.307
 21
7301525.121
 31
0.0
  0
LINE
  8
0
  6
CONTINUOUS
 62
     7
  5
13B
 10
958297.307
 20
7301525.121
 30
0.0
 11
958297.785
 21
7301541.405
 31
0.0
  0
LINE
  8
0
  6
CONTINUOUS
 62
     7
  5
13C
 10
958297.785
 20
7301541.405
 30
0.0
 11
958114.691
 21
7301546.779
 31
0.0
  0
LINE
  8
0
  6
CONTINUOUS
 62
     7
  5
13D
 10
958660.631
 20
7300255.603
 30
0.0
 11
958658.2
 21
7300172.769
 31
0.0
  0
LINE
  8
0
  6
CONTINUOUS
 62
     7
  5
13E
 10
958293.924
 20
7301340.898
 30
0.0
 11
958295.008
 21
7301377.835
 31
0.0
  0
LINE
  8
0
  6
CONTINUOUS
 62
     7
  5
13F
 10
958295.008
 20
7301377.835
 30
0.0
 11
958609.045
 21
7301368.619
 31
0.0
  0
LINE
  8
0
  6
CONTINUOUS
 62
     7
  5
140
 10
958638.11
 20
7301337.735
 30
0.0
 11
958635.514
 21
7301249.315
 31
0.0
  0
LINE
  8
0
  6
CONTINUOUS
 62
     7
  5
141
 10
958635.514
 20
7301249.315
 30
0.0
 11
958611.69
 21
7301250.014
 31
0.0
  0
ARC
  8
0
  6
CONTINUOUS
 62
     7
  5
142
 10
958608.111664
 20
7301338.594427
 30
0.0
 40
30.000099
 50
358.3189
 51
88.3189
210
0.0
220
0.0
230
1.0
  0
LINE
  8
0
  6
CONTINUOUS
 62
     7
  5
143
 10
958297.289
 20
7301405.044
 30
0.0
 11
958605.673
 21
7301395.993
 31
0.0
  0
LINE
  8
0
  6
CONTINUOUS
 62
     7
  5
144
 10
958669.492
 20
7301525.853
 30
0.0
 11
958647.371
 21
7300772.138
 31
0.0
  0
LINE
  8
0
  6
CONTINUOUS
 62
     7
  5
145
 10
958657.504
 20
7300663.073
 30
0.0
 11
958686.407
 21
7300530.338
 31
0.0
  0
ARC
  8
0
  6
CONTINUOUS
 62
     7
  5
146
 10
959097.21111
 20
7300758.879852
 30
0.0
 40
450.001479
 50
178.3189
 51
192.281347
210
0.0
220
0.0
230
1.0
  0
LINE
  8
0
  6
CONTINUOUS
 62
     7
  5
147
 10
958619.886
 20
7300655.026
 30
0.0
 11
958681.731
 21
7300370.998
 31
0.0
  0
LINE
  8
0
  6
CONTINUOUS
 62
     7
  5
148
 10
958605.313
 20
7301032.735
 30
0.0
 11
958616.559
 21
7301032.405
 31
0.0
  0
LINE
  8
0
  6
CONTINUOUS
 62
     7
  5
149
 10
958622.178
 20
7301223.844
 30
0.0
 11
958617.39
 21
7301060.732
 31
0.0
  0
ARC
  8
0
  6
CONTINUOUS
 62
     7
  5
14A
 10
959097.202658
 20
7300758.918679
 30
0.0
 40
488.431606
 50
178.3189
 51
192.281347
210
0.0
220
0.0
230
1.0
  0
LINE
  8
0
  6
CONTINUOUS
 62
     7
  5
14B
 10
958646.896
 20
7300271.898
 30
0.0
 11
958660.631
 21
7300255.603
 31
0.0
  0
ARC
  8
0
  6
CONTINUOUS
 62
     7
  5
14C
 10
958224.020271
 20
7300414.431723
 30
0.0
 40
393.984866
 50
359.188917
 51
88.465756
210
0.0
220
0.0
230
1.0
  0
LINE
  8
0
  6
CONTINUOUS
 62
     7
  5
14D
 10
958045.988
 20
7300940.851
 30
0.0
 11
958202.482
 21
7300843.653
 31
0.0
  0
LINE
  8
0
  6
CONTINUOUS
 62
     7
  5
14E
 10
958051.587
 20
7300959.346
 30
0.0
 11
958128.429
 21
7300957.091
 31
0.0
  0
LINE
  8
0
  6
CONTINUOUS
 62
     7
  5
14F
 10
958210.034
 20
7300841.482
 30
0.0
 11
958245.422
 21
7300840.444
 31
0.0
  0
LINE
  8
0
  6
CONTINUOUS
 62
     7
  5
150
 10
958646.896
 20
7300271.898
 30
0.0
 11
958650.959
 21
7300410.313
 31
0.0
  0
ARC
  8
0
  6
CONTINUOUS
 62
     7
  5
151
 10
958233.189854
 20
7300422.554752
 30
0.0
 40
418.001374
 50
358.3189
 51
55.449503
210
0.0
220
0.0
230
1.0
  0
LINE
  8
0
  6
CONTINUOUS
 62
     7
  5
152
 10
958676.147
 20
7300180.764
 30
0.0
 11
958669.283
 21
7300169.411
 31
0.0
  0
ARC
  8
0
  6
CONTINUOUS
 62
     7
  5
153
 10
958664.180611
 20
7300172.522845
 30
0.0
 40
6.00002
 50
178.3189
 51
328.848358
210
0.0
220
0.0
230
1.0
  0
LINE
  8
0
  6
CONTINUOUS
 62
     7
  5
154
 10
958271.661
 20
7300903.587
 30
0.0
 11
958470.291
 21
7300766.837
 31
0.0
  0
ARC
  8
0
  6
CONTINUOUS
 62
     7
  5
155
 10
958233.189854
 20
7300422.554752
 30
0.0
 40
418.001374
 50
86.409342
 51
88.3189
210
0.0
220
0.0
230
1.0
  0
ARC
  8
0
  6
CONTINUOUS
 62
     7
  5
156
 10
958280.10144
 20
7300915.977754
 30
0.0
 40
15.000049
 50
88.3189
 51
235.449503
210
0.0
220
0.0
230
1.0
  0
ARC
  8
0
  6
CONTINUOUS
 62
     7
  5
157
 10
958260.307774
 20
7300854.706174
 30
0.0
 40
15.000049
 50
266.409342
 51
56.834319
210
0.0
220
0.0
230
1.0
  0
ARC
  8
0
  6
CONTINUOUS
 62
     7
  5
158
 10
958210.416216
 20
7300856.41101
 30
0.0
 40
15.000049
 50
238.171053
 51
268.3189
210
0.0
220
0.0
230
1.0
  0
LINE
  8
0
  6
CONTINUOUS
 62
     7
  5
159
 10
958413.839
 20
7301590.203
 30
0.0
 11
958415.614
 21
7301650.694
 31
0.0
  0
LINE
  8
0
  6
CONTINUOUS
 62
     7
  5
15A
 10
958436.047
 20
7301589.551
 30
0.0
 11
958437.232
 21
7301629.917
 31
0.0
  0
LINE
  8
0
  6
CONTINUOUS
 62
     7
  5
15B
 10
957996.498
 20
7301675.313
 30
0.0
 11
958403.661
 21
7301663.363
 31
0.0
  0
ARC
  8
0
  6
CONTINUOUS
 62
     7
  5
15C
 10
958403.316363
 20
7301651.018824
 30
0.0
 40
12.30004
 50
358.3189
 51
88.3189
210
0.0
220
0.0
230
1.0
  0
LINE
  8
0
  6
CONTINUOUS
 62
     7
  5
15D
 10
958071.206
 20
7301696.762
 30
0.0
 11
958408.933
 21
7301686.85
 31
0.0
  0
ARC
  8
0
  6
CONTINUOUS
 62
     7
  5
15E
 10
958406.154116
 20
7301655.221025
 30
0.0
 40
31.78817
 50
37.275278
 51
85.0967
210
0.0
220
0.0
230
1.0
  0
POLYLINE
  8
0
  6
CONTINUOUS
 62
     7
  5
15F
 66
     1
 10
0.0
 20
0.0
 30
0.0
  0
VERTEX
  8
0
  6
CONTINUOUS
 62
     7
  5
160
 10
957964.945
 20
7301628.292
 30
0.0
  0
VERTEX
  8
0
  6
CONTINUOUS
 62
     7
  5
161
 10
958104.367
 20
7301624.2
 30
0.0
  0
VERTEX
  8
0
  6
CONTINUOUS
 62
     7
  5
162
 10
958307.789
 20
7301593.315
 30
0.0
  0
VERTEX
  8
0
  6
CONTINUOUS
 62
     7
  5
163
 10
958413.839
 20
7301590.203
 30
0.0
  0
SEQEND
  8
0
  6
CONTINUOUS
 62
     7
  5
164
  0
ARC
  8
0
  6
CONTINUOUS
 62
     7
  5
165
 10
958002.438636
 20
7301267.987743
 30
0.0
 40
282.000927
 50
88.3189
 51
178.3189
210
0.0
220
0.0
230
1.0
  0
LINE
  8
0
  6
CONTINUOUS
 62
     7
  5
166
 10
957709.725
 20
7301278.029
 30
0.0
 11
957708.132
 21
7301223.726
 31
0.0
  0
LINE
  8
0
  6
CONTINUOUS
 62
     7
  5
167
 10
958344.763
 20
7301551.749
 30
0.0
 11
958132.326
 21
7301557.983
 31
0.0
  0
ARC
  8
0
  6
CONTINUOUS
 62
     7
  5
168
 10
958001.838569
 20
7301269.399821
 30
0.0
 40
292.230961
 50
88.3189
 51
178.3189
210
0.0
220
0.0
230
1.0
  0
LINE
  8
0
  6
CONTINUOUS
 62
     7
  5
169
 10
958132.326
 20
7301557.983
 30
0.0
 11
958112.669
 21
7301546.838
 31
0.0
  0
LINE
  8
0
  6
CONTINUOUS
 62
     7
  5
16A
 10
958107.23
 20
7301558.72
 30
0.0
 11
958087.573
 21
7301547.575
 31
0.0
  0
LINE
  8
0
  6
CONTINUOUS
 62
     7
  5
16B
 10
958107.23
 20
7301558.72
 30
0.0
 11
958010.398
 21
7301561.562
 31
0.0
  0
LINE
  8
0
  6
CONTINUOUS
 62
     7
  5
16C
 10
958087.573
 20
7301547.575
 30
0.0
 11
958010.724
 21
7301549.83
 31
0.0
  0
LINE
  8
0
  6
CONTINUOUS
 62
     7
  5
16D
 10
958610.931
 20
7301224.174
 30
0.0
 11
958622.178
 21
7301223.844
 31
0.0
  0
LINE
  8
0
  6
CONTINUOUS
 62
     7
  5
16E
 10
958617.39
 20
7301060.732
 30
0.0
 11
958606.144
 21
7301061.062
 31
0.0
  0
LINE
  8
0
  6
CONTINUOUS
 62
     7
  5
16F
 10
958616.559
 20
7301032.405
 30
0.0
 11
958608.953
 21
7300773.265
 31
0.0
  0
ARC
  8
0
  6
CONTINUOUS
 62
     7
  5
170
 10
958298.45877
 20
7301292.319867
 30
0.0
 40
6.00002
 50
88.3189
 51
178.3189
210
0.0
220
0.0
230
1.0
  0
ARC
  8
0
  6
CONTINUOUS
 62
     7
  5
171
 10
958299.879331
 20
7301340.722002
 30
0.0
 40
6.00002
 50
178.3189
 51
268.3189
210
0.0
220
0.0
230
1.0
  0
ARC
  8
0
  6
CONTINUOUS
 62
     7
  5
172
 10
958297.832065
 20
7301270.966441
 30
0.0
 40
6.00002
 50
178.3189
 51
268.3189
210
0.0
220
0.0
230
1.0
  0
ARC
  8
0
  6
CONTINUOUS
 62
     7
  5
173
 10
958296.411503
 20
7301222.564306
 30
0.0
 40
6.00002
 50
88.3189
 51
178.3189
210
0.0
220
0.0
230
1.0
  0
LINE
  8
0
  6
CONTINUOUS
 62
     7
  5
174
 10
958303.548
 20
7301228.343
 30
0.0
 11
958296.616
 21
7301228.546
 31
0.0
  0
LINE
  8
0
  6
CONTINUOUS
 62
     7
  5
175
 10
958304.617
 20
7301264.746
 30
0.0
 11
958297.685
 21
7301264.949
 31
0.0
  0
ARC
  8
0
  6
CONTINUOUS
 62
     7
  5
176
 10
958295.986641
 20
7301208.088189
 30
0.0
 40
6.00002
 50
178.3189
 51
268.3189
210
0.0
220
0.0
230
1.0
  0
ARC
  8
0
  6
CONTINUOUS
 62
     7
  5
177
 10
958294.56608
 20
7301159.686054
 30
0.0
 40
6.00002
 50
88.3189
 51
178.3189
210
0.0
220
0.0
230
1.0
  0
LINE
  8
0
  6
CONTINUOUS
 62
     7
  5
178
 10
958301.702
 20
7301165.432
 30
0.0
 11
958294.77
 21
7301165.635
 31
0.0
  0
LINE
  8
0
  6
CONTINUOUS
 62
     7
  5
179
 10
958302.77
 20
7301201.834
 30
0.0
 11
958295.838
 21
7301202.037
 31
0.0
  0
ARC
  8
0
  6
CONTINUOUS
 62
     7
  5
17A
 10
958294.083548
 20
7301143.244991
 30
0.0
 40
6.00002
 50
178.3189
 51
268.3189
210
0.0
220
0.0
230
1.0
  0
ARC
  8
0
  6
CONTINUOUS
 62
     7
  5
17B
 10
958292.662987
 20
7301094.842857
 30
0.0
 40
6.00002
 50
88.3189
 51
178.3189
210
0.0
220
0.0
230
1.0
  0
LINE
  8
0
  6
CONTINUOUS
 62
     7
  5
17C
 10
958299.8
 20
7301100.626
 30
0.0
 11
958292.868
 21
7301100.83
 31
0.0
  0
LINE
  8
0
  6
CONTINUOUS
 62
     7
  5
17D
 10
958300.87
 20
7301137.097
 30
0.0
 11
958293.938
 21
7301137.3
 31
0.0
  0
ARC
  8
0
  6
CONTINUOUS
 62
     7
  5
17E
 10
958292.151621
 20
7301077.419321
 30
0.0
 40
6.00002
 50
178.3189
 51
268.3189
210
0.0
220
0.0
230
1.0
  0
ARC
  8
0
  6
CONTINUOUS
 62
     7
  5
17F
 10
958290.731059
 20
7301029.017187
 30
0.0
 40
6.00002
 50
88.3189
 51
178.3189
210
0.0
220
0.0
230
1.0
  0
LINE
  8
0
  6
CONTINUOUS
 62
     7
  5
180
 10
958297.869
 20
7301034.821
 30
0.0
 11
958290.937
 21
7301035.024
 31
0.0
  0
LINE
  8
0
  6
CONTINUOUS
 62
     7
  5
181
 10
958298.935
 20
7301071.155
 30
0.0
 11
958292.003
 21
7301071.359
 31
0.0
  0
ARC
  8
0
  6
CONTINUOUS
 62
     7
  5
182
 10
958290.162024
 20
7301009.628706
 30
0.0
 40
6.00002
 50
178.3189
 51
268.3189
210
0.0
220
0.0
230
1.0
  0
ARC
  8
0
  6
CONTINUOUS
 62
     7
  5
183
 10
958288.741462
 20
7300961.226571
 30
0.0
 40
6.00002
 50
88.3189
 51
178.3189
210
0.0
220
0.0
230
1.0
  0
LINE
  8
0
  6
CONTINUOUS
 62
     7
  5
184
 10
958295.878
 20
7300966.992
 30
0.0
 11
958288.946
 21
7300967.195
 31
0.0
  0
LINE
  8
0
  6
CONTINUOUS
 62
     7
  5
185
 10
958296.948
 20
7301003.462
 30
0.0
 11
958290.016
 21
7301003.666
 31
0.0
  0
LINE
  8
0
  6
CONTINUOUS
 62
     7
  5
186
 10
958290.456
 20
7301222.737
 30
0.0
 11
958290.032
 21
7301208.265
 31
0.0
  0
LINE
  8
0
  6
CONTINUOUS
 62
     7
  5
187
 10
958288.612
 20
7301159.886
 30
0.0
 11
958288.13
 21
7301143.46
 31
0.0
  0
LINE
  8
0
  6
CONTINUOUS
 62
     7
  5
188
 10
958286.708
 20
7301095.02
 30
0.0
 11
958286.194
 21
7301077.526
 31
0.0
  0
LINE
  8
0
  6
CONTINUOUS
 62
     7
  5
189
 10
958284.776
 20
7301029.208
 30
0.0
 11
958284.208
 21
7301009.827
 31
0.0
  0
LINE
  8
0
  6
CONTINUOUS
 62
     7
  5
18A
 10
958282.786
 20
7300961.38
 30
0.0
 11
958281.962
 21
7300933.323
 31
0.0
  0
LINE
  8
0
  6
CONTINUOUS
 62
     7
  5
18B
 10
957720.515
 20
7301276.236
 30
0.0
 11
957719.157
 21
7301229.94
 31
0.0
  0
LINE
  8
0
  6
CONTINUOUS
 62
     7
  5
18C
 10
957719.157
 20
7301229.94
 30
0.0
 11
957708.132
 21
7301223.726
 31
0.0
  0
LINE
  8
0
  6
CONTINUOUS
 62
     7
  5
18D
 10
957718.714
 20
7301214.867
 30
0.0
 11
957707.689
 21
7301208.659
 31
0.0
  0
LINE
  8
0
  6
CONTINUOUS
 62
     7
  5
18E
 10
957718.714
 20
7301214.867
 30
0.0
 11
957712.225
 21
7300993.754
 31
0.0
  0
LINE
  8
0
  6
CONTINUOUS
 62
     7
  5
18F
 10
957707.689
 20
7301208.659
 30
0.0
 11
957701.433
 21
7300995.485
 31
0.0
  0
POLYLINE
  8
0
  6
CONTINUOUS
 62
     7
  5
190
 66
     1
 10
0.0
 20
0.0
 30
0.0
 70
     1
  0
VERTEX
  8
0
  6
CONTINUOUS
 62
     7
  5
191
 10
958058.233
 20
7300662.753
 30
0.0
  0
VERTEX
  8
0
  6
CONTINUOUS
 62
     7
  5
192
 10
957845.871
 20
7300668.985
 30
0.0
  0
VERTEX
  8
0
  6
CONTINUOUS
 62
     7
  5
193
 10
957840.076
 20
7300471.56
 30
0.0
  0
VERTEX
  8
0
  6
CONTINUOUS
 62
     7
  5
194
 10
958052.439
 20
7300465.328
 30
0.0
  0
SEQEND
  8
0
  6
CONTINUOUS
 62
     7
  5
195
  0
LINE
  8
0
  6
CONTINUOUS
 62
     7
  5
196
 10
957739.014
 20
7300644.575
 30
0.0
 11
957763.04
 21
7300643.87
 31
0.0
  0
LINE
  8
0
  6
CONTINUOUS
 62
     7
  5
197
 10
957734.718
 20
7300498.221
 30
0.0
 11
957765.332
 21
7300497.322
 31
0.0
  0
LINE
  8
0
  6
CONTINUOUS
 62
     7
  5
198
 10
957795.049
 20
7300486.419
 30
0.0
 11
957762.159
 21
7299365.771
 31
0.0
  0
LINE
  8
0
  6
CONTINUOUS
 62
     7
  5
199
 10
957775.067
 20
7300487.005
 30
0.0
 11
957742.177
 21
7299366.358
 31
0.0
  0
LINE
  8
0
  6
CONTINUOUS
 62
     7
  5
19A
 10
957805.305
 20
7300496.149
 30
0.0
 11
957840.768
 21
7300495.108
 31
0.0
  0
POLYLINE
  8
0
  6
CONTINUOUS
 62
     7
  5
19B
 66
     1
 10
0.0
 20
0.0
 30
0.0
 70
     1
  0
VERTEX
  8
0
  6
CONTINUOUS
 62
     7
  5
19C
 10
957739.821
 20
7300672.098
 30
0.0
  0
VERTEX
  8
0
  6
CONTINUOUS
 62
     7
  5
19D
 10
957527.458
 20
7300678.331
 30
0.0
  0
VERTEX
  8
0
  6
CONTINUOUS
 62
     7
  5
19E
 10
957521.664
 20
7300480.906
 30
0.0
  0
VERTEX
  8
0
  6
CONTINUOUS
 62
     7
  5
19F
 10
957734.027
 20
7300474.673
 30
0.0
  0
SEQEND
  8
0
  6
CONTINUOUS
 62
     7
  5
1A0
  0
LINE
  8
0
  6
CONTINUOUS
 62
     7
  5
1A1
 10
957821.932
 20
7300810.382
 30
0.0
 11
957817.29
 21
7300652.247
 31
0.0
  0
LINE
  8
0
  6
CONTINUOUS
 62
     7
  5
1A2
 10
957777.995
 20
7300811.671
 30
0.0
 11
957776.413
 21
7300757.766
 31
0.0
  0
LINE
  8
0
  6
CONTINUOUS
 62
     7
  5
1A3
 10
957774.255
 20
7300684.218
 30
0.0
 11
957773.354
 21
7300653.536
 31
0.0
  0
LINE
  8
0
  6
CONTINUOUS
 62
     7
  5
1A4
 10
957724.869
 20
7300685.667
 30
0.0
 11
957724.484
 21
7300672.548
 31
0.0
  0
LINE
  8
0
  6
CONTINUOUS
 62
     7
  5
1A5
 10
957827.034
 20
7300641.991
 30
0.0
 11
957845.063
 21
7300641.462
 31
0.0
  0
LINE
  8
0
  6
CONTINUOUS
 62
     7
  5
1A6
 10
958234.581
 20
7300808.233
 30
0.0
 11
957832.259
 21
7300820.041
 31
0.0
  0
LINE
  8
0
  6
CONTINUOUS
 62
     7
  5
1A7
 10
957826.349
 20
7300852.743
 30
0.0
 11
958091.399
 21
7300844.964
 31
0.0
  0
LINE
  8
0
  6
CONTINUOUS
 62
     7
  5
1A8
 10
957684.223
 20
7300854.423
 30
0.0
 11
957678.029
 21
7300854.605
 31
0.0
  0
ARC
  8
0
  6
CONTINUOUS
 62
     7
  5
1A9
 10
957679.970001
 20
7300939.84165
 30
0.0
 40
85.241165
 50
176.048575
 51
268.668903
210
0.0
220
0.0
230
1.0
  0
ARC
  8
0
  6
CONTINUOUS
 62
     7
  5
1AA
 10
957678.87
 20
7300932.977967
 30
0.0
 40
108.356577
 50
174.100181
 51
269.093536
210
0.0
220
0.0
230
1.0
  0
LINE
  8
0
  6
CONTINUOUS
 62
     7
  5
1AB
 10
957768.266
 20
7300821.919
 30
0.0
 11
957677.148
 21
7300824.593
 31
0.0
  0
LINE
  8
0
  6
CONTINUOUS
 62
     7
  5
1AC
 10
957704.644
 20
7300969.529
 30
0.0
 11
957704.401
 21
7300961.251
 31
0.0
  0
ARC
  8
0
  6
CONTINUOUS
 62
     7
  5
1AD
 10
957809.395294
 20
7300958.219684
 30
0.0
 40
105.000345
 50
176.479758
 51
252.579331
210
0.0
220
0.0
230
1.0
  0
LINE
  8
0
  6
CONTINUOUS
 62
     7
  5
1AE
 10
957829.669
 20
7300965.86
 30
0.0
 11
957934.306
 21
7300962.788
 31
0.0
  0
LINE
  8
0
  6
CONTINUOUS
 62
     7
  5
1AF
 10
957828.289
 20
7300285.818
 30
0.0
 11
957916.108
 21
7300283.241
 31
0.0
  0
LINE
  8
0
  6
CONTINUOUS
 62
     7
  5
1B0
 10
957916.108
 20
7300283.241
 30
0.0
 11
958483.98
 21
7299686.516
 31
0.0
  0
LINE
  8
0
  6
CONTINUOUS
 62
     7
  5
1B1
 10
958483.98
 20
7299686.516
 30
0.0
 11
958479.039
 21
7299518.156
 31
0.0
  0
LINE
  8
0
  6
CONTINUOUS
 62
     7
  5
1B2
 10
958479.039
 20
7299518.156
 30
0.0
 11
958451.497
 21
7299495.525
 31
0.0
  0
LINE
  8
0
  6
CONTINUOUS
 62
     7
  5
1B3
 10
957828.289
 20
7300285.818
 30
0.0
 11
957824.654
 21
7300161.943
 31
0.0
  0
LINE
  8
0
  6
CONTINUOUS
 62
     7
  5
1B4
 10
957824.654
 20
7300161.943
 30
0.0
 11
958451.497
 21
7299495.525
 31
0.0
  0
ARC
  8
0
  6
CONTINUOUS
 62
     7
  5
1B5
 10
957684.347014
 20
7300859.43908
 30
0.0
 40
5.000016
 50
268.3189
 51
34.592761
210
0.0
220
0.0
230
1.0
  0
ARC
  8
0
  6
CONTINUOUS
 62
     7
  5
1B6
 10
957709.58365
 20
7300964.359822
 30
0.0
 40
5.000016
 50
88.3189
 51
176.479758
210
0.0
220
0.0
230
1.0
  0
ARC
  8
0
  6
CONTINUOUS
 62
     7
  5
1B7
 10
957767.999521
 20
7300811.964425
 30
0.0
 40
10.000033
 50
358.3189
 51
88.3189
210
0.0
220
0.0
230
1.0
  0
ARC
  8
0
  6
CONTINUOUS
 62
     7
  5
1B8
 10
957831.976535
 20
7300810.086754
 30
0.0
 40
10.000033
 50
88.3189
 51
178.3189
210
0.0
220
0.0
230
1.0
  0
ARC
  8
0
  6
CONTINUOUS
 62
     7
  5
1B9
 10
957826.632467
 20
7300862.672569
 30
0.0
 40
10.000033
 50
178.3189
 51
268.3189
210
0.0
220
0.0
230
1.0
  0
ARC
  8
0
  6
CONTINUOUS
 62
     7
  5
1BA
 10
957780.953621
 20
7300867.57681
 30
0.0
 40
10.000033
 50
252.579328
 51
358.3189
210
0.0
220
0.0
230
1.0
  0
ARC
  8
0
  6
CONTINUOUS
 62
     7
  5
1BB
 10
957766.416263
 20
7300758.018793
 30
0.0
 40
10.000033
 50
268.3189
 51
358.3189
210
0.0
220
0.0
230
1.0
  0
ARC
  8
0
  6
CONTINUOUS
 62
     7
  5
1BC
 10
957764.257308
 20
7300684.45773
 30
0.0
 40
10.000033
 50
358.3189
 51
88.3189
210
0.0
220
0.0
230
1.0
  0
ARC
  8
0
  6
CONTINUOUS
 62
     7
  5
1BD
 10
957763.358151
 20
7300653.821165
 30
0.0
 40
10.000033
 50
268.3189
 51
358.3189
210
0.0
220
0.0
230
1.0
  0
ARC
  8
0
  6
CONTINUOUS
 62
     7
  5
1BE
 10
957827.335164
 20
7300651.943494
 30
0.0
 40
10.000033
 50
178.3189
 51
268.3189
210
0.0
220
0.0
230
1.0
  0
ARC
  8
0
  6
CONTINUOUS
 62
     7
  5
1BF
 10
957737.064181
 20
7300758.880252
 30
0.0
 40
10.000033
 50
178.3189
 51
268.3189
210
0.0
220
0.0
230
1.0
  0
ARC
  8
0
  6
CONTINUOUS
 62
     7
  5
1C0
 10
957734.905226
 20
7300685.319189
 30
0.0
 40
10.000033
 50
88.3189
 51
178.3189
210
0.0
220
0.0
230
1.0
  0
ARC
  8
0
  6
CONTINUOUS
 62
     7
  5
1C1
 10
957783.583569
 20
7300957.185818
 30
0.0
 40
10.000033
 50
358.3189
 51
88.3189
210
0.0
220
0.0
230
1.0
  0
ARC
  8
0
  6
CONTINUOUS
 62
     7
  5
1C2
 10
957829.366915
 20
7300955.842115
 30
0.0
 40
10.000033
 50
88.3189
 51
178.3189
210
0.0
220
0.0
230
1.0
  0
ARC
  8
0
  6
CONTINUOUS
 62
     7
  5
1C3
 10
957934.064498
 20
7300952.76933
 30
0.0
 40
10.000033
 50
58.171053
 51
88.3189
210
0.0
220
0.0
230
1.0
  0
ARC
  8
0
  6
CONTINUOUS
 62
     7
  5
1C4
 10
958051.240889
 20
7300949.330302
 30
0.0
 40
10.000033
 50
88.3189
 51
238.171053
210
0.0
220
0.0
230
1.0
  0
ARC
  8
0
  6
CONTINUOUS
 62
     7
  5
1C5
 10
958128.109588
 20
7300947.074271
 30
0.0
 40
10.000033
 50
56.834319
 51
88.3189
210
0.0
220
0.0
230
1.0
  0
ARC
  8
0
  6
CONTINUOUS
 62
     7
  5
1C6
 10
958091.747055
 20
7300854.89168
 30
0.0
 40
10.000033
 50
268.3189
 51
58.171053
210
0.0
220
0.0
230
1.0
  0
ARC
  8
0
  6
CONTINUOUS
 62
     7
  5
1C7
 10
958128.109588
 20
7300947.074271
 30
0.0
 40
10.000033
 50
56.834319
 51
88.3189
210
0.0
220
0.0
230
1.0
  0
ARC
  8
0
  6
CONTINUOUS
 62
     7
  5
1C8
 10
957831.976535
 20
7300810.086754
 30
0.0
 40
10.000033
 50
88.3189
 51
178.3189
210
0.0
220
0.0
230
1.0
  0
ARC
  8
0
  6
CONTINUOUS
 62
     7
  5
1C9
 10
957765.049101
 20
7300487.299431
 30
0.0
 40
10.000033
 50
358.3189
 51
88.3189
210
0.0
220
0.0
230
1.0
  0
ARC
  8
0
  6
CONTINUOUS
 62
     7
  5
1CA
 10
957805.032016
 20
7300486.125966
 30
0.0
 40
10.000033
 50
88.3189
 51
178.3189
210
0.0
220
0.0
230
1.0
  0
LINE
  8
0
  6
CONTINUOUS
 62
     7
  5
1CB
 10
957055.145
 20
7300958.35
 30
0.0
 11
957054.829
 21
7300947.585
 31
0.0
  0
LINE
  8
0
  6
CONTINUOUS
 62
     2
  5
1CC
 10
955473.549
 20
7304338.203
 30
0.0
 11
955490.104
 21
7304307.748
 31
0.0
  0
LINE
  8
0
  6
CONTINUOUS
 62
     7
  5
1CD
 10
955043.795
 20
7299445.553
 30
0.0
 11
955029.854
 21
7299789.637
 31
0.0
  0
LINE
  8
0
  6
CONTINUOUS
 62
     7
  5
1CE
 10
955019.757
 20
7299446.258
 30
0.0
 11
955005.826
 21
7299790.342
 31
0.0
  0
LINE
  8
0
  6
CONTINUOUS
 62
     7
  5
1CF
 10
956433.729
 20
7299583.775
 30
0.0
 11
956393.797
 21
7299405.932
 31
0.0
  0
LINE
  8
0
  6
CONTINUOUS
 62
     7
  5
1D0
 10
956410.316
 20
7299589.038
 30
0.0
 11
956369.353
 21
7299406.649
 31
0.0
  0
LINE
  8
0
  6
CONTINUOUS
 62
     7
  5
1D1
 10
956499.446
 20
7300689.24
 30
0.0
 11
956443.204
 21
7299651.782
 31
0.0
  0
ARC
  8
0
  6
CONTINUOUS
 62
     7
  5
1D2
 10
956031.746193
 20
7299674.109415
 30
0.0
 40
412.001355
 50
347.344414
 51
356.892022
210
0.0
220
0.0
230
1.0
  0
LINE
  8
0
  6
CONTINUOUS
 62
     7
  5
1D3
 10
956475.506
 20
7300690.611
 30
0.0
 11
956419.194
 21
7299653.096
 31
0.0
  0
ARC
  8
0
  6
CONTINUOUS
 62
     7
  5
1D4
 10
956031.746193
 20
7299674.109415
 30
0.0
 40
388.001276
 50
347.344414
 51
356.892022
210
0.0
220
0.0
230
1.0
  0
LINE
  8
0
  6
CONTINUOUS
 62
     2
  5
1D5
 10
954919.827
 20
7301539.061
 30
0.0
 11
954935.7
 21
7301522.297
 31
0.0
  0
LINE
  8
0
  6
CONTINUOUS
 62
     7
  5
1D6
 10
955027.818
 20
7299839.742
 30
0.0
 11
955066.175
 21
7299838.617
 31
0.0
  0
LINE
  8
0
  6
CONTINUOUS
 62
     7
  5
1D7
 10
955027.818
 20
7299839.742
 30
0.0
 11
954957.577
 21
7301574.658
 31
0.0
  0
LINE
  8
0
  6
CONTINUOUS
 62
     7
  5
1D8
 10
955029.854
 20
7299789.637
 30
0.0
 11
955095.058
 21
7299787.723
 31
0.0
  0
LINE
  8
0
  6
CONTINUOUS
 62
     7
  5
1D9
 10
955003.73
 20
7299840.449
 30
0.0
 11
954935.7
 21
7301522.297
 31
0.0
  0
LINE
  8
0
  6
CONTINUOUS
 62
     2
  5
1DA
 10
954919.827
 20
7301539.061
 30
0.0
 11
954865.739
 21
7301488.045
 31
0.0
  0
LINE
  8
0
  6
CONTINUOUS
 62
     7
  5
1DB
 10
957055.145
 20
7300958.35
 30
0.0
 11
956982.149
 21
7300910.387
 31
0.0
  0
ARC
  8
0
  6
CONTINUOUS
 62
     2
  5
1DC
 10
956859.081576
 20
7301097.5901
 30
0.0
 40
224.000736
 50
244.949647
 51
245.310397
210
0.0
220
0.0
230
1.0
  0
LINE
  8
0
  6
CONTINUOUS
 62
     7
  5
1DD
 10
957056.004
 20
7300987.618
 30
0.0
 11
956968.939
 21
7300930.504
 31
0.0
  0
ARC
  8
0
  6
CONTINUOUS
 62
     7
  5
1DE
 10
956859.081576
 20
7301097.5901
 30
0.0
 40
200.000658
 50
272.0759
 51
303.3189
210
0.0
220
0.0
230
1.0
  0
ARC
  8
0
  6
CONTINUOUS
 62
     7
  5
1DF
 10
956859.081576
 20
7301097.5901
 30
0.0
 40
224.000736
 50
272.0759
 51
303.3189
210
0.0
220
0.0
230
1.0
  0
POLYLINE
  8
0
  6
CONTINUOUS
 62
     7
  5
1E0
 66
     1
 10
0.0
 20
0.0
 30
0.0
  0
VERTEX
  8
0
  6
CONTINUOUS
 62
     7
  5
1E1
 10
956866.343
 20
7300897.691
 30
0.0
  0
VERTEX
  8
0
  6
CONTINUOUS
 62
     7
  5
1E2
 10
956679.529
 20
7300890.976
 30
0.0
  0
VERTEX
  8
0
  6
CONTINUOUS
 62
     7
  5
1E3
 10
956679.520634
 20
7300890.949526
 30
0.0
 42
0.387955
  0
VERTEX
  8
0
  6
CONTINUOUS
 62
     7
  5
1E4
 10
956475.511141
 20
7300690.582183
 30
0.0
  0
SEQEND
  8
0
  6
CONTINUOUS
 62
     7
  5
1E5
  0
POLYLINE
  8
0
  6
CONTINUOUS
 62
     7
  5
1E6
 66
     1
 10
0.0
 20
0.0
 30
0.0
  0
VERTEX
  8
0
  6
CONTINUOUS
 62
     7
  5
1E7
 10
956867.191
 20
7300873.76
 30
0.0
  0
VERTEX
  8
0
  6
CONTINUOUS
 62
     7
  5
1E8
 10
956680.436
 20
7300866.983
 30
0.0
  0
VERTEX
  8
0
  6
CONTINUOUS
 62
     7
  5
1E9
 10
956680.389998
 20
7300866.965198
 30
0.0
 42
0.387955
  0
VERTEX
  8
0
  6
CONTINUOUS
 62
     7
  5
1EA
 10
956499.475919
 20
7300689.28095
 30
0.0
  0
SEQEND
  8
0
  6
CONTINUOUS
 62
     7
  5
1EB
  0
POLYLINE
  8
0
  6
CONTINUOUS
 62
     2
  5
1EC
 66
     1
 10
0.0
 20
0.0
 30
0.0
  0
VERTEX
  8
0
  6
CONTINUOUS
 62
     2
  5
1ED
 10
958436.006
 20
7300945.431
 30
0.0
  0
VERTEX
  8
0
  6
CONTINUOUS
 62
     2
  5
1EE
 10
958435.449
 20
7300926.455
 30
0.0
  0
VERTEX
  8
0
  6
CONTINUOUS
 62
     2
  5
1EF
 10
958602.05
 20
7300921.565
 30
0.0
  0
VERTEX
  8
0
  6
CONTINUOUS
 62
     2
  5
1F0
 10
958614.84
 20
7301357.342
 30
0.0
  0
VERTEX
  8
0
  6
CONTINUOUS
 62
     2
  5
1F1
 10
958449.848
 20
7301362.184
 30
0.0
  0
VERTEX
  8
0
  6
CONTINUOUS
 62
     2
  5
1F2
 10
958449.214
 20
7301340.578
 30
0.0
  0
VERTEX
  8
0
  6
CONTINUOUS
 62
     2
  5
1F3
 10
958306.965
 20
7301344.752
 30
0.0
  0
VERTEX
  8
0
  6
CONTINUOUS
 62
     2
  5
1F4
 10
958295.366
 20
7300949.559
 30
0.0
  0
VERTEX
  8
0
  6
CONTINUOUS
 62
     2
  5
1F5
 10
958564.655
 20
7300941.655
 30
0.0
  0
SEQEND
  8
0
  6
CONTINUOUS
 62
     2
  5
1F6
  0
POLYLINE
  8
0
  6
CONTINUOUS
 62
     2
  5
1F7
 66
     1
 10
0.0
 20
0.0
 30
0.0
 70
     1
  0
VERTEX
  8
0
  6
CONTINUOUS
 62
     2
  5
1F8
 10
954361.938
 20
7304219.834
 30
0.0
  0
VERTEX
  8
0
  6
CONTINUOUS
 62
     2
  5
1F9
 10
954805.24
 20
7304206.824
 30
0.0
  0
VERTEX
  8
0
  6
CONTINUOUS
 62
     2
  5
1FA
 10
954804.442
 20
7304179.638
 30
0.0
  0
VERTEX
  8
0
  6
CONTINUOUS
 62
     2
  5
1FB
 10
954361.14
 20
7304192.649
 30
0.0
  0
SEQEND
  8
0
  6
CONTINUOUS
 62
     2
  5
1FC
  0
LINE
  8
0
  6
CONTINUOUS
 62
     2
  5
1FD
 10
954341.953
 20
7304351.144
 30
0.0
 11
954841.107
 21
7304336.494
 31
0.0
  0
LINE
  8
0
  6
CONTINUOUS
 62
     2
  5
1FE
 10
954841.107
 20
7304336.494
 30
0.0
 11
954839.034
 21
7304265.84
 31
0.0
  0
LINE
  8
0
  6
CONTINUOUS
 62
     2
  5
1FF
 10
954834.853
 20
7304123.387
 30
0.0
 11
954328.903
 21
7304138.236
 31
0.0
  0
LINE
  8
0
  6
CONTINUOUS
 62
     7
  5
200
 10
954329.37
 20
7304138.223
 30
0.0
 11
954256.869
 21
7303480.614
 31
0.0
  0
LINE
  8
0
  6
CONTINUOUS
 62
     7
  5
201
 10
954530.459
 20
7304415.522
 30
0.0
 11
954920.402
 21
7304601.13
 31
0.0
  0
POLYLINE
  8
0
  6
CONTINUOUS
 62
     2
  5
202
 66
     1
 10
0.0
 20
0.0
 30
0.0
 70
     1
  0
VERTEX
  8
0
  6
CONTINUOUS
 62
     2
  5
203
 10
954838.996
 20
7304675.311
 30
0.0
  0
VERTEX
  8
0
  6
CONTINUOUS
 62
     2
  5
204
 10
954857.566
 20
7304674.766
 30
0.0
  0
VERTEX
  8
0
  6
CONTINUOUS
 62
     2
  5
205
 10
954856.563
 20
7304640.588
 30
0.0
  0
VERTEX
  8
0
  6
CONTINUOUS
 62
     2
  5
206
 10
954837.993
 20
7304641.133
 30
0.0
  0
SEQEND
  8
0
  6
CONTINUOUS
 62
     2
  5
207
  0
POLYLINE
  8
0
  6
CONTINUOUS
 62
     2
  5
208
 66
     1
 10
0.0
 20
0.0
 30
0.0
 70
     1
  0
VERTEX
  8
0
  6
CONTINUOUS
 62
     2
  5
209
 10
954300.159
 20
7302922.514
 30
0.0
  0
VERTEX
  8
0
  6
CONTINUOUS
 62
     2
  5
20A
 10
954443.349
 20
7302918.312
 30
0.0
  0
VERTEX
  8
0
  6
CONTINUOUS
 62
     2
  5
20B
 10
954440.278
 20
7302813.676
 30
0.0
  0
VERTEX
  8
0
  6
CONTINUOUS
 62
     2
  5
20C
 10
954297.088
 20
7302817.878
 30
0.0
  0
SEQEND
  8
0
  6
CONTINUOUS
 62
     2
  5
20D
  0
POLYLINE
  8
0
  6
CONTINUOUS
 62
     2
  5
20E
 66
     1
 10
0.0
 20
0.0
 30
0.0
 70
     1
  0
VERTEX
  8
0
  6
CONTINUOUS
 62
     2
  5
20F
 10
954182.984
 20
7301587.415
 30
0.0
  0
VERTEX
  8
0
  6
CONTINUOUS
 62
     2
  5
210
 10
954385.055
 20
7301581.484
 30
0.0
  0
VERTEX
  8
0
  6
CONTINUOUS
 62
     2
  5
211
 10
954389.315
 20
7301726.635
 30
0.0
  0
VERTEX
  8
0
  6
CONTINUOUS
 62
     2
  5
212
 10
954307.421
 20
7301729.038
 30
0.0
  0
VERTEX
  8
0
  6
CONTINUOUS
 62
     2
  5
213
 10
954307.832
 20
7301743.029
 30
0.0
  0
VERTEX
  8
0
  6
CONTINUOUS
 62
     2
  5
214
 10
954235.635
 20
7301745.148
 30
0.0
  0
VERTEX
  8
0
  6
CONTINUOUS
 62
     2
  5
215
 10
954235.275
 20
7301732.902
 30
0.0
  0
VERTEX
  8
0
  6
CONTINUOUS
 62
     2
  5
216
 10
954209.834
 20
7301733.648
 30
0.0
  0
VERTEX
  8
0
  6
CONTINUOUS
 62
     2
  5
217
 10
954209.376
 20
7301718.04
 30
0.0
  0
VERTEX
  8
0
  6
CONTINUOUS
 62
     2
  5
218
 10
954186.702
 20
7301718.706
 30
0.0
  0
SEQEND
  8
0
  6
CONTINUOUS
 62
     2
  5
219
  0
POLYLINE
  8
0
  6
CONTINUOUS
 62
     2
  5
21A
 66
     1
 10
0.0
 20
0.0
 30
0.0
 70
     1
  0
VERTEX
  8
0
  6
CONTINUOUS
 62
     2
  5
21B
 10
954330.834
 20
7302733.177
 30
0.0
  0
VERTEX
  8
0
  6
CONTINUOUS
 62
     2
  5
21C
 10
954390.181
 20
7302731.435
 30
0.0
  0
VERTEX
  8
0
  6
CONTINUOUS
 62
     2
  5
21D
 10
954389.832
 20
7302719.526
 30
0.0
  0
VERTEX
  8
0
  6
CONTINUOUS
 62
     2
  5
21E
 10
954493.257
 20
7302716.491
 30
0.0
  0
VERTEX
  8
0
  6
CONTINUOUS
 62
     2
  5
21F
 10
954489.748
 20
7302596.916
 30
0.0
  0
VERTEX
  8
0
  6
CONTINUOUS
 62
     2
  5
220
 10
954501.325
 20
7302596.576
 30
0.0
  0
VERTEX
  8
0
  6
CONTINUOUS
 62
     2
  5
221
 10
954499.834
 20
7302545.776
 30
0.0
  0
VERTEX
  8
0
  6
CONTINUOUS
 62
     2
  5
222
 10
954326.627
 20
7302550.86
 30
0.0
  0
SEQEND
  8
0
  6
CONTINUOUS
 62
     2
  5
223
  0
LINE
  8
0
  6
CONTINUOUS
 62
     7
  5
224
 10
953543.007
 20
7302155.021
 30
0.0
 11
953451.896
 21
7302157.695
 31
0.0
  0
LINE
  8
0
  6
CONTINUOUS
 62
     7
  5
225
 10
953498.25
 20
7302192.903
 30
0.0
 11
953452.968
 21
7302194.232
 31
0.0
  0
LINE
  8
0
  6
CONTINUOUS
 62
     7
  5
226
 10
953500.703
 20
7302214.247
 30
0.0
 11
953453.596
 21
7302215.629
 31
0.0
  0
POLYLINE
  8
0
  6
CONTINUOUS
 62
     2
  5
227
 66
     1
 10
0.0
 20
0.0
 30
0.0
 70
     1
  0
VERTEX
  8
0
  6
CONTINUOUS
 62
     2
  5
228
 10
954203.536
 20
7300926.812
 30
0.0
  0
VERTEX
  8
0
  6
CONTINUOUS
 62
     2
  5
229
 10
954247.878
 20
7300925.51
 30
0.0
  0
VERTEX
  8
0
  6
CONTINUOUS
 62
     2
  5
22A
 10
954235.809
 20
7300514.302
 30
0.0
  0
VERTEX
  8
0
  6
CONTINUOUS
 62
     2
  5
22B
 10
954191.467
 20
7300515.604
 30
0.0
  0
SEQEND
  8
0
  6
CONTINUOUS
 62
     2
  5
22C
  0
LINE
  8
0
  6
CONTINUOUS
 62
     7
  5
22D
 10
953537.742
 20
7302306.103
 30
0.0
 11
953529.296
 21
7302238.795
 31
0.0
  0
ARC
  8
0
  6
CONTINUOUS
 62
     7
  5
22E
 10
953501.500029
 20
7302242.298287
 30
0.0
 40
28.000092
 50
268.3189
 51
352.848344
210
0.0
220
0.0
230
1.0
  0
LINE
  8
0
  6
CONTINUOUS
 62
     7
  5
22F
 10
953532.519
 20
7302204.013
 30
0.0
 11
953522.192
 21
7302198.529
 31
0.0
  0
ARC
  8
0
  6
CONTINUOUS
 62
     7
  5
230
 10
953536.24218
 20
7302196.918675
 30
0.0
 40
8.000026
 50
358.3189
 51
117.980189
210
0.0
220
0.0
230
1.0
  0
ARC
  8
0
  6
CONTINUOUS
 62
     7
  5
231
 10
953499.684292
 20
7302240.909189
 30
0.0
 40
48.000158
 50
268.3189
 51
297.980189
210
0.0
220
0.0
230
1.0
  0
LINE
  8
0
  6
CONTINUOUS
 62
     7
  5
232
 10
953537.742
 20
7302306.103
 30
0.0
 11
953511.516
 21
7303709.655
 31
0.0
  0
LINE
  8
0
  6
CONTINUOUS
 62
     7
  5
233
 10
953579.257
 20
7302304.884
 30
0.0
 11
953535.489
 21
7303750.698
 31
0.0
  0
LINE
  8
0
  6
CONTINUOUS
 62
     7
  5
234
 10
953579.257
 20
7302304.884
 30
0.0
 11
953576.273
 21
7302203.21
 31
0.0
  0
LINE
  8
0
  6
CONTINUOUS
 62
     7
  5
235
 10
953527.261
 20
7301948.995
 30
0.0
 11
953412.693
 21
7300386.119
 31
0.0
  0
ARC
  8
0
  6
CONTINUOUS
 62
     7
  5
236
 10
953493.093219
 20
7302016.334632
 30
0.0
 40
48.000158
 50
58.657611
 51
88.3189
210
0.0
220
0.0
230
1.0
  0
ARC
  8
0
  6
CONTINUOUS
 62
     7
  5
237
 10
953532.168128
 20
7302058.105388
 30
0.0
 40
8.000026
 50
238.657611
 51
358.3189
210
0.0
220
0.0
230
1.0
  0
LINE
  8
0
  6
CONTINUOUS
 62
     7
  5
238
 10
953528.036
 20
7302051.269
 30
0.0
 11
953518.047
 21
7302057.288
 31
0.0
  0
ARC
  8
0
  6
CONTINUOUS
 62
     7
  5
239
 10
953494.824363
 20
7302014.841436
 30
0.0
 40
28.000092
 50
3.789456
 51
88.3189
210
0.0
220
0.0
230
1.0
  0
LINE
  8
0
  6
CONTINUOUS
 62
     7
  5
23A
 10
953527.261
 20
7301948.995
 30
0.0
 11
953522.776
 21
7302016.668
 31
0.0
  0
LINE
  8
0
  6
CONTINUOUS
 62
     7
  5
23B
 10
953495.673
 20
7302042.857
 30
0.0
 11
953448.566
 21
7302044.24
 31
0.0
  0
LINE
  8
0
  6
CONTINUOUS
 62
     7
  5
23C
 10
953494.476
 20
7302064.315
 30
0.0
 11
953449.194
 21
7302065.644
 31
0.0
  0
LINE
  8
0
  6
CONTINUOUS
 62
     7
  5
23D
 10
953541.378
 20
7302099.508
 30
0.0
 11
953450.267
 21
7302102.182
 31
0.0
  0
LINE
  8
0
  6
CONTINUOUS
 62
     7
  5
23E
 10
953568.776
 20
7301947.777
 30
0.0
 11
953510.342
 21
7301292.043
 31
0.0
  0
LINE
  8
0
  6
CONTINUOUS
 62
     7
  5
23F
 10
953544.229
 20
7302196.671
 30
0.0
 11
953543.007
 21
7302155.021
 31
0.0
  0
LINE
  8
0
  6
CONTINUOUS
 62
     7
  5
240
 10
953541.378
 20
7302099.508
 30
0.0
 11
953540.155
 21
7302057.851
 31
0.0
  0
ARC
  8
0
  6
CONTINUOUS
 62
     7
  5
241
 10
953945.762488
 20
7301258.620915
 30
0.0
 40
924.591871
 50
84.752311
 51
110.454675
210
0.0
220
0.0
230
1.0
  0
ARC
  8
0
  6
CONTINUOUS
 62
     7
  5
242
 10
953945.762488
 20
7301258.620915
 30
0.0
 40
959.264066
 50
84.379161
 51
109.251389
210
0.0
220
0.0
230
1.0
  0
LINE
  8
0
  6
CONTINUOUS
 62
     7
  5
243
 10
954070.335
 20
7302134.292
 30
0.0
 11
954069.017
 21
7302089.41
 31
0.0
  0
ARC
  8
0
  6
CONTINUOUS
 62
     7
  5
244
 10
954026.302689
 20
7302135.521744
 30
0.0
 40
44.000145
 50
358.3189
 51
84.752311
210
0.0
220
0.0
230
1.0
  0
LINE
  8
0
  6
CONTINUOUS
 62
     7
  5
245
 10
953571.805
 20
7302049.705
 30
0.0
 11
953568.776
 21
7301947.777
 31
0.0
  0
ARC
  8
0
  6
CONTINUOUS
 62
     7
  5
246
 10
953616.291569
 20
7302202.007289
 30
0.0
 40
40.000132
 50
178.3189
 51
289.251389
210
0.0
220
0.0
230
1.0
  0
ARC
  8
0
  6
CONTINUOUS
 62
     7
  5
247
 10
953996.012631
 20
7302970.77063
 30
0.0
 40
959.264066
 50
247.386411
 51
273.758875
210
0.0
220
0.0
230
1.0
  0
ARC
  8
0
  6
CONTINUOUS
 62
     7
  5
248
 10
953996.012631
 20
7302970.77063
 30
0.0
 40
924.591871
 50
246.183125
 51
271.885489
210
0.0
220
0.0
230
1.0
  0
ARC
  8
0
  6
CONTINUOUS
 62
     7
  5
249
 10
954024.985908
 20
7302090.655673
 30
0.0
 40
44.000145
 50
271.885489
 51
358.3189
210
0.0
220
0.0
230
1.0
  0
ARC
  8
0
  6
CONTINUOUS
 62
     7
  5
24A
 10
953611.781294
 20
7302048.330813
 30
0.0
 40
40.000132
 50
67.386411
 51
178.030703
210
0.0
220
0.0
230
1.0
  0
LINE
  8
0
  6
CONTINUOUS
 62
     7
  5
24B
 10
954172.18
 20
7302520.163
 30
0.0
 11
954172.454
 21
7302543.595
 31
0.0
  0
LINE
  8
0
  6
CONTINUOUS
 62
     7
  5
24C
 10
954172.454
 20
7302543.595
 30
0.0
 11
954198.681
 21
7303437.198
 31
0.0
  0
POLYLINE
  8
0
  6
CONTINUOUS
 62
     7
  5
24D
 66
     1
 10
0.0
 20
0.0
 30
0.0
  0
VERTEX
  8
0
  6
CONTINUOUS
 62
     7
  5
24E
 10
954097.651074
 20
7302211.572336
 30
0.0
 42
0.001226
  0
VERTEX
  8
0
  6
CONTINUOUS
 62
     7
  5
24F
 10
954101.916545
 20
7302232.072936
 30
0.0
  0
VERTEX
  8
0
  6
CONTINUOUS
 62
     7
  5
250
 10
954101.916558
 20
7302232.072997
 30
0.0
 42
0.002563
  0
VERTEX
  8
0
  6
CONTINUOUS
 62
     7
  5
251
 10
954103.654972
 20
7302240.757651
 30
0.0
  0
VERTEX
  8
0
  6
CONTINUOUS
 62
     7
  5
252
 10
954103.654986
 20
7302240.757725
 30
0.0
 42
0.001912
  0
VERTEX
  8
0
  6
CONTINUOUS
 62
     7
  5
253
 10
954110.332491
 20
7302275.740841
 30
0.0
  0
VERTEX
  8
0
  6
CONTINUOUS
 62
     7
  5
254
 10
954110.332472
 20
7302275.740741
 30
0.0
 42
-0.007108
  0
VERTEX
  8
0
  6
CONTINUOUS
 62
     7
  5
255
 10
954111.979082
 20
7302283.905562
 30
0.0
  0
VERTEX
  8
0
  6
CONTINUOUS
 62
     7
  5
256
 10
954111.979082
 20
7302283.905562
 30
0.0
 42
-0.018755
  0
VERTEX
  8
0
  6
CONTINUOUS
 62
     7
  5
257
 10
954113.636309
 20
7302290.376252
 30
0.0
  0
VERTEX
  8
0
  6
CONTINUOUS
 62
     7
  5
258
 10
954113.636309
 20
7302290.376253
 30
0.0
 42
-0.023481
  0
VERTEX
  8
0
  6
CONTINUOUS
 62
     7
  5
259
 10
954114.933457
 20
7302294.1002
 30
0.0
  0
VERTEX
  8
0
  6
CONTINUOUS
 62
     7
  5
25A
 10
954114.933455
 20
7302294.100194
 30
0.0
 42
-0.002803
  0
VERTEX
  8
0
  6
CONTINUOUS
 62
     7
  5
25B
 10
954118.863329
 20
7302303.722359
 30
0.0
  0
VERTEX
  8
0
  6
CONTINUOUS
 62
     7
  5
25C
 10
954118.863301
 20
7302303.722292
 30
0.0
 42
0.001251
  0
VERTEX
  8
0
  6
CONTINUOUS
 62
     7
  5
25D
 10
954128.205883
 20
7302326.395986
 30
0.0
  0
VERTEX
  8
0
  6
CONTINUOUS
 62
     7
  5
25E
 10
954128.205899
 20
7302326.396024
 30
0.0
 42
0.00208
  0
VERTEX
  8
0
  6
CONTINUOUS
 62
     7
  5
25F
 10
954137.055524
 20
7302348.28621
 30
0.0
  0
VERTEX
  8
0
  6
CONTINUOUS
 62
     7
  5
260
 10
954137.055538
 20
7302348.286245
 30
0.0
 42
-0.00473
  0
VERTEX
  8
0
  6
CONTINUOUS
 62
     7
  5
261
 10
954140.317744
 20
7302356.23405
 30
0.0
  0
VERTEX
  8
0
  6
CONTINUOUS
 62
     7
  5
262
 10
954140.317745
 20
7302356.234053
 30
0.0
 42
-0.006865
  0
VERTEX
  8
0
  6
CONTINUOUS
 62
     7
  5
263
 10
954157.310201
 20
7302382.566055
 30
0.0
  0
VERTEX
  8
0
  6
CONTINUOUS
 62
     7
  5
264
 10
954157.310199
 20
7302382.566051
 30
0.0
 42
-0.006746
  0
VERTEX
  8
0
  6
CONTINUOUS
 62
     7
  5
265
 10
954166.77388
 20
7302396.390227
 30
0.0
  0
VERTEX
  8
0
  6
CONTINUOUS
 62
     7
  5
266
 10
954166.77387
 20
7302396.390213
 30
0.0
 42
0.009348
  0
VERTEX
  8
0
  6
CONTINUOUS
 62
     7
  5
267
 10
954174.859107
 20
7302408.333645
 30
0.0
  0
VERTEX
  8
0
  6
CONTINUOUS
 62
     7
  5
268
 10
954174.859107
 20
7302408.333645
 30
0.0
 42
0.016594
  0
VERTEX
  8
0
  6
CONTINUOUS
 62
     7
  5
269
 10
954181.511199
 20
7302419.350537
 30
0.0
  0
VERTEX
  8
0
  6
CONTINUOUS
 62
     7
  5
26A
 10
954181.511198
 20
7302419.350535
 30
0.0
 42
0.009477
  0
VERTEX
  8
0
  6
CONTINUOUS
 62
     7
  5
26B
 10
954190.622833
 20
7302436.388868
 30
0.0
  0
VERTEX
  8
0
  6
CONTINUOUS
 62
     7
  5
26C
 10
954190.622833
 20
7302436.388868
 30
0.0
 42
0.023521
  0
VERTEX
  8
0
  6
CONTINUOUS
 62
     7
  5
26D
 10
954194.405364
 20
7302444.744467
 30
0.0
  0
VERTEX
  8
0
  6
CONTINUOUS
 62
     7
  5
26E
 10
954194.405354
 20
7302444.744441
 30
0.0
 42
0.004881
  0
VERTEX
  8
0
  6
CONTINUOUS
 62
     7
  5
26F
 10
954203.911632
 20
7302469.378153
 30
0.0
  0
VERTEX
  8
0
  6
CONTINUOUS
 62
     7
  5
270
 10
954203.911641
 20
7302469.378177
 30
0.0
 42
0.031266
  0
VERTEX
  8
0
  6
CONTINUOUS
 62
     7
  5
271
 10
954208.264296
 20
7302483.649901
 30
0.0
  0
SEQEND
  8
0
  6
CONTINUOUS
 62
     7
  5
272
  0
ARC
  8
0
  6
CONTINUOUS
 62
     7
  5
273
 10
949919.976679
 20
7303091.497132
 30
0.0
 40
4228.335996
 50
348.209539
 51
348.386917
210
0.0
220
0.0
230
1.0
  0
ARC
  8
0
  6
CONTINUOUS
 62
     7
  5
274
 10
953255.808603
 20
7302405.955377
 30
0.0
 40
822.790206
 50
348.386917
 51
348.974406
210
0.0
220
0.0
230
1.0
  0
ARC
  8
0
  6
CONTINUOUS
 62
     7
  5
275
 10
949532.535444
 20
7303131.412414
 30
0.0
 40
4616.080458
 50
348.974408
 51
349.412575
210
0.0
220
0.0
230
1.0
  0
ARC
  8
0
  6
CONTINUOUS
 62
     7
  5
276
 10
954398.293888
 20
7302221.915638
 30
0.0
 40
333.948797
 50
167.783469
 51
169.412575
210
0.0
220
0.0
230
1.0
  0
ARC
  8
0
  6
CONTINUOUS
 62
     7
  5
277
 10
954199.031796
 20
7302265.057808
 30
0.0
 40
130.069843
 50
163.485722
 51
167.783469
210
0.0
220
0.0
230
1.0
  0
ARC
  8
0
  6
CONTINUOUS
 62
     7
  5
278
 10
954153.910713
 20
7302278.435513
 30
0.0
 40
83.007383
 50
158.10515
 51
163.485722
210
0.0
220
0.0
230
1.0
  0
ARC
  8
0
  6
CONTINUOUS
 62
     7
  5
279
 10
954975.1441
 20
7301948.387543
 30
0.0
 40
968.081356
 50
157.462789
 51
158.10515
210
0.0
220
0.0
230
1.0
  0
ARC
  8
0
  6
CONTINUOUS
 62
     7
  5
27A
 10
949592.170667
 20
7304182.184996
 30
0.0
 40
4859.976128
 50
337.462789
 51
337.749481
210
0.0
220
0.0
230
1.0
  0
ARC
  8
0
  6
CONTINUOUS
 62
     7
  5
27B
 10
951501.425053
 20
7303401.068237
 30
0.0
 40
2797.115081
 50
337.749481
 51
338.226147
210
0.0
220
0.0
230
1.0
  0
ARC
  8
0
  6
CONTINUOUS
 62
     7
  5
27C
 10
954558.742981
 20
7302179.846484
 30
0.0
 40
495.084106
 50
157.093133
 51
158.22615
210
0.0
220
0.0
230
1.0
  0
ARC
  8
0
  6
CONTINUOUS
 62
     7
  5
27D
 10
954135.980512
 20
7302358.488063
 30
0.0
 40
36.127769
 50
147.971442
 51
157.093131
210
0.0
220
0.0
230
1.0
  0
ARC
  8
0
  6
CONTINUOUS
 62
     7
  5
27E
 10
955107.654084
 20
7301750.645397
 30
0.0
 40
1182.261373
 50
146.378519
 51
147.971442
210
0.0
220
0.0
230
1.0
  0
ARC
  8
0
  6
CONTINUOUS
 62
     7
  5
27F
 10
954674.294328
 20
7302038.803167
 30
0.0
 40
661.842716
 50
144.832369
 51
146.378519
210
0.0
220
0.0
230
1.0
  0
ARC
  8
0
  6
CONTINUOUS
 62
     7
  5
280
 10
953851.431772
 20
7302618.572892
 30
0.0
 40
344.75339
 50
324.832369
 51
326.974703
210
0.0
220
0.0
230
1.0
  0
ARC
  8
0
  6
CONTINUOUS
 62
     7
  5
281
 10
954012.254472
 20
7302514.032429
 30
0.0
 40
152.93929
 50
326.974703
 51
330.777433
210
0.0
220
0.0
230
1.0
  0
ARC
  8
0
  6
CONTINUOUS
 62
     7
  5
282
 10
953736.625808
 20
7302668.218581
 30
0.0
 40
468.762863
 50
330.777433
 51
332.949258
210
0.0
220
0.0
230
1.0
  0
ARC
  8
0
  6
CONTINUOUS
 62
     7
  5
283
 10
954103.751363
 20
7302480.749044
 30
0.0
 40
56.542048
 50
332.949258
 51
338.338767
210
0.0
220
0.0
230
1.0
  0
ARC
  8
0
  6
CONTINUOUS
 62
     7
  5
284
 10
952937.595664
 20
7302943.904996
 30
0.0
 40
1311.305991
 50
338.338767
 51
339.457508
210
0.0
220
0.0
230
1.0
  0
ARC
  8
0
  6
CONTINUOUS
 62
     7
  5
285
 10
954092.082377
 20
7302511.283979
 30
0.0
 40
78.422981
 50
339.457508
 51
349.691061
210
0.0
220
0.0
230
1.0
  0
ARC
  8
0
  6
CONTINUOUS
 62
     7
  5
286
 10
953958.548494
 20
7302535.572715
 30
0.0
 40
214.147851
 50
349.691064
 51
355.878703
210
0.0
220
0.0
230
1.0
  0
ARC
  8
0
  6
CONTINUOUS
 62
     7
  5
287
 10
954041.480506
 20
7302231.186199
 30
0.0
 40
18.000059
 50
264.379161
 51
348.209539
210
0.0
220
0.0
230
1.0
  0
LINE
  8
0
  6
CONTINUOUS
 62
     7
  5
288
 10
954845.803
 20
7302445.17
 30
0.0
 11
954841.458
 21
7302297.132
 31
0.0
  0
LINE
  8
0
  6
CONTINUOUS
 62
     7
  5
289
 10
954669.691
 20
7302474.922
 30
0.0
 11
954738.124
 21
7302404.08
 31
0.0
  0
LINE
  8
0
  6
CONTINUOUS
 62
     7
  5
28A
 10
954739.001
 20
7302433.956
 30
0.0
 11
954765.442
 21
7302433.18
 31
0.0
  0
LINE
  8
0
  6
CONTINUOUS
 62
     7
  5
28B
 10
954765.442
 20
7302433.18
 30
0.0
 11
954763.807
 21
7302377.464
 31
0.0
  0
LINE
  8
0
  6
CONTINUOUS
 62
     7
  5
28C
 10
954791.778
 20
7302378.064
 30
0.0
 11
954819.707
 21
7302377.245
 31
0.0
  0
LINE
  8
0
  6
CONTINUOUS
 62
     7
  5
28D
 10
954819.707
 20
7302377.245
 30
0.0
 11
954818.067
 21
7302321.387
 31
0.0
  0
LINE
  8
0
  6
CONTINUOUS
 62
     7
  5
28E
 10
954794.749
 20
7302378.512
 30
0.0
 11
954793.809
 21
7302346.478
 31
0.0
  0
LINE
  8
0
  6
CONTINUOUS
 62
     7
  5
28F
 10
954739.001
 20
7302433.956
 30
0.0
 11
954738.124
 21
7302404.08
 31
0.0
  0
LINE
  8
0
  6
CONTINUOUS
 62
     7
  5
290
 10
954818.067
 20
7302321.387
 30
0.0
 11
954841.458
 21
7302297.132
 31
0.0
  0
LINE
  8
0
  6
CONTINUOUS
 62
     7
  5
291
 10
954763.807
 20
7302377.464
 30
0.0
 11
954793.809
 21
7302346.478
 31
0.0
  0
LINE
  8
0
  6
CONTINUOUS
 62
     7
  5
292
 10
954845.803
 20
7302445.17
 30
0.0
 11
954964.64
 21
7302441.683
 31
0.0
  0
LINE
  8
0
  6
CONTINUOUS
 62
     7
  5
293
 10
954964.64
 20
7302441.683
 30
0.0
 11
954957.886
 21
7302211.555
 31
0.0
  0
LINE
  8
0
  6
CONTINUOUS
 62
     7
  5
294
 10
954669.691
 20
7302474.922
 30
0.0
 11
954580.115
 21
7302392.216
 31
0.0
  0
POLYLINE
  8
0
  6
CONTINUOUS
 62
     2
  5
295
 66
     1
 10
0.0
 20
0.0
 30
0.0
 70
     1
  0
VERTEX
  8
0
  6
CONTINUOUS
 62
     2
  5
296
 10
954865.496
 20
7302436.775
 30
0.0
  0
VERTEX
  8
0
  6
CONTINUOUS
 62
     2
  5
297
 10
954888.17
 20
7302436.11
 30
0.0
  0
VERTEX
  8
0
  6
CONTINUOUS
 62
     2
  5
298
 10
954887.416
 20
7302410.406
 30
0.0
  0
VERTEX
  8
0
  6
CONTINUOUS
 62
     2
  5
299
 10
954864.741
 20
7302411.071
 30
0.0
  0
SEQEND
  8
0
  6
CONTINUOUS
 62
     2
  5
29A
  0
POLYLINE
  8
0
  6
CONTINUOUS
 62
     2
  5
29B
 66
     1
 10
0.0
 20
0.0
 30
0.0
 70
     1
  0
VERTEX
  8
0
  6
CONTINUOUS
 62
     2
  5
29C
 10
954861.859
 20
7302388.732
 30
0.0
  0
VERTEX
  8
0
  6
CONTINUOUS
 62
     2
  5
29D
 10
954886.352
 20
7302388.013
 30
0.0
  0
VERTEX
  8
0
  6
CONTINUOUS
 62
     2
  5
29E
 10
954885.43
 20
7302356.588
 30
0.0
  0
VERTEX
  8
0
  6
CONTINUOUS
 62
     2
  5
29F
 10
954860.936
 20
7302357.307
 30
0.0
  0
SEQEND
  8
0
  6
CONTINUOUS
 62
     2
  5
2A0
  0
LINE
  8
0
  6
CONTINUOUS
 62
     7
  5
2A1
 10
954818.812
 20
7302147.27
 30
0.0
 11
954611.755
 21
7302366.57
 31
0.0
  0
LINE
  8
0
  6
CONTINUOUS
 62
     7
  5
2A2
 10
954505.663
 20
7302414.138
 30
0.0
 11
954456.412
 21
7302415.583
 31
0.0
  0
LINE
  8
0
  6
CONTINUOUS
 62
     7
  5
2A3
 10
954344.871
 20
7302371.579
 30
0.0
 11
954236.304
 21
7302263.779
 31
0.0
  0
LINE
  8
0
  6
CONTINUOUS
 62
     7
  5
2A4
 10
954181.746
 20
7302229.008
 30
0.0
 11
954159.072
 21
7302220.718
 31
0.0
  0
LINE
  8
0
  6
CONTINUOUS
 62
     7
  5
2A5
 10
954097.584
 20
7302211.545
 30
0.0
 11
954102.162
 21
7302211.411
 31
0.0
  0
ARC
  8
0
  6
CONTINUOUS
 62
     7
  5
2A6
 10
954501.240774
 20
7302262.254537
 30
0.0
 40
152.0005
 50
43.342706
 51
88.3189
210
0.0
220
0.0
230
1.0
  0
ARC
  8
0
  6
CONTINUOUS
 62
     7
  5
2A7
 10
954451.946396
 20
7302263.701285
 30
0.0
 40
152.0005
 50
88.3189
 51
134.782228
210
0.0
220
0.0
230
1.0
  0
ARC
  8
0
  6
CONTINUOUS
 62
     7
  5
2A8
 10
954129.192022
 20
7302371.688655
 30
0.0
 40
152.0005
 50
290.208125
 51
314.782228
210
0.0
220
0.0
230
1.0
  0
ARC
  8
0
  6
CONTINUOUS
 62
     7
  5
2A9
 10
954106.607349
 20
7302363.375477
 30
0.0
 40
152.0005
 50
268.3189
 51
290.208125
210
0.0
220
0.0
230
1.0
  0
LINE
  8
0
  6
CONTINUOUS
 62
     7
  5
2AA
 10
954504.932
 20
7302389.244
 30
0.0
 11
954455.681
 21
7302390.69
 31
0.0
  0
ARC
  8
0
  6
CONTINUOUS
 62
     7
  5
2AB
 10
954501.240774
 20
7302262.254537
 30
0.0
 40
127.000418
 50
43.342706
 51
88.3189
210
0.0
220
0.0
230
1.0
  0
LINE
  8
0
  6
CONTINUOUS
 62
     7
  5
2AC
 10
954737.045
 20
7302197.359
 30
0.0
 11
954593.606
 21
7302349.396
 31
0.0
  0
ARC
  8
0
  6
CONTINUOUS
 62
     7
  5
2AD
 10
954451.946396
 20
7302263.701285
 30
0.0
 40
127.000418
 50
88.3189
 51
134.782228
210
0.0
220
0.0
230
1.0
  0
LINE
  8
0
  6
CONTINUOUS
 62
     7
  5
2AE
 10
954362.464
 20
7302353.886
 30
0.0
 11
954253.908
 21
7302246.017
 31
0.0
  0
ARC
  8
0
  6
CONTINUOUS
 62
     7
  5
2AF
 10
954129.192022
 20
7302371.688655
 30
0.0
 40
177.000582
 50
290.208125
 51
314.782228
210
0.0
220
0.0
230
1.0
  0
ARC
  8
0
  6
CONTINUOUS
 62
     7
  5
2B0
 10
954106.607349
 20
7302363.375477
 30
0.0
 40
177.000582
 50
277.212761
 51
290.208122
210
0.0
220
0.0
230
1.0
  0
LINE
  8
0
  6
CONTINUOUS
 62
     7
  5
2B1
 10
954190.352
 20
7302205.593
 30
0.0
 11
954167.746
 21
7302197.296
 31
0.0
  0
ARC
  8
0
  6
CONTINUOUS
 62
     7
  5
2B2
 10
954092.607925
 20
7301886.37963
 30
0.0
 40
152.0005
 50
66.429675
 51
86.971131
210
0.0
220
0.0
230
1.0
  0
ARC
  8
0
  6
CONTINUOUS
 62
     7
  5
2B3
 10
954092.607925
 20
7301886.37963
 30
0.0
 40
177.000582
 50
66.429675
 51
79.425036
210
0.0
220
0.0
230
1.0
  0
LINE
  8
0
  6
CONTINUOUS
 62
     7
  5
2B4
 10
954185.462
 20
7302038.979
 30
0.0
 11
954163.382
 21
7302048.589
 31
0.0
  0
ARC
  8
0
  6
CONTINUOUS
 62
     7
  5
2B5
 10
954114.666175
 20
7301876.75622
 30
0.0
 40
152.0005
 50
41.855572
 51
66.429675
210
0.0
220
0.0
230
1.0
  0
ARC
  8
0
  6
CONTINUOUS
 62
     7
  5
2B6
 10
954114.666175
 20
7301876.75622
 30
0.0
 40
177.000582
 50
53.115644
 51
66.429678
210
0.0
220
0.0
230
1.0
  0
LINE
  8
0
  6
CONTINUOUS
 62
     7
  5
2B7
 10
954175.498
 20
7302016.103
 30
0.0
 11
954153.349
 21
7302025.715
 31
0.0
  0
LINE
  8
0
  6
CONTINUOUS
 62
     7
  5
2B8
 10
954297.761
 20
7301900.114
 30
0.0
 11
954227.922
 21
7301978.199
 31
0.0
  0
LINE
  8
0
  6
CONTINUOUS
 62
     7
  5
2B9
 10
954348.58
 20
7301880.841
 30
0.0
 11
954270.856
 21
7301967.646
 31
0.0
  0
LINE
  8
0
  6
CONTINUOUS
 62
     7
  5
2BA
 10
954098.462
 20
7302154.273
 30
0.0
 11
954096.74
 21
7302095.594
 31
0.0
  0
ARC
  8
0
  6
CONTINUOUS
 62
     7
  5
2BB
 10
954491.813152
 20
7302004.845134
 30
0.0
 40
189.40501
 50
220.878692
 51
254.119478
210
0.0
220
0.0
230
1.0
  0
ARC
  8
0
  6
CONTINUOUS
 62
     7
  5
2BC
 10
954456.966665
 20
7301883.322257
 30
0.0
 40
62.985558
 50
254.3596
 51
303.056972
210
0.0
220
0.0
230
1.0
  0
ARC
  8
0
  6
CONTINUOUS
 62
     7
  5
2BD
 10
954464.907984
 20
7301884.334995
 30
0.0
 40
102.127923
 50
250.218903
 51
298.090836
210
0.0
220
0.0
230
1.0
  0
LINE
  8
0
  6
CONTINUOUS
 62
     7
  5
2BE
 10
954430.251
 20
7301788.264
 30
0.0
 11
954331.774
 21
7301828.941
 31
0.0
  0
ARC
  8
0
  6
CONTINUOUS
 62
     7
  5
2BF
 10
954516.618352
 20
7301787.312626
 30
0.0
 40
7.814603
 50
309.359989
 51
117.606936
210
0.0
220
0.0
230
1.0
  0
LINE
  8
0
  6
CONTINUOUS
 62
     7
  5
2C0
 10
954460.015
 20
7301730.76
 30
0.0
 11
954521.574
 21
7301781.278
 31
0.0
  0
LINE
  8
0
  6
CONTINUOUS
 62
     7
  5
2C1
 10
954460.015
 20
7301730.76
 30
0.0
 11
954389.315
 21
7301726.635
 31
0.0
  0
ARC
  8
0
  6
CONTINUOUS
 62
     7
  5
2C2
 10
954321.402086
 20
7301772.839167
 30
0.0
 40
57.039959
 50
79.547156
 51
121.625617
210
0.0
220
0.0
230
1.0
  0
LINE
  8
0
  6
CONTINUOUS
 62
     2
  5
2C3
 10
954272.299
 20
7301489.164
 30
0.0
 11
954293.499
 21
7301488.541
 31
0.0
  0
LINE
  8
0
  6
CONTINUOUS
 62
     2
  5
2C4
 10
954293.499
 20
7301488.541
 30
0.0
 11
954294.176
 21
7301511.621
 31
0.0
  0
LINE
  8
0
  6
CONTINUOUS
 62
     2
  5
2C5
 10
954294.176
 20
7301511.621
 30
0.0
 11
954272.976
 21
7301512.244
 31
0.0
  0
LINE
  8
0
  6
CONTINUOUS
 62
     2
  5
2C6
 10
954201.209
 20
7301490.242
 30
0.0
 11
954272.269
 21
7301488.156
 31
0.0
  0
LINE
  8
0
  6
CONTINUOUS
 62
     2
  5
2C7
 10
954272.269
 20
7301488.156
 30
0.0
 11
954272.299
 21
7301489.164
 31
0.0
  0
LINE
  8
0
  6
CONTINUOUS
 62
     2
  5
2C8
 10
954274.001
 20
7301547.173
 30
0.0
 11
954159.675
 21
7301550.528
 31
0.0
  0
LINE
  8
0
  6
CONTINUOUS
 62
     2
  5
2C9
 10
954159.675
 20
7301550.528
 30
0.0
 11
954157.907
 21
7301490.294
 31
0.0
  0
LINE
  8
0
  6
CONTINUOUS
 62
     2
  5
2CA
 10
954118.407
 20
7301491.453
 30
0.0
 11
954157.907
 21
7301490.294
 31
0.0
  0
LINE
  8
0
  6
CONTINUOUS
 62
     2
  5
2CB
 10
954201.209
 20
7301490.242
 30
0.0
 11
954196.866
 21
7301342.271
 31
0.0
  0
LINE
  8
0
  6
CONTINUOUS
 62
     2
  5
2CC
 10
954196.866
 20
7301342.271
 30
0.0
 11
954114.1
 21
7301344.7
 31
0.0
  0
LINE
  8
0
  6
CONTINUOUS
 62
     2
  5
2CD
 10
954114.1
 20
7301344.7
 30
0.0
 11
954118.407
 21
7301491.453
 31
0.0
  0
LINE
  8
0
  6
CONTINUOUS
 62
     2
  5
2CE
 10
954272.976
 20
7301512.244
 30
0.0
 11
954274.001
 21
7301547.173
 31
0.0
  0
POLYLINE
  8
0
  6
CONTINUOUS
 62
     2
  5
2CF
 66
     1
 10
0.0
 20
0.0
 30
0.0
 70
     1
  0
VERTEX
  8
0
  6
CONTINUOUS
 62
     2
  5
2D0
 10
954081.813
 20
7301304.767
 30
0.0
  0
VERTEX
  8
0
  6
CONTINUOUS
 62
     2
  5
2D1
 10
954117.964
 20
7301262.826
 30
0.0
  0
VERTEX
  8
0
  6
CONTINUOUS
 62
     2
  5
2D2
 10
954031.047
 20
7301187.926
 30
0.0
  0
VERTEX
  8
0
  6
CONTINUOUS
 62
     2
  5
2D3
 10
953994.831
 20
7301229.938
 30
0.0
  0
SEQEND
  8
0
  6
CONTINUOUS
 62
     2
  5
2D4
  0
LINE
  8
0
  6
CONTINUOUS
 62
     7
  5
2D5
 10
954393.983
 20
7302376.67
 30
0.0
 11
954380.397
 21
7301913.783
 31
0.0
  0
ARC
  8
0
  6
CONTINUOUS
 62
     7
  5
2D6
 10
954133.199819
 20
7302153.25081
 30
0.0
 40
34.800114
 50
97.212761
 51
178.3189
210
0.0
220
0.0
230
1.0
  0
ARC
  8
0
  6
CONTINUOUS
 62
     7
  5
2D7
 10
954131.47797
 20
7302094.583027
 30
0.0
 40
34.800114
 50
178.3189
 51
259.425039
210
0.0
220
0.0
230
1.0
  0
LINE
  8
0
  6
CONTINUOUS
 62
     7
  5
2D8
 10
954379.856
 20
7301895.349
 30
0.0
 11
954382.818
 21
7301895.262
 31
0.0
  0
ARC
  8
0
  6
CONTINUOUS
 62
     7
  5
2D9
 10
954383.028762
 20
7301904.822156
 30
0.0
 40
9.600032
 50
268.3189
 51
358.3189
210
0.0
220
0.0
230
1.0
  0
LINE
  8
0
  6
CONTINUOUS
 62
     7
  5
2DA
 10
954392.654
 20
7301904.537
 30
0.0
 11
954380.397
 21
7301913.783
 31
0.0
  0
ARC
  8
0
  6
CONTINUOUS
 62
     7
  5
2DB
 10
953955.414625
 20
7301555.296999
 30
0.0
 40
533.744443
 50
41.286847
 51
60.171478
210
0.0
220
0.0
230
1.0
  0
ARC
  8
0
  6
CONTINUOUS
 62
     7
  5
2DC
 10
953955.414625
 20
7301555.296999
 30
0.0
 40
519.190013
 50
34.562528
 51
52.586217
210
0.0
220
0.0
230
1.0
  0
ARC
  8
0
  6
CONTINUOUS
 62
     7
  5
2DD
 10
954725.658823
 20
7302186.556336
 30
0.0
 40
15.746104
 50
268.3189
 51
43.342706
210
0.0
220
0.0
230
1.0
  0
LINE
  8
0
  6
CONTINUOUS
 62
     7
  5
2DE
 10
954725.221
 20
7302170.836
 30
0.0
 11
954720.102
 21
7302170.986
 31
0.0
  0
LINE
  8
0
  6
CONTINUOUS
 62
     7
  5
2DF
 10
954720.102
 20
7302170.986
 30
0.0
 11
954716.081
 21
7302033.978
 31
0.0
  0
LINE
  8
0
  6
CONTINUOUS
 62
     7
  5
2E0
 10
954716.081
 20
7302033.978
 30
0.0
 11
954491.296
 21
7301830.52
 31
0.0
  0
ARC
  8
0
  6
CONTINUOUS
 62
     7
  5
2E1
 10
954381.116564
 20
7301926.276724
 30
0.0
 40
30.991221
 50
217.344722
 51
267.675719
210
0.0
220
0.0
230
1.0
  0
ARC
  8
0
  6
CONTINUOUS
 62
     7
  5
2E2
 10
954407.263724
 20
7301469.894734
 30
0.0
 40
401.011591
 50
107.501067
 51
166.855078
210
0.0
220
0.0
230
1.0
  0
ARC
  8
0
  6
CONTINUOUS
 62
     7
  5
2E3
 10
954274.182712
 20
7301880.44156
 30
0.0
 40
30.747444
 50
293.961808
 51
43.847261
210
0.0
220
0.0
230
1.0
  0
LINE
  8
0
  6
CONTINUOUS
 62
     7
  5
2E4
 10
954016.739
 20
7301561.045
 30
0.0
 11
953988.207
 21
7301561.882
 31
0.0
  0
LINE
  8
0
  6
CONTINUOUS
 62
     7
  5
2E5
 10
953988.207
 20
7301561.882
 30
0.0
 11
953956.288
 21
7301360.108
 31
0.0
  0
ARC
  8
0
  6
CONTINUOUS
 62
     7
  5
2E6
 10
953960.311041
 20
7301337.986771
 30
0.0
 40
22.494315
 50
336.84085
 51
100.323944
210
0.0
220
0.0
230
1.0
  0
ARC
  8
0
  6
CONTINUOUS
 62
     7
  5
2E7
 10
953904.97423
 20
7301347.666194
 30
0.0
 40
78.243346
 50
283.214881
 51
346.303675
210
0.0
220
0.0
230
1.0
  0
POLYLINE
  8
0
  6
CONTINUOUS
 62
     2
  5
2E8
 66
     1
 10
0.0
 20
0.0
 30
0.0
 70
     1
  0
VERTEX
  8
0
  6
CONTINUOUS
 62
     2
  5
2E9
 10
954808.713
 20
7302819.702
 30
0.0
  0
VERTEX
  8
0
  6
CONTINUOUS
 62
     2
  5
2EA
 10
954778.904
 20
7302820.577
 30
0.0
  0
VERTEX
  8
0
  6
CONTINUOUS
 62
     2
  5
2EB
 10
954777.897
 20
7302786.256
 30
0.0
  0
VERTEX
  8
0
  6
CONTINUOUS
 62
     2
  5
2EC
 10
954807.706
 20
7302785.382
 30
0.0
  0
SEQEND
  8
0
  6
CONTINUOUS
 62
     2
  5
2ED
  0
POLYLINE
  8
0
  6
CONTINUOUS
 62
     2
  5
2EE
 66
     1
 10
0.0
 20
0.0
 30
0.0
 70
     1
  0
VERTEX
  8
0
  6
CONTINUOUS
 62
     2
  5
2EF
 10
954327.511
 20
7301045.808
 30
0.0
  0
VERTEX
  8
0
  6
CONTINUOUS
 62
     2
  5
2F0
 10
954371.988
 20
7301044.503
 30
0.0
  0
VERTEX
  8
0
  6
CONTINUOUS
 62
     2
  5
2F1
 10
954358.255
 20
7300576.572
 30
0.0
  0
VERTEX
  8
0
  6
CONTINUOUS
 62
     2
  5
2F2
 10
954313.778
 20
7300577.878
 30
0.0
  0
SEQEND
  8
0
  6
CONTINUOUS
 62
     2
  5
2F3
  0
POLYLINE
  8
0
  6
CONTINUOUS
 62
     2
  5
2F4
 66
     1
 10
0.0
 20
0.0
 30
0.0
 70
     1
  0
VERTEX
  8
0
  6
CONTINUOUS
 62
     2
  5
2F5
 10
954455.41
 20
7301167.729
 30
0.0
  0
VERTEX
  8
0
  6
CONTINUOUS
 62
     2
  5
2F6
 10
954499.759
 20
7301166.428
 30
0.0
  0
VERTEX
  8
0
  6
CONTINUOUS
 62
     2
  5
2F7
 10
954486.201
 20
7300704.488
 30
0.0
  0
VERTEX
  8
0
  6
CONTINUOUS
 62
     2
  5
2F8
 10
954441.852
 20
7300705.789
 30
0.0
  0
SEQEND
  8
0
  6
CONTINUOUS
 62
     2
  5
2F9
  0
POLYLINE
  8
0
  6
CONTINUOUS
 62
     7
  5
2FA
 66
     1
 10
0.0
 20
0.0
 30
0.0
  0
VERTEX
  8
0
  6
CONTINUOUS
 62
     7
  5
2FB
 10
954818.812
 20
7302147.27
 30
0.0
  0
VERTEX
  8
0
  6
CONTINUOUS
 62
     7
  5
2FC
 10
954822.582
 20
7302140.356
 30
0.0
  0
VERTEX
  8
0
  6
CONTINUOUS
 62
     7
  5
2FD
 10
954831.471
 20
7302126.357
 30
0.0
  0
VERTEX
  8
0
  6
CONTINUOUS
 62
     7
  5
2FE
 10
954836.978
 20
7302114.485
 30
0.0
  0
VERTEX
  8
0
  6
CONTINUOUS
 62
     7
  5
2FF
 10
954837.327
 20
7302101.27
 30
0.0
  0
VERTEX
  8
0
  6
CONTINUOUS
 62
     7
  5
300
 10
954835.324
 20
7302088.131
 30
0.0
  0
VERTEX
  8
0
  6
CONTINUOUS
 62
     7
  5
301
 10
954829.655
 20
7302078.53
 30
0.0
  0
VERTEX
  8
0
  6
CONTINUOUS
 62
     7
  5
302
 10
954708.289
 20
7301958.78
 30
0.0
  0
VERTEX
  8
0
  6
CONTINUOUS
 62
     7
  5
303
 10
954712.332
 20
7301952.13
 30
0.0
  0
VERTEX
  8
0
  6
CONTINUOUS
 62
     7
  5
304
 10
954635.862
 20
7301875.307
 30
0.0
  0
VERTEX
  8
0
  6
CONTINUOUS
 62
     7
  5
305
 10
954682.004
 20
7301827.414
 30
0.0
  0
VERTEX
  8
0
  6
CONTINUOUS
 62
     7
  5
306
 10
954772.654
 20
7301916.951
 30
0.0
  0
VERTEX
  8
0
  6
CONTINUOUS
 62
     7
  5
307
 10
954780.952
 20
7301908.423
 30
0.0
  0
VERTEX
  8
0
  6
CONTINUOUS
 62
     7
  5
308
 10
954963.75
 20
7302076.274
 30
0.0
  0
VERTEX
  8
0
  6
CONTINUOUS
 62
     7
  5
309
 10
954968.192
 20
7302080.928
 30
0.0
  0
VERTEX
  8
0
  6
CONTINUOUS
 62
     7
  5
30A
 10
954973.347
 20
7302088.926
 30
0.0
  0
VERTEX
  8
0
  6
CONTINUOUS
 62
     7
  5
30B
 10
954975.186
 20
7302096.48
 30
0.0
  0
VERTEX
  8
0
  6
CONTINUOUS
 62
     7
  5
30C
 10
954973.741
 20
7302106.966
 30
0.0
  0
VERTEX
  8
0
  6
CONTINUOUS
 62
     7
  5
30D
 10
954972.742
 20
7302114.196
 30
0.0
  0
VERTEX
  8
0
  6
CONTINUOUS
 62
     7
  5
30E
 10
954969.363
 20
7302120.834
 30
0.0
  0
VERTEX
  8
0
  6
CONTINUOUS
 62
     7
  5
30F
 10
954963.225
 20
7302127.342
 30
0.0
  0
VERTEX
  8
0
  6
CONTINUOUS
 62
     7
  5
310
 10
954954.816
 20
7302130.019
 30
0.0
  0
VERTEX
  8
0
  6
CONTINUOUS
 62
     7
  5
311
 10
954949.052
 20
7302130.79
 30
0.0
  0
VERTEX
  8
0
  6
CONTINUOUS
 62
     7
  5
312
 10
954949.974
 20
7302164.504
 30
0.0
  0
VERTEX
  8
0
  6
CONTINUOUS
 62
     7
  5
313
 10
954965.281
 20
7302165.334
 30
0.0
  0
VERTEX
  8
0
  6
CONTINUOUS
 62
     7
  5
314
 10
954966.024
 20
7302211.181
 30
0.0
  0
VERTEX
  8
0
  6
CONTINUOUS
 62
     7
  5
315
 10
954876.483
 20
7302214.546
 30
0.0
  0
VERTEX
  8
0
  6
CONTINUOUS
 62
     7
  5
316
 10
954870.05
 20
7302224.84
 30
0.0
  0
VERTEX
  8
0
  6
CONTINUOUS
 62
     7
  5
317
 10
954830.388
 20
7302225.057
 30
0.0
  0
VERTEX
  8
0
  6
CONTINUOUS
 62
     7
  5
318
 10
954819.221
 20
7302211.713
 30
0.0
  0
VERTEX
  8
0
  6
CONTINUOUS
 62
     7
  5
319
 10
954781.536
 20
7302249.591
 30
0.0
  0
VERTEX
  8
0
  6
CONTINUOUS
 62
     7
  5
31A
 10
954750.291
 20
7302219.732
 30
0.0
  0
SEQEND
  8
0
  6
CONTINUOUS
 62
     7
  5
31B
  0
POLYLINE
  8
0
  6
CONTINUOUS
 62
     2
  5
31C
 66
     1
 10
0.0
 20
0.0
 30
0.0
  0
VERTEX
  8
0
  6
CONTINUOUS
 62
     2
  5
31D
 10
954820.521
 20
7303222.03
 30
0.0
  0
VERTEX
  8
0
  6
CONTINUOUS
 62
     2
  5
31E
 10
954799.82
 20
7302516.694
 30
0.0
  0
VERTEX
  8
0
  6
CONTINUOUS
 62
     2
  5
31F
 10
954496.278
 20
7302525.603
 30
0.0
  0
VERTEX
  8
0
  6
CONTINUOUS
 62
     2
  5
320
 10
954494.799
 20
7302475.209
 30
0.0
  0
VERTEX
  8
0
  6
CONTINUOUS
 62
     2
  5
321
 10
954208.278
 20
7302483.618
 30
0.0
  0
SEQEND
  8
0
  6
CONTINUOUS
 62
     2
  5
322
  0
POLYLINE
  8
0
  6
CONTINUOUS
 62
     2
  5
323
 66
     1
 10
0.0
 20
0.0
 30
0.0
 70
     1
  0
VERTEX
  8
0
  6
CONTINUOUS
 62
     2
  5
324
 10
954364.934
 20
7304321.914
 30
0.0
  0
VERTEX
  8
0
  6
CONTINUOUS
 62
     2
  5
325
 10
954808.236
 20
7304308.904
 30
0.0
  0
VERTEX
  8
0
  6
CONTINUOUS
 62
     2
  5
326
 10
954807.436
 20
7304281.65
 30
0.0
  0
VERTEX
  8
0
  6
CONTINUOUS
 62
     2
  5
327
 10
954364.134
 20
7304294.661
 30
0.0
  0
SEQEND
  8
0
  6
CONTINUOUS
 62
     2
  5
328
  0
ARC
  8
0
  6
CONTINUOUS
 62
     2
  5
329
 10
954880.216281
 20
7304182.037973
 30
0.0
 40
43.564805
 50
100.608308
 51
177.854147
210
0.0
220
0.0
230
1.0
  0
LINE
  8
0
  6
CONTINUOUS
 62
     2
  5
32A
 10
954836.623
 20
7304183.682
 30
0.0
 11
954834.853
 21
7304123.387
 31
0.0
  0
LINE
  8
0
  6
CONTINUOUS
 62
     7
  5
32B
 10
954256.869
 20
7303480.614
 30
0.0
 11
954250.972
 21
7303279.687
 31
0.0
  0
LINE
  8
0
  6
CONTINUOUS
 62
     7
  5
32C
 10
954302.729
 20
7304382.461
 30
0.0
 11
954198.681
 21
7303437.198
 31
0.0
  0
LINE
  8
0
  6
CONTINUOUS
 62
     7
  5
32D
 10
954342.696
 20
7304358.256
 30
0.0
 11
954332.124
 21
7304261.59
 31
0.0
  0
LINE
  8
0
  6
CONTINUOUS
 62
     7
  5
32E
 10
954332.124
 20
7304261.59
 30
0.0
 11
954289.587
 21
7304262.838
 31
0.0
  0
LINE
  8
0
  6
CONTINUOUS
 62
     7
  5
32F
 10
954530.242
 20
7304440.178
 30
0.0
 11
954347.617
 21
7304429.504
 31
0.0
  0
LINE
  8
0
  6
CONTINUOUS
 62
     7
  5
330
 10
954530.459
 20
7304415.522
 30
0.0
 11
954414.893
 21
7304408.74
 31
0.0
  0
ARC
  8
0
  6
CONTINUOUS
 62
     7
  5
331
 10
954421.178713
 20
7304322.963752
 30
0.0
 40
86.041445
 50
92.42145
 51
155.757842
210
0.0
220
0.0
230
1.0
  0
ARC
  8
0
  6
CONTINUOUS
 62
     2
  5
332
 10
954421.178713
 20
7304322.963752
 30
0.0
 40
86.041445
 50
191.66865
 51
191.957083
210
0.0
220
0.0
230
1.0
  0
ARC
  8
0
  6
CONTINUOUS
 62
     7
  5
333
 10
954356.630898
 20
7304376.072731
 30
0.0
 40
54.237281
 50
99.575381
 51
174.127136
210
0.0
220
0.0
230
1.0
  0
LINE
  8
0
  6
CONTINUOUS
 62
     7
  5
334
 10
954530.242
 20
7304440.178
 30
0.0
 11
954912.32
 21
7304622.119
 31
0.0
  0
SOLID
  8
0
  6
CONTINUOUS
 62
     2
  5
335
 10
954501.325
 20
7302596.576
 30
0.0
 11
954499.834
 21
7302545.776
 31
0.0
 12
954489.748
 22
7302596.916
 32
0.0
 13
954326.627
 23
7302550.86
 33
0.0
  0
SOLID
  8
0
  6
CONTINUOUS
 62
     2
  5
336
 10
954489.748
 20
7302596.916
 30
0.0
 11
954326.627
 21
7302550.86
 31
0.0
 12
954489.748
 22
7302596.916
 32
0.0
 13
954326.627
 23
7302550.86
 33
0.0
  0
SOLID
  8
0
  6
CONTINUOUS
 62
     2
  5
337
 10
954489.748
 20
7302596.916
 30
0.0
 11
954326.627
 21
7302550.86
 31
0.0
 12
954493.257
 22
7302716.491
 32
0.0
 13
954389.832
 23
7302719.526
 33
0.0
  0
SOLID
  8
0
  6
CONTINUOUS
 62
     2
  5
338
 10
954389.832
 20
7302719.526
 30
0.0
 11
954326.627
 21
7302550.86
 31
0.0
 12
954390.181
 22
7302731.435
 32
0.0
 13
954326.627
 23
7302550.86
 33
0.0
  0
SOLID
  8
0
  6
CONTINUOUS
 62
     2
  5
339
 10
954390.181
 20
7302731.435
 30
0.0
 11
954326.627
 21
7302550.86
 31
0.0
 12
954330.834
 22
7302733.177
 32
0.0
 13
954326.627
 23
7302550.86
 33
0.0
  0
SOLID
  8
0
  6
CONTINUOUS
 62
     2
  5
33A
 10
954443.349
 20
7302918.312
 30
0.0
 11
954440.278
 21
7302813.676
 31
0.0
 12
954300.159
 22
7302922.514
 32
0.0
 13
954297.088
 23
7302817.878
 33
0.0
  0
SOLID
  8
0
  6
CONTINUOUS
 62
     2
  5
33B
 10
954888.17
 20
7302436.11
 30
0.0
 11
954887.416
 21
7302410.406
 31
0.0
 12
954865.496
 22
7302436.775
 32
0.0
 13
954864.741
 23
7302411.071
 33
0.0
  0
SOLID
  8
0
  6
CONTINUOUS
 62
     2
  5
33C
 10
954886.352
 20
7302388.013
 30
0.0
 11
954885.43
 21
7302356.588
 31
0.0
 12
954861.859
 22
7302388.732
 32
0.0
 13
954860.936
 23
7302357.307
 33
0.0
  0
SOLID
  8
0
  6
CONTINUOUS
 62
     2
  5
33D
 10
954781.536
 20
7302249.591
 30
0.0
 11
954819.221
 21
7302211.713
 31
0.0
 12
954750.291
 22
7302219.732
 32
0.0
 13
954818.812
 23
7302147.27
 33
0.0
  0
SOLID
  8
0
  6
CONTINUOUS
 62
     2
  5
33E
 10
954819.221
 20
7302211.713
 30
0.0
 11
954818.812
 21
7302147.27
 31
0.0
 12
954830.388
 22
7302225.057
 32
0.0
 13
954822.582
 23
7302140.356
 33
0.0
  0
SOLID
  8
0
  6
CONTINUOUS
 62
     2
  5
33F
 10
954830.388
 20
7302225.057
 30
0.0
 11
954836.978
 21
7302114.485
 31
0.0
 12
954870.05
 22
7302224.84
 32
0.0
 13
954836.978
 23
7302114.485
 33
0.0
  0
SOLID
  8
0
  6
CONTINUOUS
 62
     2
  5
340
 10
954822.582
 20
7302140.356
 30
0.0
 11
954836.978
 21
7302114.485
 31
0.0
 12
954830.388
 22
7302225.057
 32
0.0
 13
954836.978
 23
7302114.485
 33
0.0
  0
SOLID
  8
0
  6
CONTINUOUS
 62
     2
  5
341
 10
954876.483
 20
7302214.546
 30
0.0
 11
954836.978
 21
7302114.485
 31
0.0
 12
954870.05
 22
7302224.84
 32
0.0
 13
954836.978
 23
7302114.485
 33
0.0
  0
SOLID
  8
0
  6
CONTINUOUS
 62
     2
  5
342
 10
954966.024
 20
7302211.181
 30
0.0
 11
954965.281
 21
7302165.334
 31
0.0
 12
954876.483
 22
7302214.546
 32
0.0
 13
954949.974
 23
7302164.504
 33
0.0
  0
SOLID
  8
0
  6
CONTINUOUS
 62
     2
  5
343
 10
954876.483
 20
7302214.546
 30
0.0
 11
954949.974
 21
7302164.504
 31
0.0
 12
954836.978
 22
7302114.485
 32
0.0
 13
954949.052
 23
7302130.79
 33
0.0
  0
SOLID
  8
0
  6
CONTINUOUS
 62
     2
  5
344
 10
954836.978
 20
7302114.485
 30
0.0
 11
954949.052
 21
7302130.79
 31
0.0
 12
954949.052
 22
7302130.79
 32
0.0
 13
954949.052
 23
7302130.79
 33
0.0
  0
SOLID
  8
0
  6
CONTINUOUS
 62
     2
  5
345
 10
954949.052
 20
7302130.79
 30
0.0
 11
954962.923
 21
7302126.275
 31
0.0
 12
954949.052
 22
7302130.79
 32
0.0
 13
954974.741
 23
7302099.532
 33
0.0
  0
SOLID
  8
0
  6
CONTINUOUS
 62
     2
  5
346
 10
954962.923
 20
7302126.275
 30
0.0
 11
954974.743
 21
7302099.599
 31
0.0
 12
954971.078
 22
7302117.284
 32
0.0
 13
954972.816
 23
7302109.822
 33
0.0
  0
SOLID
  8
0
  6
CONTINUOUS
 62
     2
  5
347
 10
954949.052
 20
7302130.79
 30
0.0
 11
954974.741
 21
7302099.532
 31
0.0
 12
954949.052
 22
7302130.79
 32
0.0
 13
954967.762
 23
7302079.932
 33
0.0
  0
SOLID
  8
0
  6
CONTINUOUS
 62
     2
  5
348
 10
954974.743
 20
7302099.599
 30
0.0
 11
954967.571
 21
7302080.337
 31
0.0
 12
954973.566
 22
7302091.816
 32
0.0
 13
954971.82
 23
7302087.428
 33
0.0
  0
SOLID
  8
0
  6
CONTINUOUS
 62
     2
  5
349
 10
954836.978
 20
7302114.485
 30
0.0
 11
954949.052
 21
7302130.79
 31
0.0
 12
954835.324
 22
7302088.131
 32
0.0
 13
954967.571
 23
7302080.337
 33
0.0
  0
SOLID
  8
0
  6
CONTINUOUS
 62
     2
  5
34A
 10
954835.324
 20
7302088.131
 30
0.0
 11
954963.75
 21
7302076.274
 31
0.0
 12
954708.289
 22
7301958.78
 32
0.0
 13
954963.75
 23
7302076.274
 33
0.0
  0
SOLID
  8
0
  6
CONTINUOUS
 62
     2
  5
34B
 10
954708.289
 20
7301958.78
 30
0.0
 11
954780.952
 21
7301908.423
 31
0.0
 12
954708.289
 22
7301958.78
 32
0.0
 13
954963.75
 23
7302076.274
 33
0.0
  0
SOLID
  8
0
  6
CONTINUOUS
 62
     2
  5
34C
 10
954081.813
 20
7301304.767
 30
0.0
 11
954117.964
 21
7301262.826
 31
0.0
 12
953994.831
 22
7301229.938
 32
0.0
 13
954031.047
 23
7301187.926
 33
0.0
  0
SOLID
  8
0
  6
CONTINUOUS
 62
     2
  5
34D
 10
954294.176
 20
7301511.621
 30
0.0
 11
954293.499
 21
7301488.541
 31
0.0
 12
954272.976
 22
7301512.244
 32
0.0
 13
954293.499
 23
7301488.541
 33
0.0
  0
SOLID
  8
0
  6
CONTINUOUS
 62
     2
  5
34E
 10
954272.976
 20
7301512.244
 30
0.0
 11
954293.499
 21
7301488.541
 31
0.0
 12
954272.976
 22
7301512.244
 32
0.0
 13
954201.209
 23
7301490.242
 33
0.0
  0
SOLID
  8
0
  6
CONTINUOUS
 62
     2
  5
34F
 10
954272.976
 20
7301512.244
 30
0.0
 11
954201.209
 21
7301490.242
 31
0.0
 12
954274.001
 22
7301547.173
 32
0.0
 13
954201.209
 23
7301490.242
 33
0.0
  0
SOLID
  8
0
  6
CONTINUOUS
 62
     2
  5
350
 10
954274.001
 20
7301547.173
 30
0.0
 11
954201.209
 21
7301490.242
 31
0.0
 12
954159.675
 22
7301550.528
 32
0.0
 13
954201.209
 23
7301490.242
 33
0.0
  0
SOLID
  8
0
  6
CONTINUOUS
 62
     2
  5
351
 10
954201.209
 20
7301490.242
 30
0.0
 11
954196.866
 21
7301342.271
 31
0.0
 12
954159.675
 22
7301550.528
 32
0.0
 13
954196.866
 23
7301342.271
 33
0.0
  0
SOLID
  8
0
  6
CONTINUOUS
 62
     2
  5
352
 10
954159.675
 20
7301550.528
 30
0.0
 11
954196.866
 21
7301342.271
 31
0.0
 12
954157.907
 22
7301490.294
 32
0.0
 13
954196.866
 23
7301342.271
 33
0.0
  0
SOLID
  8
0
  6
CONTINUOUS
 62
     2
  5
353
 10
954157.907
 20
7301490.294
 30
0.0
 11
954196.866
 21
7301342.271
 31
0.0
 12
954118.407
 22
7301491.453
 32
0.0
 13
954196.866
 23
7301342.271
 33
0.0
  0
SOLID
  8
0
  6
CONTINUOUS
 62
     2
  5
354
 10
954118.407
 20
7301491.453
 30
0.0
 11
954196.866
 21
7301342.271
 31
0.0
 12
954114.1
 22
7301344.7
 32
0.0
 13
954196.866
 23
7301342.271
 33
0.0
  0
SOLID
  8
0
  6
CONTINUOUS
 62
     2
  5
355
 10
954389.315
 20
7301726.635
 30
0.0
 11
954385.055
 21
7301581.484
 31
0.0
 12
954307.421
 22
7301729.038
 32
0.0
 13
954182.984
 23
7301587.415
 33
0.0
  0
SOLID
  8
0
  6
CONTINUOUS
 62
     2
  5
356
 10
954307.832
 20
7301743.029
 30
0.0
 11
954307.421
 21
7301729.038
 31
0.0
 12
954307.832
 22
7301743.029
 32
0.0
 13
954182.984
 23
7301587.415
 33
0.0
  0
SOLID
  8
0
  6
CONTINUOUS
 62
     2
  5
357
 10
954307.832
 20
7301743.029
 30
0.0
 11
954182.984
 21
7301587.415
 31
0.0
 12
954235.635
 22
7301745.148
 32
0.0
 13
954182.984
 23
7301587.415
 33
0.0
  0
SOLID
  8
0
  6
CONTINUOUS
 62
     2
  5
358
 10
954231.434
 20
7301733.014
 30
0.0
 11
954209.834
 21
7301733.648
 31
0.0
 12
954231.434
 22
7301733.014
 32
0.0
 13
954182.984
 23
7301587.415
 33
0.0
  0
SOLID
  8
0
  6
CONTINUOUS
 62
     2
  5
359
 10
954206.955
 20
7301718.111
 30
0.0
 11
954182.984
 21
7301587.415
 31
0.0
 12
954186.702
 22
7301718.706
 32
0.0
 13
954182.984
 23
7301587.415
 33
0.0
  0
SOLID
  8
0
  6
CONTINUOUS
 62
     2
  5
35A
 10
954857.566
 20
7304674.766
 30
0.0
 11
954856.563
 21
7304640.588
 31
0.0
 12
954838.996
 22
7304675.311
 32
0.0
 13
954837.993
 23
7304641.133
 33
0.0
  0
SOLID
  8
0
  6
CONTINUOUS
 62
     2
  5
35B
 10
954808.713
 20
7302819.702
 30
0.0
 11
954807.706
 21
7302785.382
 31
0.0
 12
954778.904
 22
7302820.577
 32
0.0
 13
954777.897
 23
7302786.256
 33
0.0
  0
SOLID
  8
0
  6
CONTINUOUS
 62
     2
  5
35C
 10
954499.759
 20
7301166.428
 30
0.0
 11
954486.201
 21
7300704.488
 31
0.0
 12
954455.41
 22
7301167.729
 32
0.0
 13
954441.852
 23
7300705.789
 33
0.0
  0
SOLID
  8
0
  6
CONTINUOUS
 62
     2
  5
35D
 10
954371.988
 20
7301044.503
 30
0.0
 11
954358.255
 21
7300576.572
 31
0.0
 12
954327.511
 22
7301045.808
 32
0.0
 13
954313.778
 23
7300577.878
 33
0.0
  0
SOLID
  8
0
  6
CONTINUOUS
 62
     2
  5
35E
 10
954247.878
 20
7300925.51
 30
0.0
 11
954235.809
 21
7300514.302
 31
0.0
 12
954203.536
 22
7300926.812
 32
0.0
 13
954191.467
 23
7300515.604
 33
0.0
  0
ARC
  8
0
  6
CONTINUOUS
 62
     2
  5
35F
 10
957637.276844
 20
7302259.5143
 30
0.0
 40
105.000345
 50
208.3189
 51
289.852322
210
0.0
220
0.0
230
1.0
  0
LINE
  8
0
  6
CONTINUOUS
 62
     2
  5
360
 10
957544.788
 20
7302209.711
 30
0.0
 11
957432.38
 21
7302418.415
 31
0.0
  0
ARC
  8
0
  6
CONTINUOUS
 62
     2
  5
361
 10
958097.024566
 20
7302776.562472
 30
0.0
 40
755.002482
 50
178.3189
 51
208.3189
210
0.0
220
0.0
230
1.0
  0
LINE
  8
0
  6
CONTINUOUS
 62
     2
  5
362
 10
957342.322
 20
7302798.751
 30
0.0
 11
957343.603
 21
7302842.417
 31
0.0
  0
ARC
  8
0
  6
CONTINUOUS
 62
     2
  5
363
 10
957448.585085
 20
7302839.342595
 30
0.0
 40
105.000345
 50
88.3189
 51
178.3189
210
0.0
220
0.0
230
1.0
  0
LINE
  8
0
  6
CONTINUOUS
 62
     2
  5
364
 10
957451.719
 20
7302944.309
 30
0.0
 11
958756.132
 21
7302906.025
 31
0.0
  0
POLYLINE
  8
0
  6
CONTINUOUS
 62
     2
  5
365
 66
     1
 10
0.0
 20
0.0
 30
0.0
  0
VERTEX
  8
0
  6
CONTINUOUS
 62
     2
  5
366
 10
956506.436
 20
7302972.052
 30
0.0
  0
VERTEX
  8
0
  6
CONTINUOUS
 62
     2
  5
367
 10
957151.809
 20
7302953.111
 30
0.0
  0
VERTEX
  8
0
  6
CONTINUOUS
 62
     2
  5
368
 10
957151.793567
 20
7302953.098732
 30
0.0
 42
-0.414214
  0
VERTEX
  8
0
  6
CONTINUOUS
 62
     2
  5
369
 10
957253.668374
 20
7302845.063235
 30
0.0
  0
VERTEX
  8
0
  6
CONTINUOUS
 62
     2
  5
36A
 10
957253.635
 20
7302845.057
 30
0.0
  0
VERTEX
  8
0
  6
CONTINUOUS
 62
     2
  5
36B
 10
957252.354
 20
7302801.392
 30
0.0
  0
VERTEX
  8
0
  6
CONTINUOUS
 62
     2
  5
36C
 10
957252.385484
 20
7302801.351913
 30
0.0
 42
0.131652
  0
VERTEX
  8
0
  6
CONTINUOUS
 62
     2
  5
36D
 10
957353.150943
 20
7302375.711217
 30
0.0
  0
VERTEX
  8
0
  6
CONTINUOUS
 62
     2
  5
36E
 10
957353.143
 20
7302375.758
 30
0.0
  0
VERTEX
  8
0
  6
CONTINUOUS
 62
     2
  5
36F
 10
957465.42
 20
7302167.186
 30
0.0
  0
VERTEX
  8
0
  6
CONTINUOUS
 62
     2
  5
370
 10
957465.485516
 20
7302167.24804
 30
0.0
 42
-0.372079
  0
VERTEX
  8
0
  6
CONTINUOUS
 62
     2
  5
371
 10
957435.776299
 20
7302033.231981
 30
0.0
  0
VERTEX
  8
0
  6
CONTINUOUS
 62
     2
  5
372
 10
957435.776308
 20
7302033.231987
 30
0.0
 42
0.057753
  0
VERTEX
  8
0
  6
CONTINUOUS
 62
     2
  5
373
 10
957281.596962
 20
7301887.976458
 30
0.0
  0
SEQEND
  8
0
  6
CONTINUOUS
 62
     2
  5
374
  0
POLYLINE
  8
0
  6
CONTINUOUS
 62
     2
  5
375
 66
     1
 10
0.0
 20
0.0
 30
0.0
  0
VERTEX
  8
0
  6
CONTINUOUS
 62
     2
  5
376
 10
957281.596963
 20
7301887.976459
 30
0.0
 42
-0.371821
  0
VERTEX
  8
0
  6
CONTINUOUS
 62
     2
  5
377
 10
957146.130391
 20
7301866.250866
 30
0.0
  0
VERTEX
  8
0
  6
CONTINUOUS
 62
     2
  5
378
 10
957146.042
 20
7301866.218
 30
0.0
  0
VERTEX
  8
0
  6
CONTINUOUS
 62
     2
  5
379
 10
956944.088
 20
7301990.944
 30
0.0
  0
VERTEX
  8
0
  6
CONTINUOUS
 62
     2
  5
37A
 10
956944.047977
 20
7301990.96744
 30
0.0
 42
0.131652
  0
VERTEX
  8
0
  6
CONTINUOUS
 62
     2
  5
37B
 10
956525.049591
 20
7302116.522341
 30
0.0
  0
VERTEX
  8
0
  6
CONTINUOUS
 62
     2
  5
37C
 10
956525.107
 20
7302116.596
 30
0.0
  0
VERTEX
  8
0
  6
CONTINUOUS
 62
     2
  5
37D
 10
956481.367
 20
7302117.88
 30
0.0
  0
VERTEX
  8
0
  6
CONTINUOUS
 62
     2
  5
37E
 10
956481.338269
 20
7302117.805231
 30
0.0
 42
-0.414214
  0
VERTEX
  8
0
  6
CONTINUOUS
 62
     2
  5
37F
 10
956379.463462
 20
7302225.840728
 30
0.0
  0
VERTEX
  8
0
  6
CONTINUOUS
 62
     2
  5
380
 10
956379.402
 20
7302225.796
 30
0.0
  0
VERTEX
  8
0
  6
CONTINUOUS
 62
     2
  5
381
 10
956398.314
 20
7302870.16
 30
0.0
  0
SEQEND
  8
0
  6
CONTINUOUS
 62
     2
  5
382
  0
POLYLINE
  8
0
  6
CONTINUOUS
 62
     2
  5
383
 66
     1
 10
0.0
 20
0.0
 30
0.0
  0
VERTEX
  8
0
  6
CONTINUOUS
 62
     2
  5
384
 10
956306.428
 20
7299739.378
 30
0.0
  0
VERTEX
  8
0
  6
CONTINUOUS
 62
     2
  5
385
 10
956370.602
 20
7301925.953
 30
0.0
  0
VERTEX
  8
0
  6
CONTINUOUS
 62
     2
  5
386
 10
956370.662477
 20
7301925.968864
 30
0.0
 42
-0.414214
  0
VERTEX
  8
0
  6
CONTINUOUS
 62
     2
  5
387
 10
956478.697974
 20
7302027.843672
 30
0.0
  0
VERTEX
  8
0
  6
CONTINUOUS
 62
     2
  5
388
 10
956478.726
 20
7302027.912
 30
0.0
  0
VERTEX
  8
0
  6
CONTINUOUS
 62
     2
  5
389
 10
956522.467
 20
7302026.628
 30
0.0
  0
VERTEX
  8
0
  6
CONTINUOUS
 62
     2
  5
38A
 10
956522.409296
 20
7302026.560782
 30
0.0
 42
-0.131652
  0
VERTEX
  8
0
  6
CONTINUOUS
 62
     2
  5
38B
 10
956896.780634
 20
7301914.378592
 30
0.0
  0
VERTEX
  8
0
  6
CONTINUOUS
 62
     2
  5
38C
 10
956896.716
 20
7301914.349
 30
0.0
  0
VERTEX
  8
0
  6
CONTINUOUS
 62
     2
  5
38D
 10
957098.882
 20
7301789.686
 30
0.0
  0
VERTEX
  8
0
  6
CONTINUOUS
 62
     2
  5
38E
 10
957098.861866
 20
7301789.662748
 30
0.0
 42
-0.371824
  0
VERTEX
  8
0
  6
CONTINUOUS
 62
     2
  5
38F
 10
957140.178161
 20
7301658.833244
 30
0.0
  0
SEQEND
  8
0
  6
CONTINUOUS
 62
     2
  5
390
  0
POLYLINE
  8
0
  6
CENTER
 62
     7
  5
391
 66
     1
 10
0.0
 20
0.0
 30
0.0
  0
VERTEX
  8
0
  6
CENTER
 62
     7
  5
392
 10
955312.971
 20
7302107.047
 30
0.0
  0
VERTEX
  8
0
  6
CENTER
 62
     7
  5
393
 10
956337.592
 20
7302076.975
 30
0.0
  0
VERTEX
  8
0
  6
CENTER
 62
     7
  5
394
 10
956523.784
 20
7302071.511
 30
0.0
  0
VERTEX
  8
0
  6
CENTER
 62
     7
  5
395
 10
956523.729444
 20
7302071.541561
 30
0.0
 42
-0.131652
  0
VERTEX
  8
0
  6
CENTER
 62
     7
  5
396
 10
956920.414306
 20
7301952.673016
 30
0.0
  0
VERTEX
  8
0
  6
CENTER
 62
     7
  5
397
 10
956920.406
 20
7301952.653
 30
0.0
  0
VERTEX
  8
0
  6
CENTER
 62
     7
  5
398
 10
957237.79
 20
7301756.783
 30
0.0
  0
SEQEND
  8
0
  6
CENTER
 62
     7
  5
399
  0
POLYLINE
  8
0
  6
CENTER
 62
     7
  5
39A
 66
     1
 10
0.0
 20
0.0
 30
0.0
  0
VERTEX
  8
0
  6
CENTER
 62
     7
  5
39B
 10
957307.333
 20
7303137.186
 30
0.0
  0
VERTEX
  8
0
  6
CENTER
 62
     7
  5
39C
 10
957302.902
 20
7302986.193
 30
0.0
  0
VERTEX
  8
0
  6
CENTER
 62
     7
  5
39D
 10
957297.439
 20
7302800.069
 30
0.0
  0
VERTEX
  8
0
  6
CENTER
 62
     7
  5
39E
 10
957297.366263
 20
7302800.031766
 30
0.0
 42
0.131652
  0
VERTEX
  8
0
  6
CENTER
 62
     7
  5
39F
 10
957392.765515
 20
7302397.058325
 30
0.0
  0
VERTEX
  8
0
  6
CENTER
 62
     7
  5
3A0
 10
957392.759
 20
7302397.026
 30
0.0
  0
VERTEX
  8
0
  6
CENTER
 62
     7
  5
3A1
 10
957569.417
 20
7302069.235
 30
0.0
  0
SEQEND
  8
0
  6
CENTER
 62
     7
  5
3A2
  0
LINE
  8
0
  6
CONTINUOUS
 62
     7
  5
3A3
 10
958616.709
 20
7304608.351
 30
0.0
 11
958617.137
 21
7304622.951
 31
0.0
  0
LINE
  8
0
  6
CONTINUOUS
 62
     7
  5
3A4
 10
958636.692
 20
7304607.765
 30
0.0
 11
958637.121
 21
7304622.364
 31
0.0
  0
LINE
  8
0
  6
CONTINUOUS
 62
     7
  5
3A5
 10
958636.692
 20
7304607.765
 30
0.0
 11
958805.93
 21
7304602.798
 31
0.0
  0
LINE
  8
0
  6
CONTINUOUS
 62
     7
  5
3A6
 10
958649.57
 20
7304621.999
 30
0.0
 11
958649.142
 21
7304607.399
 31
0.0
  0
TEXT
  8
0
  6
CONTINUOUS
 62
     2
  5
3A8
 10
955596.601
 20
7299737.578
 30
0.0
 40
80.0
  1
35
 50
358.3189
  7
MONOTXT
 72
     1
 11
955663.344261
 21
7299735.619142
 31
0.0
210
0.0
220
0.0
230
1.0
  0
TEXT
  8
0
  6
CONTINUOUS
 62
     2
  5
3A9
 10
955635.987
 20
7299599.235
 30
0.0
 40
80.0
  1
L
 50
358.3189
  7
MONOTXT
 72
     1
 11
955658.970104
 21
7299598.560465
 31
0.0
210
0.0
220
0.0
230
1.0
  0
TEXT
  8
0
  6
CONTINUOUS
 62
     2
  5
3AA
 10
956481.266
 20
7303736.786
 30
0.0
 40
80.0
  1
8
 50
268.3189
  7
MONOTXT
210
0.0
220
0.0
230
1.0
  0
LINE
  8
0
  6
CONTINUOUS
 62
     7
  5
3AB
 10
955713.161
 20
7299569.294
 30
0.0
 11
955737.909
 21
7299542.909
 31
0.0
  0
LINE
  8
0
  6
CONTINUOUS
 62
     7
  5
3AC
 10
955614.373
 20
7299572.194
 30
0.0
 11
955588.052
 21
7299547.307
 31
0.0
  0
LINE
  8
0
  6
CONTINUOUS
 62
     7
  5
3AD
 10
955663.747
 20
7299570.067
 30
0.0
 11
955736.444
 21
7299492.975
 31
0.0
  0
LINE
  8
0
  6
CONTINUOUS
 62
     7
  5
3AE
 10
955663.747
 20
7299570.067
 30
0.0
 11
955586.586
 21
7299497.373
 31
0.0
  0
LINE
  8
0
  6
CONTINUOUS
 62
     7
  5
3AF
 10
955662.282
 20
7299520.147
 30
0.0
 11
955734.974
 21
7299442.912
 31
0.0
  0
LINE
  8
0
  6
CONTINUOUS
 62
     7
  5
3B0
 10
955662.282
 20
7299520.147
 30
0.0
 11
955585.117
 21
7299447.31
 31
0.0
  0
LINE
  8
0
  6
CONTINUOUS
 62
     7
  5
3B1
 10
955660.814
 20
7299470.145
 30
0.0
 11
955702.192
 21
7299426.23
 31
0.0
  0
LINE
  8
0
  6
CONTINUOUS
 62
     7
  5
3B2
 10
955660.814
 20
7299470.145
 30
0.0
 11
955616.894
 21
7299428.733
 31
0.0
  0
ARC
  8
0
  6
CONTINUOUS
 62
     7
  5
3B3
 10
958465.045584
 20
7304801.518586
 30
0.0
 40
189.355392
 50
245.107911
 51
263.354106
210
0.0
220
0.0
230
1.0
  0
ARC
  8
0
  6
CONTINUOUS
 62
     7
  5
3B4
 10
958467.306678
 20
7304804.147236
 30
0.0
 40
212.153193
 50
234.726647
 51
263.297175
210
0.0
220
0.0
230
1.0
  0
LINE
  8
0
  6
CONTINUOUS
 62
     7
  5
3B5
 10
958442.583
 20
7304593.461
 30
0.0
 11
958805.344
 21
7304582.814
 31
0.0
  0
POLYLINE
  8
0
  6
CONTINUOUS
 62
     7
  5
3B6
 66
     1
 10
0.0
 20
0.0
 30
0.0
  0
VERTEX
  8
0
  6
CONTINUOUS
 62
     7
  5
3B7
 10
958443.17
 20
7304613.444
 30
0.0
  0
VERTEX
  8
0
  6
CONTINUOUS
 62
     7
  5
3B8
 10
958616.709
 20
7304608.351
 30
0.0
  0
SEQEND
  8
0
  6
CONTINUOUS
 62
     7
  5
3B9
  0
LINE
  8
0
  6
CENTER
 62
     7
  5
3BA
 10
955659.562
 20
7299427.481
 30
0.0
 11
955665.086
 21
7299615.695
 31
0.0
  0
LINE
  8
0
  6
CONTINUOUS
 62
     7
  5
3BB
 10
958634.269
 20
7299940.384
 30
0.0
 11
958616.669
 21
7299340.692
 31
0.0
  0
ARC
  8
0
  6
CONTINUOUS
 62
     7
  5
3BC
 10
958644.22817
 20
7299940.100686
 30
0.0
 40
10.002716
 50
358.3189
 51
178.3189
210
0.0
220
0.0
230
1.0
  0
LINE
  8
0
  6
CONTINUOUS
 62
     7
  5
3BD
 10
958654.26
 20
7299939.797
 30
0.0
 11
958636.659
 21
7299340.105
 31
0.0
  0
LINE
  8
0
  6
CONTINUOUS
 62
     7
  5
3BE
 10
953535.489
 20
7303750.698
 30
0.0
 11
953553.757
 21
7304373.132
 31
0.0
  0
ARC
  8
0
  6
CONTINUOUS
 62
     7
  5
3BF
 10
957272.779895
 20
7304263.969033
 30
0.0
 40
3720.600847
 50
172.173986
 51
178.3189
210
0.0
220
0.0
230
1.0
  0
ARC
  8
0
  6
CONTINUOUS
 62
     7
  5
3C0
 10
957270.785149
 20
7304264.027576
 30
0.0
 40
3775.207024
 50
172.263203
 51
172.455011
210
0.0
220
0.0
230
1.0
  0
LINE
  8
0
  6
CONTINUOUS
 62
     7
  5
3C1
 10
953511.516
 20
7303709.655
 30
0.0
 11
953531.008
 21
7304373.8
 31
0.0
  0
ARC
  8
0
  6
CONTINUOUS
 62
     7
  5
3C2
 10
957270.785143
 20
7304264.027577
 30
0.0
 40
3741.418766
 50
172.208308
 51
178.3189
210
0.0
220
0.0
230
1.0
  0
POLYLINE
  8
0
  6
CONTINUOUS
 62
     7
  5
3C3
 66
     1
 10
0.0
 20
0.0
 30
0.0
  0
VERTEX
  8
0
  6
CONTINUOUS
 62
     7
  5
3C4
 10
953506.713
 20
7301251.195
 30
0.0
  0
VERTEX
  8
0
  6
CONTINUOUS
 62
     7
  5
3C5
 10
953440.288
 20
7300506.936
 30
0.0
  0
VERTEX
  8
0
  6
CONTINUOUS
 62
     7
  5
3C6
 10
953436.721
 20
7300385.413
 30
0.0
  0
SEQEND
  8
0
  6
CONTINUOUS
 62
     7
  5
3C7
  0
ARC
  8
0
  6
CONTINUOUS
 62
     7
  5
3C8
 10
956595.1325
 20
7300124.137035
 30
0.0
 40
3169.179497
 50
175.269947
 51
191.521089
210
0.0
220
0.0
230
1.0
  0
ARC
  8
0
  6
CONTINUOUS
 62
     7
  5
3C9
 10
956595.1325
 20
7300124.137035
 30
0.0
 40
3193.145858
 50
175.292853
 51
191.420228
210
0.0
220
0.0
230
1.0
  0
ARC
  8
0
  6
CONTINUOUS
 62
     7
  5
3CA
 10
956595.1325
 20
7300124.137035
 30
0.0
 40
3226.438387
 50
185.441397
 51
191.282672
210
0.0
220
0.0
230
1.0
  0
ARC
  8
0
  6
CONTINUOUS
 62
     7
  5
3CB
 10
956595.1325
 20
7300124.137035
 30
0.0
 40
3262.146083
 50
189.380425
 51
191.138339
210
0.0
220
0.0
230
1.0
  0
POLYLINE
  8
0
  6
DIVIDE
 62
     5
  5
3CC
 66
     1
 10
0.0
 20
0.0
 30
0.0
  0
VERTEX
  8
0
  6
DIVIDE
 62
     5
  5
3CD
 10
958806.359
 20
7304617.397
 30
0.0
  0
VERTEX
  8
0
  6
DIVIDE
 62
     5
  5
3CE
 10
958806.353
 20
7304617.202
 30
0.0
  0
VERTEX
  8
0
  6
DIVIDE
 62
     5
  5
3CF
 10
958806.353
 20
7304617.202
 30
0.0
  0
SEQEND
  8
0
  6
DIVIDE
 62
     5
  5
3D0
  0
POLYLINE
  8
6
  6
CONTINUOUS
 62
     7
  5
3D2
 66
     1
 10
0.0
 20
0.0
 30
0.0
  0
VERTEX
  8
6
  6
CONTINUOUS
 62
     7
  5
3D3
 10
953586.526
 20
7303392.463
 30
0.0
  0
VERTEX
  8
6
  6
CONTINUOUS
 62
     7
  5
3D4
 10
953592.413
 20
7303593.059
 30
0.0
  0
SEQEND
  8
6
  6
CONTINUOUS
 62
     7
  5
3D5
  0
ARC
  8
6
  6
CONTINUOUS
 62
     7
  5
3D6
 10
949878.436337
 20
7299819.037896
 30
0.0
 40
3649.731998
 50
359.834733
 51
4.337233
210
0.0
220
0.0
230
1.0
  0
POLYLINE
  8
6
  6
CONTINUOUS
 62
     7
  5
3D7
 66
     1
 10
0.0
 20
0.0
 30
0.0
  0
VERTEX
  8
6
  6
CONTINUOUS
 62
     7
  5
3D8
 10
953517.636
 20
7300095.061
 30
0.0
  0
VERTEX
  8
6
  6
CONTINUOUS
 62
     7
  5
3D9
 10
953496.695
 20
7300285.797
 30
0.0
  0
VERTEX
  8
6
  6
CONTINUOUS
 62
     7
  5
3DA
 10
953506.266
 20
7300611.885
 30
0.0
  0
VERTEX
  8
6
  6
CONTINUOUS
 62
     7
  5
3DB
 10
953600.829
 20
7301809.777
 30
0.0
  0
VERTEX
  8
6
  6
CONTINUOUS
 62
     7
  5
3DC
 10
953634.862
 20
7302085.921
 30
0.0
  0
VERTEX
  8
6
  6
CONTINUOUS
 62
     7
  5
3DD
 10
953628.587
 20
7302386.132
 30
0.0
  0
VERTEX
  8
6
  6
CONTINUOUS
 62
     7
  5
3DE
 10
953575.328
 20
7303010.929
 30
0.0
  0
VERTEX
  8
6
  6
CONTINUOUS
 62
     7
  5
3DF
 10
953580.639
 20
7303191.88
 30
0.0
  0
SEQEND
  8
6
  6
CONTINUOUS
 62
     7
  5
3E0
  0
POLYLINE
  8
6
  6
CONTINUOUS
 62
     7
  5
3E1
 66
     1
 10
0.0
 20
0.0
 30
0.0
  0
VERTEX
  8
6
  6
CONTINUOUS
 62
     7
  5
3E2
 10
953563.642
 20
7299488.994
 30
0.0
  0
VERTEX
  8
6
  6
CONTINUOUS
 62
     7
  5
3E3
 10
953552.286
 20
7299552.3
 30
0.0
  0
VERTEX
  8
6
  6
CONTINUOUS
 62
     7
  5
3E4
 10
953553.169
 20
7299582.38
 30
0.0
  0
VERTEX
  8
6
  6
CONTINUOUS
 62
     7
  5
3E5
 10
953535.938
 20
7299582.885
 30
0.0
  0
VERTEX
  8
6
  6
CONTINUOUS
 62
     7
  5
3E6
 10
953537.404
 20
7299632.819
 30
0.0
  0
VERTEX
  8
6
  6
CONTINUOUS
 62
     7
  5
3E7
 10
953527.788
 20
7299686.165
 30
0.0
  0
VERTEX
  8
6
  6
CONTINUOUS
 62
     7
  5
3E8
 10
953528.15
 20
7299808.519
 30
0.0
  0
SEQEND
  8
6
  6
CONTINUOUS
 62
     7
  5
3E9
  0
ARC
  8
0
  6
CONTINUOUS
 62
     2
  5
3EA
 10
957985.364886
 20
7301295.425807
 30
0.0
 40
335.89084
 50
88.3189
 51
178.3189
210
0.0
220
0.0
230
1.0
  0
LINE
  8
0
  6
CONTINUOUS
 62
     2
  5
3EB
 10
957995.2
 20
7301631.113
 30
0.0
 11
957999.363
 21
7301772.957
 31
0.0
  0
LINE
  8
0
  6
CONTINUOUS
 62
     2
  5
3EC
 10
957649.636
 20
7301305.255
 30
0.0
 11
957493.591
 21
7301309.835
 31
0.0
  0
LINE
  8
0
  6
CONTINUOUS
 62
     2
  5
3ED
 10
958460.463
 20
7301801.78
 30
0.0
 11
958459.22
 21
7301759.46
 31
0.0
  0
LINE
  8
0
  6
CONTINUOUS
 62
     2
  5
3EE
 10
958000.606
 20
7301815.276
 30
0.0
 11
958460.463
 21
7301801.78
 31
0.0
  0
LINE
  8
0
  6
CONTINUOUS
 62
     2
  5
3EF
 10
958459.22
 20
7301759.46
 30
0.0
 11
957999.363
 21
7301772.957
 31
0.0
  0
LINE
  8
0
  6
CONTINUOUS
 62
     2
  5
3F0
 10
957487.726
 20
7301109.983
 30
0.0
 11
957493.591
 21
7301309.835
 31
0.0
  0
LINE
  8
0
  6
CONTINUOUS
 62
     2
  5
3F1
 10
957465.595
 20
7301310.657
 30
0.0
 11
957459.771
 21
7301112.217
 31
0.0
  0
LINE
  8
0
  6
CONTINUOUS
 62
     2
  5
3F2
 10
957459.771
 20
7301112.217
 30
0.0
 11
957487.767
 21
7301111.395
 31
0.0
  0
SOLID
  8
0
  6
CONTINUOUS
 62
     2
  5
3F3
 10
958460.463
 20
7301801.78
 30
0.0
 11
958459.22
 21
7301759.46
 31
0.0
 12
958000.606
 22
7301815.276
 32
0.0
 13
957999.363
 23
7301772.957
 33
0.0
  0
SOLID
  8
0
  6
CONTINUOUS
 62
     2
  5
3F4
 10
958000.606
 20
7301815.276
 30
0.0
 11
957995.2
 21
7301631.113
 31
0.0
 12
957864.889
 22
7301801.283
 32
0.0
 13
957896.116
 23
7301619.266
 33
0.0
  0
SOLID
  8
0
  6
CONTINUOUS
 62
     2
  5
3F5
 10
957860.28
 20
7301800.139
 30
0.0
 11
957890.479
 21
7301617.678
 31
0.0
 12
957743.88
 22
7301755.939
 32
0.0
 13
957826.746
 23
7301591.535
 33
0.0
  0
SOLID
  8
0
  6
CONTINUOUS
 62
     2
  5
3F6
 10
957739.162
 20
7301753.385
 30
0.0
 11
957821.132
 21
7301588.464
 31
0.0
 12
957622.98
 22
7301668.366
 32
0.0
 13
957733.803
 23
7301517.956
 33
0.0
  0
SOLID
  8
0
  6
CONTINUOUS
 62
     2
  5
3F7
 10
957620.762
 20
7301666.137
 30
0.0
 11
957731.799
 21
7301520.709
 31
0.0
 12
957570.94
 22
7301609.412
 32
0.0
 13
957701.142
 23
7301474.468
 33
0.0
  0
SOLID
  8
0
  6
CONTINUOUS
 62
     2
  5
3F8
 10
957574.406
 20
7301605.743
 30
0.0
 11
957697.466
 21
7301468.45
 31
0.0
 12
957510.072
 22
7301506.546
 32
0.0
 13
957671.224
 23
7301414.458
 33
0.0
  0
SOLID
  8
0
  6
CONTINUOUS
 62
     2
  5
3F9
 10
957506.749
 20
7301498.698
 30
0.0
 11
957667.121
 21
7301402.869
 31
0.0
 12
957476.752
 22
7301403.671
 32
0.0
 13
957652.815
 23
7301342.536
 33
0.0
  0
SOLID
  8
0
  6
CONTINUOUS
 62
     2
  5
3FA
 10
957476.351
 20
7301401.794
 30
0.0
 11
957652.22
 21
7301338.174
 31
0.0
 12
957467.841
 22
7301345.881
 32
0.0
 13
957650.078
 23
7301315.679
 33
0.0
  0
SOLID
  8
0
  6
CONTINUOUS
 62
     2
  5
3FB
 10
957467.573
 20
7301343.466
 30
0.0
 11
957649.955
 21
7301313.794
 31
0.0
 12
957470.977
 22
7301326.39
 32
0.0
 13
957649.646
 23
7301305.586
 33
0.0
  0
SOLID
  8
0
  6
CONTINUOUS
 62
     2
  5
3FC
 10
957466.625
 20
7301331.702
 30
0.0
 11
957648.088
 21
7301305.301
 31
0.0
 12
957493.727
 22
7301309.831
 32
0.0
 13
957648.088
 23
7301305.301
 33
0.0
  0
SOLID
  8
0
  6
CONTINUOUS
 62
     2
  5
3FD
 10
957493.591
 20
7301309.835
 30
0.0
 11
957487.767
 21
7301111.395
 31
0.0
 12
957466.625
 22
7301331.702
 32
0.0
 13
957459.771
 23
7301112.217
 33
0.0
  0
SOLID
  8
0
  6
CONTINUOUS
 62
     2
  5
3FE
 10
957510.072
 20
7301506.546
 30
0.0
 11
957671.224
 21
7301414.458
 31
0.0
 12
957506.749
 22
7301498.698
 32
0.0
 13
957667.121
 23
7301402.869
 33
0.0
  0
SOLID
  8
0
  6
CONTINUOUS
 62
     2
  5
3FF
 10
957476.351
 20
7301401.794
 30
0.0
 11
957652.22
 21
7301338.174
 31
0.0
 12
957476.752
 22
7301403.671
 32
0.0
 13
957652.815
 23
7301342.536
 33
0.0
  0
SOLID
  8
0
  6
CONTINUOUS
 62
     2
  5
400
 10
957467.841
 20
7301345.881
 30
0.0
 11
957650.078
 21
7301315.679
 31
0.0
 12
957467.573
 22
7301343.466
 32
0.0
 13
957649.955
 23
7301313.794
 33
0.0
  0
SOLID
  8
0
  6
CONTINUOUS
 62
     2
  5
401
 10
957574.406
 20
7301605.743
 30
0.0
 11
957510.072
 21
7301506.546
 31
0.0
 12
957570.94
 22
7301609.412
 32
0.0
 13
957510.072
 23
7301506.546
 33
0.0
  0
SOLID
  8
0
  6
CONTINUOUS
 62
     2
  5
402
 10
957570.94
 20
7301609.412
 30
0.0
 11
957701.142
 21
7301474.468
 31
0.0
 12
957570.94
 22
7301609.412
 32
0.0
 13
957697.466
 23
7301468.45
 33
0.0
  0
SOLID
  8
0
  6
CONTINUOUS
 62
     2
  5
403
 10
957743.88
 20
7301755.939
 30
0.0
 11
957826.746
 21
7301591.535
 31
0.0
 12
957739.162
 22
7301753.385
 32
0.0
 13
957821.132
 23
7301588.464
 33
0.0
  0
SOLID
  8
0
  6
CONTINUOUS
 62
     2
  5
404
 10
957864.889
 20
7301801.283
 30
0.0
 11
957896.116
 21
7301619.266
 31
0.0
 12
957860.28
 22
7301800.139
 32
0.0
 13
957890.479
 23
7301617.678
 33
0.0
  0
INSERT
  8
0
  6
CONTINUOUS
 62
     7
  5
415
  2
*M0
 10
958672.252
 20
7304846.862
 30
0.0
210
0.0
220
0.0
230
1.0
  0
POLYLINE
  8
0
  6
CONTINUOUS
 62
     2
  5
416
 66
     1
 10
0.0
 20
0.0
 30
0.0
 70
     1
  0
VERTEX
  8
0
  6
CONTINUOUS
 62
     2
  5
417
 10
957585.365
 20
7300675.684
 30
0.0
  0
VERTEX
  8
0
  6
CONTINUOUS
 62
     2
  5
418
 10
957599.289
 20
7300675.275
 30
0.0
  0
VERTEX
  8
0
  6
CONTINUOUS
 62
     2
  5
419
 10
957598.732
 20
7300656.299
 30
0.0
  0
VERTEX
  8
0
  6
CONTINUOUS
 62
     2
  5
41A
 10
957584.808
 20
7300656.708
 30
0.0
  0
SEQEND
  8
0
  6
CONTINUOUS
 62
     2
  5
41B
  0
POLYLINE
  8
0
  6
CONTINUOUS
 62
     2
  5
41C
 66
     1
 10
0.0
 20
0.0
 30
0.0
 70
     1
  0
VERTEX
  8
0
  6
CONTINUOUS
 62
     2
  5
41D
 10
957580.187
 20
7300499.257
 30
0.0
  0
VERTEX
  8
0
  6
CONTINUOUS
 62
     2
  5
41E
 10
957594.111
 20
7300498.848
 30
0.0
  0
VERTEX
  8
0
  6
CONTINUOUS
 62
     2
  5
41F
 10
957593.558
 20
7300480.007
 30
0.0
  0
VERTEX
  8
0
  6
CONTINUOUS
 62
     2
  5
420
 10
957579.634
 20
7300480.416
 30
0.0
  0
SEQEND
  8
0
  6
CONTINUOUS
 62
     2
  5
421
  0
SOLID
  8
0
  6
CONTINUOUS
 62
     2
  5
422
 10
957599.289
 20
7300675.275
 30
0.0
 11
957598.732
 21
7300656.299
 31
0.0
 12
957585.365
 22
7300675.684
 32
0.0
 13
957584.808
 23
7300656.708
 33
0.0
  0
SOLID
  8
0
  6
CONTINUOUS
 62
     2
  5
423
 10
957594.111
 20
7300498.848
 30
0.0
 11
957593.558
 21
7300480.007
 31
0.0
 12
957580.187
 22
7300499.257
 32
0.0
 13
957579.634
 23
7300480.416
 33
0.0
  0
LINE
  8
0
  6
CONTINUOUS
 62
     7
  5
424
 10
954340.101
 20
7302817.157
 30
0.0
 11
954337.663
 21
7302734.113
 31
0.0
  0
POLYLINE
  8
0
  6
CONTINUOUS
 62
     7
  5
425
 66
     1
 10
0.0
 20
0.0
 30
0.0
  0
VERTEX
  8
0
  6
CONTINUOUS
 62
     7
  5
426
 10
954426.083
 20
7302547.941
 30
0.0
  0
VERTEX
  8
0
  6
CONTINUOUS
 62
     7
  5
427
 10
954425.218
 20
7302518.464
 30
0.0
  0
VERTEX
  8
0
  6
CONTINUOUS
 62
     7
  5
428
 10
954859.167
 20
7302505.727
 30
0.0
  0
VERTEX
  8
0
  6
CONTINUOUS
 62
     7
  5
429
 10
954970.55
 20
7302388.439
 30
0.0
  0
VERTEX
  8
0
  6
CONTINUOUS
 62
     7
  5
42A
 10
954965.392
 20
7302212.681
 30
0.0
  0
SEQEND
  8
0
  6
CONTINUOUS
 62
     7
  5
42B
  0
POLYLINE
  8
0
  6
CONTINUOUS
 62
     7
  5
42C
 66
     1
 10
0.0
 20
0.0
 30
0.0
  0
VERTEX
  8
0
  6
CONTINUOUS
 62
     7
  5
42D
 10
954304.711
 20
7304436.15
 30
0.0
  0
VERTEX
  8
0
  6
CONTINUOUS
 62
     7
  5
42E
 10
954338.828
 20
7304242.333
 30
0.0
  0
VERTEX
  8
0
  6
CONTINUOUS
 62
     7
  5
42F
 10
954300.092
 20
7302922.516
 30
0.0
  0
SEQEND
  8
0
  6
CONTINUOUS
 62
     7
  5
430
  0
LINE
  8
0
  6
CONTINUOUS
 62
     7
  5
431
 10
954708.041
 20
7301959.525
 30
0.0
 11
954769.185
 21
7301897.458
 31
0.0
  0
LINE
  8
0
  6
CONTINUOUS
 62
     7
  5
432
 10
954802.065
 20
7301927.879
 30
0.0
 11
954769.185
 21
7301897.458
 31
0.0
  0
SOLID
  8
0
  6
CONTINUOUS
 62
     2
  5
433
 10
954708.561
 20
7301959.043
 30
0.0
 11
954780.952
 21
7301908.423
 31
0.0
 12
954708.561
 22
7301959.043
 32
0.0
 13
954769.185
 23
7301897.458
 33
0.0
  0
POLYLINE
  8
0
  6
CONTINUOUS
 62
     7
  5
434
 66
     1
 10
0.0
 20
0.0
 30
0.0
  0
VERTEX
  8
0
  6
CONTINUOUS
 62
     7
  5
435
 10
954769.185
 20
7301897.458
 30
0.0
  0
VERTEX
  8
0
  6
CONTINUOUS
 62
     7
  5
436
 10
954586.768
 20
7301721.584
 30
0.0
  0
VERTEX
  8
0
  6
CONTINUOUS
 62
     7
  5
437
 10
954392.163
 20
7301727.296
 30
0.0
  0
SEQEND
  8
0
  6
CONTINUOUS
 62
     7
  5
438
  0
LINE
  8
0
  6
CONTINUOUS
 62
     7
  5
439
 10
954192.777
 20
7301595.215
 30
0.0
 11
954191.264
 21
7301543.671
 31
0.0
  0
LINE
  8
0
  6
CONTINUOUS
 62
     7
  5
43A
 10
954114.1
 20
7301344.7
 30
0.0
 11
954081.813
 21
7301304.767
 31
0.0
  0
LINE
  8
0
  6
CONTINUOUS
 62
     7
  5
43B
 10
953994.831
 20
7301229.938
 30
0.0
 11
953912.26
 21
7301156.462
 31
0.0
  0
POLYLINE
  8
0
  6
CONTINUOUS
 62
     7
  5
43C
 66
     1
 10
0.0
 20
0.0
 30
0.0
  0
VERTEX
  8
0
  6
CONTINUOUS
 62
     7
  5
43D
 10
953910.634
 20
7300513.478
 30
0.0
  0
VERTEX
  8
0
  6
CONTINUOUS
 62
     7
  5
43E
 10
954582.787
 20
7300493.751
 30
0.0
  0
VERTEX
  8
0
  6
CONTINUOUS
 62
     7
  5
43F
 10
954582.083
 20
7300469.791
 30
0.0
  0
VERTEX
  8
0
  6
CONTINUOUS
 62
     7
  5
440
 10
953909.931
 20
7300489.518
 30
0.0
  0
SEQEND
  8
0
  6
CONTINUOUS
 62
     7
  5
441
  0
POLYLINE
  8
0
  6
CONTINUOUS
 62
     7
  5
442
 66
     1
 10
0.0
 20
0.0
 30
0.0
  0
VERTEX
  8
0
  6
CONTINUOUS
 62
     7
  5
443
 10
953888.515
 20
7299759.823
 30
0.0
  0
VERTEX
  8
0
  6
CONTINUOUS
 62
     7
  5
444
 10
954607.504
 20
7299738.721
 30
0.0
  0
VERTEX
  8
0
  6
CONTINUOUS
 62
     7
  5
445
 10
954606.801
 20
7299714.776
 30
0.0
  0
VERTEX
  8
0
  6
CONTINUOUS
 62
     7
  5
446
 10
953887.812
 20
7299735.877
 30
0.0
  0
SEQEND
  8
0
  6
CONTINUOUS
 62
     7
  5
447
  0
LINE
  8
0
  6
CONTINUOUS
 62
     2
  5
448
 10
957454.595
 20
7300935.852
 30
0.0
 11
957459.73
 21
7301110.805
 31
0.0
  0
LINE
  8
0
  6
CONTINUOUS
 62
     7
  5
449
 10
958564.761
 20
7301700.063
 30
0.0
 11
958457.674
 21
7301658.82
 31
0.0
  0
LINE
  8
0
  6
CONTINUOUS
 62
     7
  5
44A
 10
958555.031
 20
7301722.028
 30
0.0
 11
958431.405
 21
7301674.475
 31
0.0
  0
LINE
  8
0
  6
CONTINUOUS
 62
     7
  5
44B
 10
958600.88
 20
7301797.26
 30
0.0
 11
958599.468
 21
7301749.144
 31
0.0
  0
LINE
  8
0
  6
CONTINUOUS
 62
     7
  5
44C
 10
958576.872
 20
7301798.363
 30
0.0
 11
958575.482
 21
7301750.992
 31
0.0
  0
ARC
  8
0
  6
CONTINUOUS
 62
     7
  5
44D
 10
958543.540288
 20
7301751.902974
 30
0.0
 40
32.000105
 50
291.050522
 51
358.3189
210
0.0
220
0.0
230
1.0
  0
ARC
  8
0
  6
CONTINUOUS
 62
     7
  5
44E
 10
958543.540288
 20
7301751.902974
 30
0.0
 40
56.011962
 50
291.050522
 51
358.3189
210
0.0
220
0.0
230
1.0
  0
ARC
  8
0
  6
CONTINUOUS
 62
     7
  5
44F
 10
958469.198916
 20
7301628.997736
 30
0.0
 40
32.000105
 50
111.050522
 51
178.3189
210
0.0
220
0.0
230
1.0
  0
POLYLINE
  8
0
  6
CONTINUOUS
 62
     7
  5
450
 66
     1
 10
0.0
 20
0.0
 30
0.0
  0
VERTEX
  8
0
  6
CONTINUOUS
 62
     7
  5
451
 10
958436.047
 20
7301589.551
 30
0.0
  0
VERTEX
  8
0
  6
CONTINUOUS
 62
     7
  5
452
 10
958544.247
 20
7301586.375
 30
0.0
  0
VERTEX
  8
0
  6
CONTINUOUS
 62
     7
  5
453
 10
958580.144
 20
7301586.324
 30
0.0
  0
SEQEND
  8
0
  6
CONTINUOUS
 62
     7
  5
454
  0
ARC
  8
0
  6
CONTINUOUS
 62
     7
  5
455
 10
958571.28463
 20
7301282.568378
 30
0.0
 40
303.903989
 50
61.494131
 51
88.3189
210
0.0
220
0.0
230
1.0
  0
LINE
  8
0
  6
CONTINUOUS
 62
     7
  5
456
 10
958564.854
 20
7304573.913
 30
0.0
 11
958566.337
 21
7304624.442
 31
0.0
  0
TEXT
  8
0
  6
CONTINUOUS
 62
     6
  5
457
 10
956485.637
 20
7300239.49
 30
0.0
 40
30.32
  1
X
 50
268.3189
  7
MONOTXT
210
0.0
220
0.0
230
1.0
  0
TEXT
  8
0
  6
CONTINUOUS
 62
     6
  5
458
 10
956460.432
 20
7299752.436
 30
0.0
 40
30.32
  1
X
 50
268.3189
  7
MONOTXT
210
0.0
220
0.0
230
1.0
  0
TEXT
  8
0
  6
CONTINUOUS
 62
     6
  5
459
 10
953871.985
 20
7299499.613
 30
0.0
 40
30.32
  1
X
 50
290.773528
  7
MONOTXT
210
0.0
220
0.0
230
1.0
  0
TEXT
  8
0
  6
CONTINUOUS
 62
     6
  5
45A
 10
953867.623
 20
7299968.143
 30
0.0
 40
30.32
  1
X
 50
268.3189
  7
MONOTXT
210
0.0
220
0.0
230
1.0
  0
TEXT
  8
0
  6
CONTINUOUS
 62
     6
  5
45B
 10
953872.98
 20
7300315.972
 30
0.0
 40
30.32
  1
X
 50
268.3189
  7
MONOTXT
210
0.0
220
0.0
230
1.0
  0
TEXT
  8
0
  6
CONTINUOUS
 62
     6
  5
45C
 10
953884.8
 20
7300736.954
 30
0.0
 40
30.32
  1
X
 50
268.3189
  7
MONOTXT
210
0.0
220
0.0
230
1.0
  0
TEXT
  8
0
  6
CONTINUOUS
 62
     6
  5
45D
 10
954537.635
 20
7299689.597
 30
0.0
 40
30.32
  1
X
 50
358.3189
  7
MONOTXT
210
0.0
220
0.0
230
1.0
  0
TEXT
  8
0
  6
CONTINUOUS
 62
     6
  5
45E
 10
954448.828
 20
7299738.735
 30
0.0
 40
30.32
  1
X
 50
358.3189
  7
MONOTXT
210
0.0
220
0.0
230
1.0
  0
TEXT
  8
0
  6
CONTINUOUS
 62
     6
  5
45F
 10
954465.841
 20
7300490.441
 30
0.0
 40
30.32
  1
X
 50
358.3189
  7
MONOTXT
210
0.0
220
0.0
230
1.0
  0
TEXT
  8
0
  6
CONTINUOUS
 62
     6
  5
460
 10
954554.679
 20
7300442.378
 30
0.0
 40
30.32
  1
X
 50
358.3189
  7
MONOTXT
210
0.0
220
0.0
230
1.0
  0
TEXT
  8
0
  6
CONTINUOUS
 62
     6
  5
461
 10
956629.366
 20
7300755.939
 30
0.0
 40
30.32
  1
X
 50
222.741272
  7
MONOTXT
210
0.0
220
0.0
230
1.0
  0
LINE
  8
0
  6
CONTINUOUS
 62
     6
  5
462
 10
956641.496
 20
7300751.609
 30
0.0
 11
956742.336
 21
7300844.28
 31
0.0
  0
POLYLINE
  8
0
  6
CONTINUOUS
 62
     6
  5
463
 66
     1
 10
0.0
 20
0.0
 30
0.0
  0
VERTEX
  8
0
  6
CONTINUOUS
 62
     6
  5
464
 10
956500.674
 20
7300244.706
 30
0.0
  0
VERTEX
  8
0
  6
CONTINUOUS
 62
     6
  5
465
 10
956522.72
 20
7300642.356
 30
0.0
  0
VERTEX
  8
0
  6
CONTINUOUS
 62
     6
  5
466
 10
956616.848
 20
7300728.833
 30
0.0
  0
SEQEND
  8
0
  6
CONTINUOUS
 62
     6
  5
467
  0
LINE
  8
0
  6
CONTINUOUS
 62
     6
  5
468
 10
956473.676
 20
7299758.376
 30
0.0
 11
956498.673
 21
7300210.89
 31
0.0
  0
POLYLINE
  8
0
  6
CONTINUOUS
 62
     6
  5
469
 66
     1
 10
0.0
 20
0.0
 30
0.0
  0
VERTEX
  8
0
  6
CONTINUOUS
 62
     6
  5
46A
 10
956415.474
 20
7299405.295
 30
0.0
  0
VERTEX
  8
0
  6
CONTINUOUS
 62
     6
  5
46B
 10
956466.694
 20
7299633.049
 30
0.0
  0
VERTEX
  8
0
  6
CONTINUOUS
 62
     6
  5
46C
 10
956471.864
 20
7299726.644
 30
0.0
  0
SEQEND
  8
0
  6
CONTINUOUS
 62
     6
  5
46D
  0
ARC
  8
0
  6
CONTINUOUS
 62
     6
  5
46E
 10
954434.841432
 20
7299644.113059
 30
0.0
 40
567.501865
 50
196.584994
 51
196.876297
210
0.0
220
0.0
230
1.0
  0
POLYLINE
  8
0
  6
CONTINUOUS
 62
     6
  5
46F
 66
     1
 10
0.0
 20
0.0
 30
0.0
  0
VERTEX
  8
0
  6
CONTINUOUS
 62
     6
  5
470
 10
954009.049
 20
7299720.258
 30
0.0
  0
VERTEX
  8
0
  6
CONTINUOUS
 62
     6
  5
471
 10
953870.228
 20
7299724.332
 30
0.0
  0
VERTEX
  8
0
  6
CONTINUOUS
 62
     6
  5
472
 10
953867.503
 20
7299631.476
 30
0.0
  0
VERTEX
  8
0
  6
CONTINUOUS
 62
     6
  5
473
 10
953867.478719
 20
7299631.546493
 30
0.0
 42
0.053872
  0
VERTEX
  8
0
  6
CONTINUOUS
 62
     6
  5
474
 10
953883.259846
 20
7299510.636017
 30
0.0
  0
SEQEND
  8
0
  6
CONTINUOUS
 62
     6
  5
475
  0
LINE
  8
0
  6
CONTINUOUS
 62
     6
  5
476
 10
954259.836
 20
7299712.898
 30
0.0
 11
954036.633
 21
7299719.449
 31
0.0
  0
LINE
  8
0
  6
CONTINUOUS
 62
     6
  5
477
 10
954197.318
 20
7299762.754
 30
0.0
 11
954444.406
 21
7299755.502
 31
0.0
  0
POLYLINE
  8
0
  6
CONTINUOUS
 62
     6
  5
478
 66
     1
 10
0.0
 20
0.0
 30
0.0
  0
VERTEX
  8
0
  6
CONTINUOUS
 62
     6
  5
479
 10
954470.719
 20
7299754.73
 30
0.0
  0
VERTEX
  8
0
  6
CONTINUOUS
 62
     6
  5
47A
 10
954619.758
 20
7299750.356
 30
0.0
  0
VERTEX
  8
0
  6
CONTINUOUS
 62
     6
  5
47B
 10
954618.35
 20
7299702.376
 30
0.0
  0
VERTEX
  8
0
  6
CONTINUOUS
 62
     6
  5
47C
 10
954563.445
 20
7299703.987
 30
0.0
  0
SEQEND
  8
0
  6
CONTINUOUS
 62
     6
  5
47D
  0
LINE
  8
0
  6
CONTINUOUS
 62
     6
  5
47E
 10
954532.155
 20
7299704.905
 30
0.0
 11
954282.51
 21
7299712.232
 31
0.0
  0
POLYLINE
  8
0
  6
CONTINUOUS
 62
     6
  5
47F
 66
     1
 10
0.0
 20
0.0
 30
0.0
  0
VERTEX
  8
0
  6
CONTINUOUS
 62
     6
  5
480
 10
954489.54
 20
7300508.541
 30
0.0
  0
VERTEX
  8
0
  6
CONTINUOUS
 62
     6
  5
481
 10
954595.184
 20
7300505.441
 30
0.0
  0
VERTEX
  8
0
  6
CONTINUOUS
 62
     6
  5
482
 10
954593.775
 20
7300457.455
 30
0.0
  0
VERTEX
  8
0
  6
CONTINUOUS
 62
     6
  5
483
 10
954571.71
 20
7300458.102
 30
0.0
  0
SEQEND
  8
0
  6
CONTINUOUS
 62
     6
  5
484
  0
LINE
  8
0
  6
CONTINUOUS
 62
     6
  5
485
 10
954219.034
 20
7300516.481
 30
0.0
 11
954452.13
 21
7300509.639
 31
0.0
  0
LINE
  8
0
  6
CONTINUOUS
 62
     6
  5
486
 10
953974.846
 20
7300523.647
 30
0.0
 11
954179.405
 21
7300517.644
 31
0.0
  0
LINE
  8
0
  6
CONTINUOUS
 62
     6
  5
487
 10
953959.312
 20
7299769.739
 30
0.0
 11
954168.381
 21
7299763.603
 31
0.0
  0
POLYLINE
  8
0
  6
CONTINUOUS
 62
     6
  5
488
 66
     1
 10
0.0
 20
0.0
 30
0.0
  0
VERTEX
  8
0
  6
CONTINUOUS
 62
     6
  5
489
 10
953876.712
 20
7299945.25
 30
0.0
  0
VERTEX
  8
0
  6
CONTINUOUS
 62
     6
  5
48A
 10
953871.636
 20
7299772.313
 30
0.0
  0
VERTEX
  8
0
  6
CONTINUOUS
 62
     6
  5
48B
 10
953917.533
 20
7299770.966
 30
0.0
  0
SEQEND
  8
0
  6
CONTINUOUS
 62
     6
  5
48C
  0
POLYLINE
  8
0
  6
CONTINUOUS
 62
     6
  5
48D
 66
     1
 10
0.0
 20
0.0
 30
0.0
  0
VERTEX
  8
0
  6
CONTINUOUS
 62
     6
  5
48E
 10
954019.667
 20
7300474.304
 30
0.0
  0
VERTEX
  8
0
  6
CONTINUOUS
 62
     6
  5
48F
 10
953892.348
 20
7300478.041
 30
0.0
  0
VERTEX
  8
0
  6
CONTINUOUS
 62
     6
  5
490
 10
953887.71
 20
7300319.981
 30
0.0
  0
SEQEND
  8
0
  6
CONTINUOUS
 62
     6
  5
491
  0
LINE
  8
0
  6
CONTINUOUS
 62
     6
  5
492
 10
953886.756
 20
7300287.48
 30
0.0
 11
953877.501
 21
7299972.158
 31
0.0
  0
LINE
  8
0
  6
CONTINUOUS
 62
     6
  5
493
 10
953912.26
 20
7301156.462
 30
0.0
 11
953900.053
 21
7300740.547
 31
0.0
  0
POLYLINE
  8
0
  6
CONTINUOUS
 62
     6
  5
494
 66
     1
 10
0.0
 20
0.0
 30
0.0
  0
VERTEX
  8
0
  6
CONTINUOUS
 62
     6
  5
495
 10
953899.176
 20
7300710.671
 30
0.0
  0
VERTEX
  8
0
  6
CONTINUOUS
 62
     6
  5
496
 10
953893.757
 20
7300526.027
 30
0.0
  0
VERTEX
  8
0
  6
CONTINUOUS
 62
     6
  5
497
 10
953937.429
 20
7300524.745
 30
0.0
  0
SEQEND
  8
0
  6
CONTINUOUS
 62
     6
  5
498
  0
TEXT
  8
0
  6
CONTINUOUS
 62
     6
  5
499
 10
953633.975
 20
7304541.029
 30
0.0
 40
30.32
  1
X
 50
262.063156
  7
MONOTXT
210
0.0
220
0.0
230
1.0
  0
TEXT
  8
0
  6
CONTINUOUS
 62
     6
  5
49A
 10
958690.318
 20
7304585.182
 30
0.0
 40
30.32
  1
X
 50
178.3189
  7
MONOTXT
210
0.0
220
0.0
230
1.0
  0
TEXT
  8
0
  6
CONTINUOUS
 62
     6
  5
49B
 10
953948.778
 20
7304459.193
 30
0.0
 40
30.32
  1
X
 50
178.3189
  7
MONOTXT
210
0.0
220
0.0
230
1.0
  0
ARC
  8
0
  6
CONTINUOUS
 62
     6
  5
49C
 10
957283.507142
 20
7304263.654197
 30
0.0
 40
3645.841986
 50
172.047481
 51
175.489847
210
0.0
220
0.0
230
1.0
  0
POLYLINE
  8
0
  6
CONTINUOUS
 62
     6
  5
49D
 66
     1
 10
0.0
 20
0.0
 30
0.0
  0
VERTEX
  8
0
  6
CONTINUOUS
 62
     6
  5
49E
 10
954304.711
 20
7304436.15
 30
0.0
  0
VERTEX
  8
0
  6
CONTINUOUS
 62
     6
  5
49F
 10
953950.296
 20
7304446.552
 30
0.0
  0
SEQEND
  8
0
  6
CONTINUOUS
 62
     6
  5
4A0
  0
POLYLINE
  8
0
  6
CONTINUOUS
 62
     6
  5
4A1
 66
     1
 10
0.0
 20
0.0
 30
0.0
  0
VERTEX
  8
0
  6
CONTINUOUS
 62
     6
  5
4A2
 10
953926.884
 20
7304447.239
 30
0.0
  0
VERTEX
  8
0
  6
CONTINUOUS
 62
     6
  5
4A3
 10
953642.716
 20
7304455.579
 30
0.0
  0
VERTEX
  8
0
  6
CONTINUOUS
 62
     6
  5
4A4
 10
953642.719295
 20
7304455.559493
 30
0.0
 42
-0.003773
  0
VERTEX
  8
0
  6
CONTINUOUS
 62
     6
  5
4A5
 10
953646.029719
 20
7304510.477589
 30
0.0
  0
SEQEND
  8
0
  6
CONTINUOUS
 62
     6
  5
4A6
  0
LINE
  8
0
  6
CONTINUOUS
 62
     6
  5
4A7
 10
958663.838
 20
7304571.008
 30
0.0
 11
958564.854
 21
7304573.913
 31
0.0
  0
LINE
  8
0
  6
CONTINUOUS
 62
     6
  5
4A8
 10
958804.876
 20
7304566.868
 30
0.0
 11
958691.76
 21
7304570.188
 31
0.0
  0
LINE
  8
0
  6
CONTINUOUS
 62
     7
  5
4A9
 10
954292.033
 20
7303242.447
 30
0.0
 11
954325.991
 21
7303210.675
 31
0.0
  0
LINE
  8
0
  6
CONTINUOUS
 62
     7
  5
4AA
 10
954313.464
 20
7303972.676
 30
0.0
 11
954347.419
 21
7303940.775
 31
0.0
  0
LINE
  8
0
  6
CONTINUOUS
 62
     7
  5
4AB
 10
954302.476
 20
7303598.277
 30
0.0
 11
954336.436
 21
7303566.572
 31
0.0
  0
LINE
  8
0
  6
CONTINUOUS
 62
     7
  5
4AC
 10
954304.758
 20
7304355.2
 30
0.0
 11
954338.708
 21
7304323.36
 31
0.0
  0
LINE
  8
0
  6
CONTINUOUS
 62
     7
  5
4AD
 10
954321.84
 20
7302791.56
 30
0.0
 11
954355.791
 21
7302759.788
 31
0.0
  0
LINE
  8
0
  6
CONTINUOUS
 62
     7
  5
4AE
 10
954950.93
 20
7302316.546
 30
0.0
 11
954984.954
 21
7302284.704
 31
0.0
  0
LINE
  8
0
  6
CONTINUOUS
 62
     7
  5
4AF
 10
954472.419
 20
7301740.358
 30
0.0
 11
954506.512
 21
7301708.575
 31
0.0
  0
LINE
  8
0
  6
CONTINUOUS
 62
     7
  5
4B0
 10
954671.269
 20
7301826.72
 30
0.0
 11
954680.441
 21
7301781.056
 31
0.0
  0
LINE
  8
0
  6
CONTINUOUS
 62
     7
  5
4B1
 10
954175.045
 20
7301585.367
 30
0.0
 11
954209.063
 21
7301553.518
 31
0.0
  0
LINE
  8
0
  6
CONTINUOUS
 62
     7
  5
4B2
 10
954625.177
 20
7302528.013
 30
0.0
 11
954659.133
 21
7302496.173
 31
0.0
  0
LINE
  8
0
  6
CONTINUOUS
 62
     7
  5
4B3
 10
954096.159
 20
7301343.609
 30
0.0
 11
954105.258
 21
7301298.022
 31
0.0
  0
LINE
  8
0
  6
CONTINUOUS
 62
     7
  5
4B4
 10
953952.977
 20
7301217.291
 30
0.0
 11
953962.494
 21
7301169.803
 31
0.0
  0
LINE
  8
0
  6
CENTER
 62
     7
  5
4B5
 10
955573.098
 20
7303737.232
 30
0.0
 11
958777.766
 21
7303643.178
 31
0.0
  0
LINE
  8
0
  6
CENTER
 62
     7
  5
4B6
 10
955665.086
 20
7299615.695
 30
0.0
 11
955764.584
 21
7303005.829
 31
0.0
  0
LINE
  8
0
  6
CENTER
 62
     7
  5
4B7
 10
955756.885
 20
7299953.102
 30
0.0
 11
956302.065
 21
7299937.101
 31
0.0
  0
LINE
  8
0
  6
CENTER
 62
     7
  5
4B8
 10
955665.086
 20
7299615.695
 30
0.0
 11
956122.319
 21
7299602.275
 31
0.0
  0
ARC
  8
0
  6
CENTER
 62
     7
  5
4B9
 10
956126.56551
 20
7299744.683785
 30
0.0
 40
142.500468
 50
268.3189
 51
358.3189
210
0.0
220
0.0
230
1.0
  0
LINE
  8
0
  6
CENTER
 62
     7
  5
4BA
 10
956269.018
 20
7299740.476
 30
0.0
 11
956414.212
 21
7304687.605
 31
0.0
  0
LINE
  8
0
  6
CONTINUOUS
 62
     7
  5
4BB
 10
958473.575
 20
7301582.994
 30
0.0
 11
958505.407
 21
7301616.938
 31
0.0
  0
LINE
  8
0
  6
CONTINUOUS
 62
     7
  5
4BC
 10
956825.392
 20
7300824.265
 30
0.0
 11
956857.241
 21
7300858.288
 31
0.0
  0
LINE
  8
0
  6
CONTINUOUS
 62
     7
  5
4BD
 10
957035.41
 20
7300818.169
 30
0.0
 11
957067.258
 21
7300852.192
 31
0.0
  0
LINE
  8
0
  6
CONTINUOUS
 62
     7
  5
4BE
 10
957251.746
 20
7300811.955
 30
0.0
 11
957283.462
 21
7300846.05
 31
0.0
  0
LINE
  8
0
  6
CONTINUOUS
 62
     7
  5
4BF
 10
957382.449
 20
7300873.047
 30
0.0
 11
957414.281
 21
7300906.997
 31
0.0
  0
TEXT
  8
0
  6
CONTINUOUS
 62
     6
  5
4C0
 10
954265.112
 20
7299697.595
 30
0.0
 40
30.32
  1
X
 50
358.3189
  7
MONOTXT
210
0.0
220
0.0
230
1.0
  0
TEXT
  8
0
  6
CONTINUOUS
 62
     6
  5
4C1
 10
954013.582
 20
7299704.978
 30
0.0
 40
30.32
  1
X
 50
358.3189
  7
MONOTXT
210
0.0
220
0.0
230
1.0
  0
TEXT
  8
0
  6
CONTINUOUS
 62
     6
  5
4C2
 10
954173.818
 20
7299746.807
 30
0.0
 40
30.32
  1
X
 50
358.3189
  7
MONOTXT
210
0.0
220
0.0
230
1.0
  0
TEXT
  8
0
  6
CONTINUOUS
 62
     6
  5
4C3
 10
953927.399
 20
7299754.039
 30
0.0
 40
30.32
  1
X
 50
358.3189
  7
MONOTXT
210
0.0
220
0.0
230
1.0
  0
TEXT
  8
0
  6
CONTINUOUS
 62
     6
  5
4C4
 10
954028.002
 20
7300457.836
 30
0.0
 40
30.32
  1
X
 50
358.3189
  7
MONOTXT
210
0.0
220
0.0
230
1.0
  0
TEXT
  8
0
  6
CONTINUOUS
 62
     6
  5
4C5
 10
954190.897
 20
7300498.51
 30
0.0
 40
30.32
  1
X
 50
358.3189
  7
MONOTXT
210
0.0
220
0.0
230
1.0
  0
TEXT
  8
0
  6
CONTINUOUS
 62
     6
  5
4C6
 10
953947.035
 20
7300505.667
 30
0.0
 40
30.32
  1
X
 50
358.3189
  7
MONOTXT
210
0.0
220
0.0
230
1.0
  0
LINE
  8
0
  6
CONTINUOUS
 62
     7
  5
4C7
 10
958055.336
 20
7300564.04
 30
0.0
 11
957842.974
 21
7300570.273
 31
0.0
  0
LINE
  8
0
  6
CONTINUOUS
 62
     7
  5
4C8
 10
957736.924
 20
7300573.385
 30
0.0
 11
957524.561
 21
7300579.618
 31
0.0
  0
POLYLINE
  8
0
  6
CONTINUOUS
 62
     2
  5
4C9
 66
     1
 10
0.0
 20
0.0
 30
0.0
 70
     1
  0
VERTEX
  8
0
  6
CONTINUOUS
 62
     2
  5
4CA
 10
957902.42
 20
7300594.729
 30
0.0
  0
VERTEX
  8
0
  6
CONTINUOUS
 62
     2
  5
4CB
 10
957881.761
 20
7300595.335
 30
0.0
  0
VERTEX
  8
0
  6
CONTINUOUS
 62
     2
  5
4CC
 10
957881.115
 20
7300573.329
 30
0.0
  0
VERTEX
  8
0
  6
CONTINUOUS
 62
     2
  5
4CD
 10
957901.774
 20
7300572.723
 30
0.0
  0
SEQEND
  8
0
  6
CONTINUOUS
 62
     2
  5
4CE
  0
SOLID
  8
0
  6
CONTINUOUS
 62
     2
  5
4CF
 10
957902.42
 20
7300594.729
 30
0.0
 11
957901.774
 21
7300572.723
 31
0.0
 12
957881.761
 22
7300595.335
 32
0.0
 13
957881.115
 23
7300573.329
 33
0.0
  0
SOLID
  8
0
  6
CONTINUOUS
 62
     2
  5
4D0
 10
957900.883
 20
7300542.373
 30
0.0
 11
957901.529
 21
7300564.372
 31
0.0
 12
957880.224
 22
7300542.979
 32
0.0
 13
957880.87
 23
7300564.978
 33
0.0
  0
POLYLINE
  8
0
  6
CONTINUOUS
 62
     2
  5
4D1
 66
     1
 10
0.0
 20
0.0
 30
0.0
 70
     1
  0
VERTEX
  8
0
  6
CONTINUOUS
 62
     2
  5
4D2
 10
957900.883
 20
7300542.373
 30
0.0
  0
VERTEX
  8
0
  6
CONTINUOUS
 62
     2
  5
4D3
 10
957880.224
 20
7300542.979
 30
0.0
  0
VERTEX
  8
0
  6
CONTINUOUS
 62
     2
  5
4D4
 10
957880.87
 20
7300564.978
 30
0.0
  0
VERTEX
  8
0
  6
CONTINUOUS
 62
     2
  5
4D5
 10
957901.529
 20
7300564.372
 30
0.0
  0
SEQEND
  8
0
  6
CONTINUOUS
 62
     2
  5
4D6
  0
LINE
  8
0
  6
CONTINUOUS
 62
     7
  5
4D7
 10
958052.439
 20
7300465.328
 30
0.0
 11
958049.431
 21
7300362.836
 31
0.0
  0
LINE
  8
0
  6
CONTINUOUS
 62
     7
  5
4D8
 10
958049.431
 20
7300362.836
 30
0.0
 11
957791.644
 21
7300370.402
 31
0.0
  0
POLYLINE
  8
0
  6
CONTINUOUS
 62
     7
  5
4D9
 66
     1
 10
0.0
 20
0.0
 30
0.0
  0
VERTEX
  8
0
  6
CONTINUOUS
 62
     7
  5
4DA
 10
958458.815
 20
7301759.472
 30
0.0
  0
VERTEX
  8
0
  6
CONTINUOUS
 62
     7
  5
4DB
 10
958454.166
 20
7301601.067
 30
0.0
  0
VERTEX
  8
0
  6
CONTINUOUS
 62
     7
  5
4DC
 10
958544.33
 20
7301598.421
 30
0.0
  0
VERTEX
  8
0
  6
CONTINUOUS
 62
     7
  5
4DD
 10
958580.363
 20
7301598.372
 30
0.0
  0
SEQEND
  8
0
  6
CONTINUOUS
 62
     7
  5
4DE
  0
ARC
  8
0
  6
CONTINUOUS
 62
     7
  5
4DF
 10
958571.28463
 20
7301282.568378
 30
0.0
 40
315.904028
 50
62.589492
 51
88.350858
210
0.0
220
0.0
230
1.0
  0
LINE
  8
0
  6
CONTINUOUS
 62
     7
  5
4E0
 10
958474.092
 20
7301685.743
 30
0.0
 11
958440.143
 21
7301717.589
 31
0.0
  0
POLYLINE
  8
0
  6
CONTINUOUS
 62
     7
  5
4E1
 66
     1
 10
0.0
 20
0.0
 30
0.0
  0
VERTEX
  8
0
  6
CONTINUOUS
 62
     7
  5
4E2
 10
956742.336
 20
7300844.28
 30
0.0
  0
VERTEX
  8
0
  6
CONTINUOUS
 62
     7
  5
4E3
 10
957346.107
 20
7300825.889
 30
0.0
  0
VERTEX
  8
0
  6
CONTINUOUS
 62
     7
  5
4E4
 10
957348.098
 20
7300893.724
 30
0.0
  0
VERTEX
  8
0
  6
CONTINUOUS
 62
     7
  5
4E5
 10
957455.892
 20
7300890.56
 30
0.0
  0
VERTEX
  8
0
  6
CONTINUOUS
 62
     7
  5
4E6
 10
957462.358
 20
7301110.863
 30
0.0
  0
SEQEND
  8
0
  6
CONTINUOUS
 62
     7
  5
4E7
  0
LINE
  8
0
  6
CONTINUOUS
 62
     7
  5
4E8
 10
957476.038
 20
7300984.787
 30
0.0
 11
957442.015
 21
7301016.635
 31
0.0
  0
SOLID
  8
0
  6
CONTINUOUS
 62
     2
  5
4E9
 10
954762.041
 20
7303101.842
 30
0.0
 11
954758.449
 21
7302979.441
 31
0.0
 12
954594.419
 22
7303106.762
 32
0.0
 13
954590.827
 23
7302984.361
 33
0.0
  0
POLYLINE
  8
0
  6
CONTINUOUS
 62
     2
  5
4EA
 66
     1
 10
0.0
 20
0.0
 30
0.0
 70
     1
  0
VERTEX
  8
0
  6
CONTINUOUS
 62
     2
  5
4EB
 10
954594.419
 20
7303106.762
 30
0.0
  0
VERTEX
  8
0
  6
CONTINUOUS
 62
     2
  5
4EC
 10
954762.041
 20
7303101.842
 30
0.0
  0
VERTEX
  8
0
  6
CONTINUOUS
 62
     2
  5
4ED
 10
954758.449
 20
7302979.441
 30
0.0
  0
VERTEX
  8
0
  6
CONTINUOUS
 62
     2
  5
4EE
 10
954590.827
 20
7302984.361
 30
0.0
  0
SEQEND
  8
0
  6
CONTINUOUS
 62
     2
  5
4EF
  0
POLYLINE
  8
0
  6
CONTINUOUS
 62
     7
  5
4F0
 66
     1
 10
0.0
 20
0.0
 30
0.0
  0
VERTEX
  8
0
  6
CONTINUOUS
 62
     7
  5
4F1
 10
954341.137327
 20
7303088.426475
 30
0.0
 42
1.0
  0
VERTEX
  8
0
  6
CONTINUOUS
 62
     7
  5
4F2
 10
954340.991565
 20
7303083.460011
 30
0.0
 42
1.0
  0
VERTEX
  8
0
  6
CONTINUOUS
 62
     7
  5
4F3
 10
954341.137327
 20
7303088.426475
 30
0.0
  0
SEQEND
  8
0
  6
CONTINUOUS
 62
     7
  5
4F4
  0
POLYLINE
  8
0
  6
CONTINUOUS
 62
     7
  5
4F5
 66
     1
 10
0.0
 20
0.0
 30
0.0
  0
VERTEX
  8
0
  6
CONTINUOUS
 62
     7
  5
4F6
 10
954523.981861
 20
7301714.858422
 30
0.0
 42
1.0
  0
VERTEX
  8
0
  6
CONTINUOUS
 62
     7
  5
4F7
 10
954523.836099
 20
7301709.891957
 30
0.0
 42
1.0
  0
VERTEX
  8
0
  6
CONTINUOUS
 62
     7
  5
4F8
 10
954523.981861
 20
7301714.858422
 30
0.0
  0
SEQEND
  8
0
  6
CONTINUOUS
 62
     7
  5
4F9
  0
LINE
  8
0
  6
CONTINUOUS
 62
     7
  5
4FA
 10
955494.731
 20
7300626.393
 30
0.0
 11
955582.942
 21
7300623.804
 31
0.0
  0
LINE
  8
0
  6
CONTINUOUS
 62
     7
  5
4FB
 10
955582.942
 20
7300623.804
 30
0.0
 11
955567.911
 21
7300570.362
 31
0.0
  0
LINE
  8
0
  6
CONTINUOUS
 62
     7
  5
4FC
 10
955556.095
 20
7300624.592
 30
0.0
 11
955567.911
 21
7300570.362
 31
0.0
  0
CIRCLE
  8
0
  6
CONTINUOUS
 62
     7
  5
4FD
 10
955776.017277
 20
7299541.356811
 30
0.0
 40
2.424872
210
0.0
220
0.0
230
1.0
  0
CIRCLE
  8
0
  6
CONTINUOUS
 62
     7
  5
4FE
 10
955776.017277
 20
7299541.356811
 30
0.0
 40
16.154379
210
0.0
220
0.0
230
1.0
  0
CIRCLE
  8
0
  6
CONTINUOUS
 62
     7
  5
4FF
 10
955549.976496
 20
7299547.990917
 30
0.0
 40
2.424872
210
0.0
220
0.0
230
1.0
  0
CIRCLE
  8
0
  6
CONTINUOUS
 62
     7
  5
500
 10
955549.976496
 20
7299547.990917
 30
0.0
 40
16.154379
210
0.0
220
0.0
230
1.0
  0
CIRCLE
  8
0
  6
CONTINUOUS
 62
     7
  5
501
 10
955619.142414
 20
7303650.485543
 30
0.0
 40
2.424872
210
0.0
220
0.0
230
1.0
  0
CIRCLE
  8
0
  6
CONTINUOUS
 62
     7
  5
502
 10
955619.142414
 20
7303650.485543
 30
0.0
 40
16.154379
210
0.0
220
0.0
230
1.0
  0
CIRCLE
  8
0
  6
CONTINUOUS
 62
     7
  5
503
 10
955622.839591
 20
7303800.820427
 30
0.0
 40
2.424872
210
0.0
220
0.0
230
1.0
  0
CIRCLE
  8
0
  6
CONTINUOUS
 62
     7
  5
504
 10
955622.839591
 20
7303800.820427
 30
0.0
 40
16.154379
210
0.0
220
0.0
230
1.0
  0
LINE
  8
0
  6
CONTINUOUS
 62
     7
  5
505
 10
956516.586
 20
7303951.124
 30
0.0
 11
956528.461
 21
7303896.825
 31
0.0
  0
LINE
  8
0
  6
CONTINUOUS
 62
     7
  5
506
 10
956543.366
 20
7303950.338
 30
0.0
 11
956528.461
 21
7303896.825
 31
0.0
  0
LINE
  8
0
  6
CONTINUOUS
 62
     7
  5
507
 10
956455.216
 20
7303952.925
 30
0.0
 11
956543.366
 21
7303950.338
 31
0.0
  0
POLYLINE
  8
0
  6
CONTINUOUS
 62
     7
  5
508
 66
     1
 10
0.0
 20
0.0
 30
0.0
  0
VERTEX
  8
0
  6
CONTINUOUS
 62
     7
  5
509
 10
956266.040388
 20
7303900.418273
 30
0.0
 42
1.0
  0
VERTEX
  8
0
  6
CONTINUOUS
 62
     7
  5
50A
 10
956265.817613
 20
7303892.827767
 30
0.0
 42
1.0
  0
VERTEX
  8
0
  6
CONTINUOUS
 62
     7
  5
50B
 10
956266.040388
 20
7303900.418273
 30
0.0
  0
SEQEND
  8
0
  6
CONTINUOUS
 62
     7
  5
50C
  0
POLYLINE
  8
0
  6
CONTINUOUS
 62
     7
  5
50D
 66
     1
 10
0.0
 20
0.0
 30
0.0
  0
VERTEX
  8
0
  6
CONTINUOUS
 62
     7
  5
50E
 10
956265.239102
 20
7303873.116446
 30
0.0
 42
1.0
  0
VERTEX
  8
0
  6
CONTINUOUS
 62
     7
  5
50F
 10
956265.016328
 20
7303865.525939
 30
0.0
 42
1.0
  0
VERTEX
  8
0
  6
CONTINUOUS
 62
     7
  5
510
 10
956265.239102
 20
7303873.116446
 30
0.0
  0
SEQEND
  8
0
  6
CONTINUOUS
 62
     7
  5
511
  0
POLYLINE
  8
0
  6
CONTINUOUS
 62
     7
  5
512
 66
     1
 10
0.0
 20
0.0
 30
0.0
  0
VERTEX
  8
0
  6
CONTINUOUS
 62
     7
  5
513
 10
955526.79392
 20
7300225.277369
 30
0.0
 42
1.0
  0
VERTEX
  8
0
  6
CONTINUOUS
 62
     7
  5
514
 10
955534.384427
 20
7300225.054595
 30
0.0
 42
1.0
  0
VERTEX
  8
0
  6
CONTINUOUS
 62
     7
  5
515
 10
955526.79392
 20
7300225.277369
 30
0.0
  0
SEQEND
  8
0
  6
CONTINUOUS
 62
     7
  5
516
  0
POLYLINE
  8
0
  6
CONTINUOUS
 62
     7
  5
517
 66
     1
 10
0.0
 20
0.0
 30
0.0
  0
VERTEX
  8
0
  6
CONTINUOUS
 62
     7
  5
518
 10
955554.095748
 20
7300224.476084
 30
0.0
 42
1.0
  0
VERTEX
  8
0
  6
CONTINUOUS
 62
     7
  5
519
 10
955561.686254
 20
7300224.253309
 30
0.0
 42
1.0
  0
VERTEX
  8
0
  6
CONTINUOUS
 62
     7
  5
51A
 10
955554.095748
 20
7300224.476084
 30
0.0
  0
SEQEND
  8
0
  6
CONTINUOUS
 62
     7
  5
51B
  0
POLYLINE
  8
0
  6
CONTINUOUS
 62
     7
  5
51C
 66
     1
 10
0.0
 20
0.0
 30
0.0
  0
VERTEX
  8
0
  6
CONTINUOUS
 62
     7
  5
51D
 10
955547.329552
 20
7300924.978384
 30
0.0
 42
1.0
  0
VERTEX
  8
0
  6
CONTINUOUS
 62
     7
  5
51E
 10
955554.920058
 20
7300924.755609
 30
0.0
 42
1.0
  0
VERTEX
  8
0
  6
CONTINUOUS
 62
     7
  5
51F
 10
955547.329552
 20
7300924.978384
 30
0.0
  0
SEQEND
  8
0
  6
CONTINUOUS
 62
     7
  5
520
  0
POLYLINE
  8
0
  6
CONTINUOUS
 62
     7
  5
521
 66
     1
 10
0.0
 20
0.0
 30
0.0
  0
VERTEX
  8
0
  6
CONTINUOUS
 62
     7
  5
522
 10
955574.63138
 20
7300924.177098
 30
0.0
 42
1.0
  0
VERTEX
  8
0
  6
CONTINUOUS
 62
     7
  5
523
 10
955582.221886
 20
7300923.954324
 30
0.0
 42
1.0
  0
VERTEX
  8
0
  6
CONTINUOUS
 62
     7
  5
524
 10
955574.63138
 20
7300924.177098
 30
0.0
  0
SEQEND
  8
0
  6
CONTINUOUS
 62
     7
  5
525
  0
ARC
  8
6
  6
CONTINUOUS
 62
     7
  5
526
 10
957283.507143
 20
7304263.654196
 30
0.0
 40
3669.842067
 50
172.088658
 51
178.3189
210
0.0
220
0.0
230
1.0
  0
LINE
  8
0
  6
CONTINUOUS
 62
     7
  5
527
 10
955195.856
 20
7304110.302
 30
0.0
 11
955193.962
 21
7304045.767
 31
0.0
  0
LINE
  8
0
  6
CONTINUOUS
 62
     7
  5
528
 10
955202.018
 20
7304320.243
 30
0.0
 11
955206.13
 21
7304460.342
 31
0.0
  0
LINE
  8
0
  6
CONTINUOUS
 62
     7
  5
529
 10
955180.881
 20
7303060.858
 30
0.0
 11
955249.986
 21
7303058.83
 31
0.0
  0
LINE
  8
0
  6
CONTINUOUS
 62
     7
  5
52A
 10
956228.496
 20
7303286.435
 30
0.0
 11
956118.872
 21
7303105.926
 31
0.0
  0
LINE
  8
0
  6
CONTINUOUS
 62
     7
  5
52B
 10
958762.822
 20
7304618.675
 30
0.0
 11
958762.393
 21
7304604.076
 31
0.0
  0
LINE
  8
0
  6
CONTINUOUS
 62
     7
  5
52C
 10
958800.435
 20
7304617.571
 30
0.0
 11
958800.007
 21
7304602.972
 31
0.0
  0
LINE
  8
0
  6
CONTINUOUS
 62
     2
  5
52D
 10
955244.861
 20
7299926.307
 30
0.0
 11
955170.766
 21
7301704.302
 31
0.0
  0
LINE
  8
0
  6
CONTINUOUS
 62
     2
  5
52E
 10
955169.043
 20
7299942.747
 30
0.0
 11
955100.153
 21
7301595.252
 31
0.0
  0
ARC
  8
0
  6
CONTINUOUS
 62
     2
  5
52F
 10
955320.568692
 20
7301710.515186
 30
0.0
 40
150.000493
 50
133.296094
 51
182.387267
210
0.0
220
0.0
230
1.0
  0
ARC
  8
0
  6
CONTINUOUS
 62
     2
  5
530
 10
955050.220431
 20
7301593.183818
 30
0.0
 40
50.000164
 50
2.387267
 51
133.296094
210
0.0
220
0.0
230
1.0
  0
ARC
  8
0
  6
CONTINUOUS
 62
     2
  5
531
 10
955344.733953
 20
7299930.49051
 30
0.0
 40
100.000329
 50
182.387267
 51
268.3189
210
0.0
220
0.0
230
1.0
  0
ARC
  8
0
  6
CONTINUOUS
 62
     2
  5
532
 10
955069.156986
 20
7299938.578461
 30
0.0
 40
100.000329
 50
268.3189
 51
2.387267
210
0.0
220
0.0
230
1.0
  0
LINE
  8
0
  6
CONTINUOUS
 62
     7
  5
533
 10
955395.619
 20
7299578.817
 30
0.0
 11
955396.713
 21
7299616.092
 31
0.0
  0
LINE
  8
0
  6
CONTINUOUS
 62
     7
  5
534
 10
955401.951
 20
7299794.547
 30
0.0
 11
955402.954
 21
7299828.732
 31
0.0
  0
LINE
  8
0
  6
CONTINUOUS
 62
     7
  5
535
 10
955399.857
 20
7299723.217
 30
0.0
 11
955400.906
 21
7299758.942
 31
0.0
  0
LINE
  8
0
  6
CONTINUOUS
 62
     7
  5
536
 10
955397.76
 20
7299651.758
 30
0.0
 11
955398.809
 21
7299687.49
 31
0.0
  0
LINE
  8
0
  6
CONTINUOUS
 62
     2
  5
537
 10
955089.847
 20
7302685.174
 30
0.0
 11
955132.316
 21
7304132.234
 31
0.0
  0
ARC
  8
0
  6
CONTINUOUS
 62
     2
  5
538
 10
955149.852582
 20
7302683.374185
 30
0.0
 40
60.000197
 50
178.3189
 51
343.0439
210
0.0
220
0.0
230
1.0
  0
ARC
  8
0
  6
CONTINUOUS
 62
     2
  5
539
 10
955192.322323
 20
7304130.425889
 30
0.0
 40
60.000197
 50
88.3189
 51
178.3189
210
0.0
220
0.0
230
1.0
  0
LINE
  8
0
  6
CONTINUOUS
 62
     7
  5
53A
 10
954989.488
 20
7304729.419
 30
0.0
 11
954988.801
 21
7304706.007
 31
0.0
  0
LINE
  8
0
  6
CONTINUOUS
 62
     7
  5
53B
 10
957458.487
 20
7303402.075
 30
0.0
 11
957476.727
 21
7303401.54
 31
0.0
  0
LINE
  8
0
  6
CONTINUOUS
 62
     7
  5
53C
 10
957446.784
 20
7303390.967
 30
0.0
 11
957574.568
 21
7303387.216
 31
0.0
  0
LINE
  8
0
  6
CONTINUOUS
 62
     7
  5
53D
 10
957495.026
 20
7303401.003
 30
0.0
 11
957513.257
 21
7303400.468
 31
0.0
  0
LINE
  8
0
  6
CONTINUOUS
 62
     7
  5
53E
 10
957531.563
 20
7303399.931
 30
0.0
 11
957549.802
 21
7303399.395
 31
0.0
  0
LINE
  8
0
  6
CONTINUOUS
 62
     7
  5
53F
 10
957568.108
 20
7303398.858
 30
0.0
 11
957587.347
 21
7303398.293
 31
0.0
  0
LINE
  8
0
  6
CENTER
 62
     7
  5
540
 10
956067.115
 20
7303797.768
 30
0.0
 11
956066.518
 21
7303777.446
 31
0.0
  0
LINE
  8
0
  6
CENTER
 62
     7
  5
541
 10
956063.376
 20
7303670.382
 30
0.0
 11
956062.714
 21
7303647.836
 31
0.0
  0
LINE
  8
0
  6
CENTER
 62
     7
  5
542
 10
956064.632
 20
7303713.175
 30
0.0
 11
956064.002
 21
7303691.717
 31
0.0
  0
LINE
  8
0
  6
CENTER
 62
     7
  5
543
 10
956065.888
 20
7303755.975
 30
0.0
 11
956065.26
 21
7303734.579
 31
0.0
  0
LINE
  8
0
  6
CENTER
 62
     7
  5
544
 10
956048.116
 20
7303150.433
 30
0.0
 11
956047.668
 21
7303135.164
 31
0.0
  0
LINE
  8
0
  6
CENTER
 62
     7
  5
545
 10
956045.49
 20
7303060.945
 30
0.0
 11
956045.057
 21
7303046.21
 31
0.0
  0
LINE
  8
0
  6
CENTER
 62
     7
  5
546
 10
956046.362
 20
7303090.68
 30
0.0
 11
956045.926
 21
7303075.809
 31
0.0
  0
LINE
  8
0
  6
CENTER
 62
     7
  5
547
 10
956047.233
 20
7303120.354
 30
0.0
 11
956046.799
 21
7303105.551
 31
0.0
  0
CIRCLE
  8
0
  6
CONTINUOUS
 62
     7
  5
548
 10
956472.324094
 20
7303814.204639
 30
0.0
 40
16.098482
210
0.0
220
0.0
230
1.0
  0
CIRCLE
  8
0
  6
CONTINUOUS
 62
     7
  5
549
 10
956464.13015
 20
7303535.016199
 30
0.0
 40
16.098482
210
0.0
220
0.0
230
1.0
  0
LINE
  8
0
  6
CENTER
 62
     7
  5
54A
 10
956018.829
 20
7302131.787
 30
0.0
 11
956018.452
 21
7302118.938
 31
0.0
  0
LINE
  8
0
  6
CENTER
 62
     7
  5
54B
 10
956016.566
 20
7302054.674
 30
0.0
 11
956016.191
 21
7302041.893
 31
0.0
  0
LINE
  8
0
  6
CENTER
 62
     7
  5
54C
 10
956017.32
 20
7302080.378
 30
0.0
 11
956016.945
 21
7302067.597
 31
0.0
  0
LINE
  8
0
  6
CENTER
 62
     7
  5
54D
 10
956018.076
 20
7302106.15
 30
0.0
 11
956017.697
 21
7302093.234
 31
0.0
  0
LINE
  8
0
  6
CENTER
 62
     7
  5
54E
 10
955956.105
 20
7299992.311
 30
0.0
 11
955955.73
 21
7299979.531
 31
0.0
  0
LINE
  8
0
  6
CENTER
 62
     7
  5
54F
 10
955955.353
 20
7299966.675
 30
0.0
 11
955954.974
 21
7299953.759
 31
0.0
  0
LINE
  8
0
  6
CENTER
 62
     7
  5
550
 10
955954.598
 20
7299940.97
 30
0.0
 11
955954.221
 21
7299928.122
 31
0.0
  0
LINE
  8
0
  6
CENTER
 62
     7
  5
551
 10
955953.844
 20
7299915.266
 30
0.0
 11
955953.467
 21
7299902.411
 31
0.0
  0
LINE
  8
0
  6
CENTER
 62
     7
  5
552
 10
955944.439
 20
7299576.382
 30
0.0
 11
955944.032
 21
7299562.519
 31
0.0
  0
LINE
  8
0
  6
CENTER
 62
     7
  5
553
 10
955945.194
 20
7299602.085
 30
0.0
 11
955944.818
 21
7299589.298
 31
0.0
  0
LINE
  8
0
  6
CENTER
 62
     7
  5
554
 10
955945.95
 20
7299627.857
 30
0.0
 11
955945.571
 21
7299614.935
 31
0.0
  0
LINE
  8
0
  6
CENTER
 62
     7
  5
555
 10
955946.673
 20
7299652.487
 30
0.0
 11
955946.327
 21
7299640.707
 31
0.0
  0
LINE
  8
0
  6
CONTINUOUS
 62
     7
  5
556
 10
954969.904
 20
7304729.994
 30
0.0
 11
954969.3
 21
7304709.409
 31
0.0
  0
ARC
  8
0
  6
CONTINUOUS
 62
     7
  5
557
 10
954869.334665
 20
7304712.334574
 30
0.0
 40
100.000329
 50
295.455928
 51
358.3189
210
0.0
220
0.0
230
1.0
  0
ARC
  8
0
  6
CONTINUOUS
 62
     7
  5
558
 10
954868.850919
 20
7304709.487028
 30
0.0
 40
120.000395
 50
295.455928
 51
358.3189
210
0.0
220
0.0
230
1.0
  0
LINE
  8
0
  6
CONTINUOUS
 62
     2
  5
559
 10
955432.697
 20
7304309.432
 30
0.0
 11
955415.21
 21
7304309.946
 31
0.0
  0
LINE
  8
0
  6
CONTINUOUS
 62
     7
  5
55A
 10
955467.95
 20
7302043.296
 30
0.0
 11
955468.386
 21
7302058.166
 31
0.0
  0
LINE
  8
0
  6
CONTINUOUS
 62
     7
  5
55B
 10
955470.571
 20
7302132.594
 30
0.0
 11
955471.009
 21
7302147.533
 31
0.0
  0
LINE
  8
0
  6
CONTINUOUS
 62
     7
  5
55C
 10
955469.696
 20
7302102.785
 30
0.0
 11
955470.132
 21
7302117.657
 31
0.0
  0
LINE
  8
0
  6
CONTINUOUS
 62
     7
  5
55D
 10
955468.823
 20
7302073.037
 30
0.0
 11
955469.259
 21
7302087.908
 31
0.0
  0
LINE
  8
0
  6
CONTINUOUS
 62
     7
  5
55E
 10
955516.394
 20
7303693.908
 30
0.0
 11
955516.777
 21
7303706.966
 31
0.0
  0
LINE
  8
0
  6
CONTINUOUS
 62
     7
  5
55F
 10
955504.018
 20
7303694.271
 30
0.0
 11
955506.811
 21
7303789.419
 31
0.0
  0
LINE
  8
0
  6
CONTINUOUS
 62
     7
  5
560
 10
955517.156
 20
7303719.883
 30
0.0
 11
955517.537
 21
7303732.873
 31
0.0
  0
LINE
  8
0
  6
CONTINUOUS
 62
     7
  5
561
 10
955517.917
 20
7303745.797
 30
0.0
 11
955518.3
 21
7303758.848
 31
0.0
  0
LINE
  8
0
  6
CONTINUOUS
 62
     7
  5
562
 10
955518.681
 20
7303771.839
 30
0.0
 11
955519.066
 21
7303784.951
 31
0.0
  0
LINE
  8
0
  6
CONTINUOUS
 62
     7
  5
563
 10
955410.501
 20
7303332.67
 30
0.0
 11
955418.508
 21
7303330.147
 31
0.0
  0
LINE
  8
0
  6
CONTINUOUS
 62
     7
  5
564
 10
955406.919
 20
7303320.856
 30
0.0
 11
955478.744
 21
7303298.944
 31
0.0
  0
LINE
  8
0
  6
CONTINUOUS
 62
     7
  5
565
 10
955474.317
 20
7303313.22
 30
0.0
 11
955482.328
 21
7303310.826
 31
0.0
  0
LINE
  8
0
  6
CONTINUOUS
 62
     7
  5
566
 10
955458.296
 20
7303318.069
 30
0.0
 11
955466.373
 21
7303315.605
 31
0.0
  0
LINE
  8
0
  6
CONTINUOUS
 62
     7
  5
567
 10
955442.404
 20
7303322.907
 30
0.0
 11
955450.416
 21
7303320.52
 31
0.0
  0
LINE
  8
0
  6
CONTINUOUS
 62
     7
  5
568
 10
955426.521
 20
7303327.82
 30
0.0
 11
955434.465
 21
7303325.435
 31
0.0
  0
LINE
  8
0
  6
CONTINUOUS
 62
     3
  5
569
 10
956479.88
 20
7301982.347
 30
0.0
 11
956559.152
 21
7304683.351
 31
0.0
  0
LINE
  8
0
  6
CONTINUOUS
 62
     3
  5
56A
 10
955069.766
 20
7304727.063
 30
0.0
 11
954986.267
 21
7301882.058
 31
0.0
  0
LINE
  8
0
  6
CONTINUOUS
 62
     3
  5
56B
 10
956404.256
 20
7299405.625
 30
0.0
 11
956472.806
 21
7301741.318
 31
0.0
  0
LINE
  8
0
  6
CONTINUOUS
 62
     3
  5
56C
 10
954979.62
 20
7301655.562
 30
0.0
 11
954914.869
 21
7299449.337
 31
0.0
  0
LINE
  8
0
  6
CONTINUOUS
 62
     2
  5
56D
 10
954611.784
 20
7300219.865
 30
0.0
 11
954361.937
 21
7300227.198
 31
0.0
  0
LINE
  8
0
  6
CONTINUOUS
 62
     2
  5
56E
 10
954616.488
 20
7300380.15
 30
0.0
 11
954366.641
 21
7300387.483
 31
0.0
  0
LINE
  8
0
  6
CONTINUOUS
 62
     7
  5
56F
 10
954267.79
 20
7300428.977
 30
0.0
 11
954264.594
 21
7300320.1
 31
0.0
  0
LINE
  8
0
  6
CONTINUOUS
 62
     2
  5
570
 10
954616.488
 20
7300380.15
 30
0.0
 11
954611.784
 21
7300219.865
 31
0.0
  0
LINE
  8
0
  6
CONTINUOUS
 62
     2
  5
571
 10
954366.641
 20
7300387.483
 30
0.0
 11
954361.937
 21
7300227.198
 31
0.0
  0
LINE
  8
0
  6
CONTINUOUS
 62
     7
  5
572
 10
954632.071
 20
7300229.375
 30
0.0
 11
954628.883
 21
7300120.769
 31
0.0
  0
ARC
  8
0
  6
CONTINUOUS
 62
     7
  5
573
 10
954612.105836
 20
7300229.989691
 30
0.0
 40
20.000066
 50
358.3189
 51
88.3189
210
0.0
220
0.0
230
1.0
  0
LINE
  8
0
  6
CONTINUOUS
 62
     7
  5
574
 10
954665.604
 20
7300348.474
 30
0.0
 11
954615.602
 21
7300349.942
 31
0.0
  0
LINE
  8
0
  6
CONTINUOUS
 62
     7
  5
575
 10
954665.604
 20
7300348.474
 30
0.0
 11
954659.482
 21
7300139.871
 31
0.0
  0
ARC
  8
0
  6
CONTINUOUS
 62
     7
  5
576
 10
954679.47476
 20
7300139.307399
 30
0.0
 40
20.000066
 50
178.3189
 51
268.3189
210
0.0
220
0.0
230
1.0
  0
ARC
  8
0
  6
CONTINUOUS
 62
     7
  5
577
 10
954217.816418
 20
7300430.477082
 30
0.0
 40
50.000164
 50
358.3189
 51
88.3189
210
0.0
220
0.0
230
1.0
  0
LINE
  8
0
  6
CONTINUOUS
 62
     7
  5
578
 10
954362.523
 20
7300247.187
 30
0.0
 11
954332.518
 21
7300248.068
 31
0.0
  0
ARC
  8
0
  6
CONTINUOUS
 62
     7
  5
579
 10
954334.567472
 20
7300318.003245
 30
0.0
 40
70.00023
 50
178.3189
 51
268.3189
210
0.0
220
0.0
230
1.0
  0
LINE
  8
0
  6
CONTINUOUS
 62
     7
  5
57A
 10
954363.11
 20
7300267.171
 30
0.0
 11
954333.105
 21
7300268.051
 31
0.0
  0
ARC
  8
0
  6
CONTINUOUS
 62
     7
  5
57B
 10
954334.567472
 20
7300318.003245
 30
0.0
 40
50.000164
 50
178.3189
 51
268.3189
210
0.0
220
0.0
230
1.0
  0
LINE
  8
0
  6
CONTINUOUS
 62
     7
  5
57C
 10
954288.801
 20
7300463.447
 30
0.0
 11
954284.577
 21
7300319.514
 31
0.0
  0
ARC
  8
0
  6
CONTINUOUS
 62
     7
  5
57D
 10
954303.806895
 20
7300462.968521
 30
0.0
 40
15.000049
 50
88.3189
 51
178.3189
210
0.0
220
0.0
230
1.0
  0
ARC
  8
0
  6
CONTINUOUS
 62
     7
  5
57E
 10
954303.806895
 20
7300462.968521
 30
0.0
 40
15.000049
 50
358.3189
 51
88.3189
210
0.0
220
0.0
230
1.0
  0
LINE
  8
0
  6
CONTINUOUS
 62
     7
  5
57F
 10
954362.455
 20
7300451.255
 30
0.0
 11
954298.53
 21
7300453.131
 31
0.0
  0
LINE
  8
0
  6
CONTINUOUS
 62
     7
  5
580
 10
954318.813
 20
7300462.566
 30
0.0
 11
954318.519
 21
7300452.544
 31
0.0
  0
LINE
  8
0
  6
CONTINUOUS
 62
     7
  5
581
 10
954359.023
 20
7300334.304
 30
0.0
 11
954295.097
 21
7300336.181
 31
0.0
  0
LINE
  8
0
  6
CONTINUOUS
 62
     7
  5
582
 10
954355.121
 20
7300334.419
 30
0.0
 11
954358.554
 21
7300451.37
 31
0.0
  0
LINE
  8
0
  6
CONTINUOUS
 62
     7
  5
583
 10
954295.097
 20
7300336.181
 30
0.0
 11
954298.53
 21
7300453.131
 31
0.0
  0
LINE
  8
0
  6
CONTINUOUS
 62
     7
  5
584
 10
954318.813
 20
7300462.566
 30
0.0
 11
954342.766
 21
7300461.863
 31
0.0
  0
LINE
  8
0
  6
CONTINUOUS
 62
     7
  5
585
 10
954342.766
 20
7300461.863
 30
0.0
 11
954342.472
 21
7300451.842
 31
0.0
  0
ARC
  8
0
  6
CONTINUOUS
 62
     7
  5
586
 10
954357.78383
 20
7300461.384343
 30
0.0
 40
15.000049
 50
88.3189
 51
178.3189
210
0.0
220
0.0
230
1.0
  0
LINE
  8
0
  6
CONTINUOUS
 62
     7
  5
587
 10
954359.023
 20
7300334.304
 30
0.0
 11
954362.455
 21
7300451.255
 31
0.0
  0
LINE
  8
0
  6
CONTINUOUS
 62
     2
  5
588
 10
954377.752
 20
7300387.157
 30
0.0
 11
954379.999
 21
7300463.729
 31
0.0
  0
LINE
  8
0
  6
CONTINUOUS
 62
     2
  5
589
 10
954242.232
 20
7300239.875
 30
0.0
 11
954248.915
 21
7300467.576
 31
0.0
  0
LINE
  8
0
  6
CONTINUOUS
 62
     6
  5
58A
 10
954248.915
 20
7300467.576
 30
0.0
 11
954057.009
 21
7300473.208
 31
0.0
  0
LINE
  8
0
  6
CONTINUOUS
 62
     2
  5
58B
 10
954362.205
 20
7300236.354
 30
0.0
 11
954242.232
 21
7300239.875
 31
0.0
  0
LINE
  8
0
  6
CONTINUOUS
 62
     6
  5
58C
 10
954540.886
 20
7300459.007
 30
0.0
 11
954379.999
 21
7300463.729
 31
0.0
  0
POLYLINE
  8
0
  6
CONTINUOUS
 62
     7
  5
58D
 66
     1
 10
0.0
 20
0.0
 30
0.0
 70
     1
  0
VERTEX
  8
0
  6
CONTINUOUS
 62
     7
  5
58E
 10
954209.128
 20
7300133.088
 30
0.0
  0
VERTEX
  8
0
  6
CONTINUOUS
 62
     7
  5
58F
 10
954668.917
 20
7300119.594
 30
0.0
  0
VERTEX
  8
0
  6
CONTINUOUS
 62
     7
  5
590
 10
954679.112
 20
7300466.943
 30
0.0
  0
VERTEX
  8
0
  6
CONTINUOUS
 62
     7
  5
591
 10
954219.323
 20
7300480.438
 30
0.0
  0
SEQEND
  8
0
  6
CONTINUOUS
 62
     7
  5
592
  0
LINE
  8
0
  6
CONTINUOUS
 62
     7
  5
593
 10
954358.289
 20
7300442.348
 30
0.0
 11
954343.147
 21
7300442.793
 31
0.0
  0
LINE
  8
0
  6
CONTINUOUS
 62
     7
  5
594
 10
954358.026
 20
7300433.401
 30
0.0
 11
954342.885
 21
7300433.846
 31
0.0
  0
LINE
  8
0
  6
CONTINUOUS
 62
     7
  5
595
 10
954357.762
 20
7300424.38
 30
0.0
 11
954342.62
 21
7300424.825
 31
0.0
  0
LINE
  8
0
  6
CONTINUOUS
 62
     7
  5
596
 10
954357.499
 20
7300415.44
 30
0.0
 11
954342.358
 21
7300415.884
 31
0.0
  0
LINE
  8
0
  6
CONTINUOUS
 62
     7
  5
597
 10
954357.234
 20
7300406.419
 30
0.0
 11
954342.093
 21
7300406.863
 31
0.0
  0
LINE
  8
0
  6
CONTINUOUS
 62
     7
  5
598
 10
954356.97
 20
7300397.398
 30
0.0
 11
954341.828
 21
7300397.842
 31
0.0
  0
LINE
  8
0
  6
CONTINUOUS
 62
     7
  5
599
 10
954356.705
 20
7300388.384
 30
0.0
 11
954341.564
 21
7300388.828
 31
0.0
  0
LINE
  8
0
  6
CONTINUOUS
 62
     7
  5
59A
 10
954356.443
 20
7300379.436
 30
0.0
 11
954341.301
 21
7300379.881
 31
0.0
  0
LINE
  8
0
  6
CONTINUOUS
 62
     7
  5
59B
 10
954356.176
 20
7300370.347
 30
0.0
 11
954341.034
 21
7300370.792
 31
0.0
  0
LINE
  8
0
  6
CONTINUOUS
 62
     7
  5
59C
 10
954355.915
 20
7300361.468
 30
0.0
 11
954340.774
 21
7300361.913
 31
0.0
  0
LINE
  8
0
  6
CONTINUOUS
 62
     7
  5
59D
 10
954355.65
 20
7300352.447
 30
0.0
 11
954340.509
 21
7300352.891
 31
0.0
  0
LINE
  8
0
  6
CONTINUOUS
 62
     7
  5
59E
 10
954355.386
 20
7300343.44
 30
0.0
 11
954340.245
 21
7300343.884
 31
0.0
  0
LINE
  8
0
  6
CONTINUOUS
 62
     7
  5
59F
 10
954310.3
 20
7300344.763
 30
0.0
 11
954295.362
 21
7300345.202
 31
0.0
  0
LINE
  8
0
  6
CONTINUOUS
 62
     7
  5
5A0
 10
954310.565
 20
7300353.77
 30
0.0
 11
954295.626
 21
7300354.209
 31
0.0
  0
LINE
  8
0
  6
CONTINUOUS
 62
     7
  5
5A1
 10
954310.83
 20
7300362.791
 30
0.0
 11
954295.891
 21
7300363.23
 31
0.0
  0
LINE
  8
0
  6
CONTINUOUS
 62
     7
  5
5A2
 10
954311.09
 20
7300371.671
 30
0.0
 11
954296.152
 21
7300372.109
 31
0.0
  0
LINE
  8
0
  6
CONTINUOUS
 62
     7
  5
5A3
 10
954311.357
 20
7300380.76
 30
0.0
 11
954296.418
 21
7300381.198
 31
0.0
  0
LINE
  8
0
  6
CONTINUOUS
 62
     7
  5
5A4
 10
954311.62
 20
7300389.707
 30
0.0
 11
954296.681
 21
7300390.145
 31
0.0
  0
LINE
  8
0
  6
CONTINUOUS
 62
     7
  5
5A5
 10
954311.884
 20
7300398.721
 30
0.0
 11
954296.946
 21
7300399.159
 31
0.0
  0
LINE
  8
0
  6
CONTINUOUS
 62
     7
  5
5A6
 10
954312.149
 20
7300407.742
 30
0.0
 11
954297.21
 21
7300408.181
 31
0.0
  0
LINE
  8
0
  6
CONTINUOUS
 62
     7
  5
5A7
 10
954312.414
 20
7300416.763
 30
0.0
 11
954297.475
 21
7300417.202
 31
0.0
  0
LINE
  8
0
  6
CONTINUOUS
 62
     7
  5
5A8
 10
954312.676
 20
7300425.703
 30
0.0
 11
954297.737
 21
7300426.142
 31
0.0
  0
LINE
  8
0
  6
CONTINUOUS
 62
     7
  5
5A9
 10
954312.941
 20
7300434.724
 30
0.0
 11
954298.002
 21
7300435.163
 31
0.0
  0
LINE
  8
0
  6
CONTINUOUS
 62
     7
  5
5AA
 10
954313.203
 20
7300443.672
 30
0.0
 11
954298.265
 21
7300444.11
 31
0.0
  0
SOLID
  8
0
  6
CONTINUOUS
 62
     7
  5
5AB
 10
955002.733
 20
7303746.5
 30
0.0
 11
954970.686
 21
7303746.764
 31
0.0
 12
954986.912
 22
7303774.309
 32
0.0
 13
954970.686
 23
7303746.764
 33
0.0
  0
POLYLINE
  8
0
  6
CONTINUOUS
 62
     7
  5
5AC
 66
     1
 10
0.0
 20
0.0
 30
0.0
 70
     1
  0
VERTEX
  8
0
  6
CONTINUOUS
 62
     7
  5
5AD
 10
954970.686
 20
7303746.764
 30
0.0
  0
VERTEX
  8
0
  6
CONTINUOUS
 62
     7
  5
5AE
 10
955002.733
 20
7303746.5
 30
0.0
  0
VERTEX
  8
0
  6
CONTINUOUS
 62
     7
  5
5AF
 10
954986.912
 20
7303774.309
 30
0.0
  0
SEQEND
  8
0
  6
CONTINUOUS
 62
     7
  5
5B0
  0
LINE
  8
0
  6
DASHED
 62
     3
  5
5B1
 10
953832.625
 20
7304501.12
 30
0.0
 11
955525.587
 21
7304238.888
 31
0.0
  0
LINE
  8
0
  6
DASHED
 62
     3
  5
5B2
 10
955525.587
 20
7304238.888
 30
0.0
 11
955496.25
 21
7303239.301
 31
0.0
  0
LINE
  8
0
  6
DASHED
 62
     3
  5
5B3
 10
955496.25
 20
7303239.301
 30
0.0
 11
953790.823
 21
7303076.809
 31
0.0
  0
LINE
  8
0
  6
DASHED
 62
     3
  5
5B4
 10
953790.823
 20
7303076.809
 30
0.0
 11
953832.625
 21
7304501.12
 31
0.0
  0
LINE
  8
0
  6
DOT
 62
     5
  5
5B5
 10
956452.659
 20
7303780.929
 30
0.0
 11
956446.675
 21
7303577.04
 31
0.0
  0
LINE
  8
0
  6
CENTER
 62
     7
  5
5B6
 10
955764.877
 20
7303015.833
 30
0.0
 11
955814.459
 21
7304705.207
 31
0.0
  0
POLYLINE
  8
0
  6
CONTINUOUS
 62
     2
  5
5B7
 66
     1
 10
0.0
 20
0.0
 30
0.0
  0
VERTEX
  8
0
  6
CONTINUOUS
 62
     2
  5
5B8
 10
954459.258284
 20
7304516.971228
 30
0.0
 42
1.0
  0
VERTEX
  8
0
  6
CONTINUOUS
 62
     2
  5
5B9
 10
954458.666208
 20
7304496.797707
 30
0.0
 42
1.0
  0
VERTEX
  8
0
  6
CONTINUOUS
 62
     2
  5
5BA
 10
954459.258284
 20
7304516.971228
 30
0.0
  0
SEQEND
  8
0
  6
CONTINUOUS
 62
     2
  5
5BB
  0
LINE
  8
0
  6
DOT
 62
     7
  5
5BC
 10
957995.2
 20
7301631.113
 30
0.0
 11
958416.166
 21
7301618.758
 31
0.0
  0
POLYLINE
  8
0
  6
CENTER
 62
     7
  5
5BD
 66
     1
 10
0.0
 20
0.0
 30
0.0
  0
VERTEX
  8
0
  6
CENTER
 62
     7
  5
5BE
 10
955050.683
 20
7302663.426
 30
0.0
  0
VERTEX
  8
0
  6
CENTER
 62
     7
  5
5BF
 10
955097.489
 20
7304258.254
 30
0.0
  0
SEQEND
  8
0
  6
CENTER
 62
     7
  5
5C0
  0
LINE
  8
0
  6
CONTINUOUS
 62
     2
  5
5C1
 10
956070.457
 20
7303647.609
 30
0.0
 11
956295.94
 21
7303640.991
 31
0.0
  0
LINE
  8
0
  6
CONTINUOUS
 62
     2
  5
5C2
 10
956074.857
 20
7303797.54
 30
0.0
 11
956300.34
 21
7303790.923
 31
0.0
  0
LINE
  8
0
  6
CENTER
 62
     7
  5
5C3
 10
956074.857
 20
7303797.54
 30
0.0
 11
956070.457
 21
7303647.609
 31
0.0
  0
ARC
  8
0
  6
CONTINUOUS
 62
     2
  5
5C4
 10
955531.405881
 20
7303838.519114
 30
0.0
 40
55.000181
 50
243.352672
 51
268.3189
210
0.0
220
0.0
230
1.0
  0
LINE
  8
0
  6
CONTINUOUS
 62
     2
  5
5C5
 10
955473.549
 20
7304338.203
 30
0.0
 11
955484.604
 21
7304714.888
 31
0.0
  0
LINE
  8
0
  6
CONTINUOUS
 62
     2
  5
5C6
 10
955458.633
 20
7302147.896
 30
0.0
 11
955514.282
 21
7302146.263
 31
0.0
  0
LINE
  8
0
  6
CONTINUOUS
 62
     2
  5
5C7
 10
955478.744
 20
7303298.944
 30
0.0
 11
955580.547
 21
7303633.1
 31
0.0
  0
LINE
  8
0
  6
CONTINUOUS
 62
     2
  5
5C8
 10
956052.679
 20
7303041.878
 30
0.0
 11
956161.491
 21
7302974.636
 31
0.0
  0
LINE
  8
0
  6
CONTINUOUS
 62
     2
  5
5C9
 10
956055.729
 20
7303145.77
 30
0.0
 11
956188.353
 21
7303063.886
 31
0.0
  0
LINE
  8
0
  6
CONTINUOUS
 62
     2
  5
5CA
 10
956026.556
 20
7302131.228
 30
0.0
 11
956196.396
 21
7302126.243
 31
0.0
  0
ARC
  8
0
  6
CONTINUOUS
 62
     2
  5
5CB
 10
955527.710676
 20
7301905.689261
 30
0.0
 40
150.000493
 50
118.85995
 51
133.296094
210
0.0
220
0.0
230
1.0
  0
LINE
  8
0
  6
CONTINUOUS
 62
     2
  5
5CC
 10
956023.915
 20
7302041.26
 30
0.0
 11
956193.755
 21
7302036.275
 31
0.0
  0
LINE
  8
0
  6
CENTER
 62
     7
  5
5CD
 10
955963.909
 20
7299992.082
 30
0.0
 11
955961.27
 21
7299902.182
 31
0.0
  0
LINE
  8
0
  6
CONTINUOUS
 62
     2
  5
5CE
 10
955963.909
 20
7299992.082
 30
0.0
 11
956141.147
 21
7299986.88
 31
0.0
  0
LINE
  8
0
  6
CONTINUOUS
 62
     2
  5
5CF
 10
955390.579
 20
7299829.096
 30
0.0
 11
955496.155
 21
7299825.997
 31
0.0
  0
LINE
  8
0
  6
CONTINUOUS
 62
     2
  5
5D0
 10
955951.762
 20
7299562.292
 30
0.0
 11
955738.662
 21
7299568.546
 31
0.0
  0
LINE
  8
0
  6
CONTINUOUS
 62
     2
  5
5D1
 10
955954.402
 20
7299652.26
 30
0.0
 11
956131.174
 21
7299647.072
 31
0.0
  0
LINE
  8
0
  6
CONTINUOUS
 62
     2
  5
5D2
 10
955961.27
 20
7299902.182
 30
0.0
 11
956186.015
 21
7299895.586
 31
0.0
  0
LINE
  8
0
  6
CONTINUOUS
 62
     7
  5
5D3
 10
955383.244
 20
7299579.18
 30
0.0
 11
955390.579
 21
7299829.096
 31
0.0
  0
LINE
  8
0
  6
CONTINUOUS
 62
     2
  5
5D4
 10
955738.662
 20
7299568.546
 30
0.0
 11
955588.804
 21
7299572.944
 31
0.0
  0
LINE
  8
0
  6
CONTINUOUS
 62
     2
  5
5D5
 10
955587.87
 20
7299541.113
 30
0.0
 11
955588.804
 21
7299572.944
 31
0.0
  0
LINE
  8
0
  6
CONTINUOUS
 62
     2
  5
5D6
 10
955737.722
 20
7299536.512
 30
0.0
 11
955734.457
 21
7299425.283
 31
0.0
  0
LINE
  8
0
  6
CONTINUOUS
 62
     2
  5
5D7
 10
955383.244
 20
7299579.18
 30
0.0
 11
955588.81
 21
7299573.147
 31
0.0
  0
LINE
  8
0
  6
CONTINUOUS
 62
     7
  5
5D8
 10
955451.973
 20
7301971.439
 30
0.0
 11
955444.02
 21
7301700.465
 31
0.0
  0
LINE
  8
0
  6
CONTINUOUS
 62
     6
  5
5D9
 10
955888.252
 20
7303809.677
 30
0.0
 11
955914.449
 21
7304702.273
 31
0.0
  0
LINE
  8
0
  6
CONTINUOUS
 62
     2
  5
5DA
 10
955844.285
 20
7302311.607
 30
0.0
 11
955866.927
 21
7303083.087
 31
0.0
  0
LINE
  8
0
  6
CENTER
 62
     7
  5
5DB
 10
956055.729
 20
7303145.77
 30
0.0
 11
956052.679
 21
7303041.878
 31
0.0
  0
POLYLINE
  8
0
  6
CONTINUOUS
 62
     6
  5
5DC
 66
     1
 10
0.0
 20
0.0
 30
0.0
  0
VERTEX
  8
0
  6
CONTINUOUS
 62
     6
  5
5DD
 10
956055.729
 20
7303145.77
 30
0.0
  0
VERTEX
  8
0
  6
CONTINUOUS
 62
     6
  5
5DE
 10
956056.578
 20
7303174.7
 30
0.0
  0
VERTEX
  8
0
  6
CONTINUOUS
 62
     6
  5
5DF
 10
956056.543115
 20
7303174.668782
 30
0.0
 42
-0.267425
  0
VERTEX
  8
0
  6
CONTINUOUS
 62
     6
  5
5E0
 10
955879.293982
 20
7303504.368764
 30
0.0
  0
VERTEX
  8
0
  6
CONTINUOUS
 62
     6
  5
5E1
 10
955879.29
 20
7303504.322
 30
0.0
  0
VERTEX
  8
0
  6
CONTINUOUS
 62
     6
  5
5E2
 10
955883.461
 20
7303646.43
 30
0.0
  0
SEQEND
  8
0
  6
CONTINUOUS
 62
     6
  5
5E3
  0
POLYLINE
  8
0
  6
CONTINUOUS
 62
     6
  5
5E4
 66
     1
 10
0.0
 20
0.0
 30
0.0
  0
VERTEX
  8
0
  6
CONTINUOUS
 62
     6
  5
5E5
 10
956026.556
 20
7302131.228
 30
0.0
  0
VERTEX
  8
0
  6
CONTINUOUS
 62
     6
  5
5E6
 10
956027.29
 20
7302156.256
 30
0.0
  0
VERTEX
  8
0
  6
CONTINUOUS
 62
     6
  5
5E7
 10
955989.806
 20
7302157.357
 30
0.0
  0
VERTEX
  8
0
  6
CONTINUOUS
 62
     6
  5
5E8
 10
955989.783216
 20
7302157.282819
 30
0.0
 42
-0.414214
  0
VERTEX
  8
0
  6
CONTINUOUS
 62
     6
  5
5E9
 10
955844.286586
 20
7302311.578087
 30
0.0
  0
VERTEX
  8
0
  6
CONTINUOUS
 62
     6
  5
5EA
 10
955844.285
 20
7302311.607
 30
0.0
  0
VERTEX
  8
0
  6
CONTINUOUS
 62
     6
  5
5EB
 10
955866.927
 20
7303083.087
 30
0.0
  0
VERTEX
  8
0
  6
CONTINUOUS
 62
     6
  5
5EC
 10
955866.929604
 20
7303083.083085
 30
0.0
 42
-0.57735
  0
VERTEX
  8
0
  6
CONTINUOUS
 62
     6
  5
5ED
 10
955904.987753
 20
7303103.591483
 30
0.0
  0
VERTEX
  8
0
  6
CONTINUOUS
 62
     6
  5
5EE
 10
955904.978
 20
7303103.587
 30
0.0
  0
VERTEX
  8
0
  6
CONTINUOUS
 62
     6
  5
5EF
 10
956051.832
 20
7303013.002
 30
0.0
  0
VERTEX
  8
0
  6
CONTINUOUS
 62
     6
  5
5F0
 10
956052.679
 20
7303041.878
 30
0.0
  0
SEQEND
  8
0
  6
CONTINUOUS
 62
     6
  5
5F1
  0
LINE
  8
0
  6
CENTER
 62
     7
  5
5F2
 10
956026.556
 20
7302131.228
 30
0.0
 11
956023.915
 21
7302041.26
 31
0.0
  0
LINE
  8
0
  6
CONTINUOUS
 62
     7
  5
5F3
 10
955455.379
 20
7302036.998
 30
0.0
 11
955458.633
 21
7302147.896
 31
0.0
  0
LINE
  8
0
  6
CENTER
 62
     7
  5
5F4
 10
955954.402
 20
7299652.26
 30
0.0
 11
955951.762
 21
7299562.292
 31
0.0
  0
POLYLINE
  8
0
  6
CONTINUOUS
 62
     6
  5
5F5
 66
     1
 10
0.0
 20
0.0
 30
0.0
  0
VERTEX
  8
0
  6
CONTINUOUS
 62
     6
  5
5F6
 10
955951.762
 20
7299562.292
 30
0.0
  0
VERTEX
  8
0
  6
CONTINUOUS
 62
     6
  5
5F7
 10
955951.025
 20
7299537.189
 30
0.0
  0
VERTEX
  8
0
  6
CONTINUOUS
 62
     6
  5
5F8
 10
955737.925
 20
7299543.444
 30
0.0
  0
SEQEND
  8
0
  6
CONTINUOUS
 62
     6
  5
5F9
  0
POLYLINE
  8
0
  6
CONTINUOUS
 62
     6
  5
5FA
 66
     1
 10
0.0
 20
0.0
 30
0.0
  0
VERTEX
  8
0
  6
CONTINUOUS
 62
     6
  5
5FB
 10
955954.402
 20
7299652.26
 30
0.0
  0
VERTEX
  8
0
  6
CONTINUOUS
 62
     6
  5
5FC
 10
955955.135
 20
7299677.22
 30
0.0
  0
VERTEX
  8
0
  6
CONTINUOUS
 62
     6
  5
5FD
 10
955867.06
 20
7299679.805
 30
0.0
  0
VERTEX
  8
0
  6
CONTINUOUS
 62
     6
  5
5FE
 10
955867.049762
 20
7299679.808913
 30
0.0
 42
-0.414214
  0
VERTEX
  8
0
  6
CONTINUOUS
 62
     6
  5
5FF
 10
955770.064946
 20
7299782.658706
 30
0.0
  0
VERTEX
  8
0
  6
CONTINUOUS
 62
     6
  5
600
 10
955770.063
 20
7299782.668
 30
0.0
  0
VERTEX
  8
0
  6
CONTINUOUS
 62
     6
  5
601
 10
955773.535
 20
7299900.957
 30
0.0
  0
SEQEND
  8
0
  6
CONTINUOUS
 62
     6
  5
602
  0
POLYLINE
  8
0
  6
CONTINUOUS
 62
     6
  5
603
 66
     1
 10
0.0
 20
0.0
 30
0.0
  0
VERTEX
  8
0
  6
CONTINUOUS
 62
     6
  5
604
 10
955777.834
 20
7300047.453
 30
0.0
  0
VERTEX
  8
0
  6
CONTINUOUS
 62
     6
  5
605
 10
955835.045
 20
7301996.765
 30
0.0
  0
VERTEX
  8
0
  6
CONTINUOUS
 62
     6
  5
606
 10
955835.045552
 20
7301996.712631
 30
0.0
 42
-0.414214
  0
VERTEX
  8
0
  6
CONTINUOUS
 62
     6
  5
607
 10
955860.727133
 20
7302020.929728
 30
0.0
  0
VERTEX
  8
0
  6
CONTINUOUS
 62
     6
  5
608
 10
955860.739
 20
7302020.992
 30
0.0
  0
VERTEX
  8
0
  6
CONTINUOUS
 62
     6
  5
609
 10
956023.181
 20
7302016.225
 30
0.0
  0
VERTEX
  8
0
  6
CONTINUOUS
 62
     6
  5
60A
 10
956023.915
 20
7302041.26
 30
0.0
  0
SEQEND
  8
0
  6
CONTINUOUS
 62
     6
  5
60B
  0
LINE
  8
0
  6
CONTINUOUS
 62
     6
  5
60C
 10
955506.811
 20
7303789.419
 30
0.0
 11
955507.715
 21
7303820.243
 31
0.0
  0
ARC
  8
0
  6
CONTINUOUS
 62
     6
  5
60D
 10
955531.405881
 20
7303838.519114
 30
0.0
 40
29.960099
 50
217.527125
 51
243.352672
210
0.0
220
0.0
230
1.0
  0
ARC
  8
0
  6
CONTINUOUS
 62
     6
  5
60E
 10
955531.405881
 20
7303838.519114
 30
0.0
 40
29.960098
 50
243.352672
 51
268.3189
210
0.0
220
0.0
230
1.0
  0
LINE
  8
0
  6
CONTINUOUS
 62
     6
  5
60F
 10
955530.541
 20
7303808.594
 30
0.0
 11
955662.965
 21
7303804.708
 31
0.0
  0
ARC
  8
0
  6
CONTINUOUS
 62
     6
  5
610
 10
955663.702604
 20
7303829.634148
 30
0.0
 40
24.960082
 50
268.3189
 51
358.3189
210
0.0
220
0.0
230
1.0
  0
LINE
  8
0
  6
CONTINUOUS
 62
     6
  5
611
 10
955688.595
 20
7303828.87
 30
0.0
 11
955714.401
 21
7304708.144
 31
0.0
  0
POLYLINE
  8
0
  6
CONTINUOUS
 62
     6
  5
612
 66
     1
 10
0.0
 20
0.0
 30
0.0
  0
VERTEX
  8
0
  6
CONTINUOUS
 62
     6
  5
613
 10
955458.633
 20
7302147.896
 30
0.0
  0
VERTEX
  8
0
  6
CONTINUOUS
 62
     6
  5
614
 10
955459.368
 20
7302172.924
 30
0.0
  0
VERTEX
  8
0
  6
CONTINUOUS
 62
     6
  5
615
 10
955515.017
 20
7302171.291
 30
0.0
  0
VERTEX
  8
0
  6
CONTINUOUS
 62
     6
  5
616
 10
955514.986099
 20
7302171.217713
 30
0.0
 42
0.414214
  0
VERTEX
  8
0
  6
CONTINUOUS
 62
     6
  5
617
 10
955643.558629
 20
7302292.458436
 30
0.0
  0
VERTEX
  8
0
  6
CONTINUOUS
 62
     6
  5
618
 10
955643.505
 20
7302292.518
 30
0.0
  0
VERTEX
  8
0
  6
CONTINUOUS
 62
     6
  5
619
 10
955683.02
 20
7303638.918
 30
0.0
  0
VERTEX
  8
0
  6
CONTINUOUS
 62
     6
  5
61A
 10
955683.077986
 20
7303638.98306
 30
0.0
 42
0.414214
  0
VERTEX
  8
0
  6
CONTINUOUS
 62
     6
  5
61B
 10
955658.860889
 20
7303664.664641
 30
0.0
  0
VERTEX
  8
0
  6
CONTINUOUS
 62
     6
  5
61C
 10
955658.856
 20
7303664.677
 30
0.0
  0
VERTEX
  8
0
  6
CONTINUOUS
 62
     6
  5
61D
 10
955658.727
 20
7303664.681
 30
0.0
  0
VERTEX
  8
0
  6
CONTINUOUS
 62
     6
  5
61E
 10
955658.677329
 20
7303664.670028
 30
0.0
 42
0.338117
  0
VERTEX
  8
0
  6
CONTINUOUS
 62
     6
  5
61F
 10
955604.49401
 20
7303625.762029
 30
0.0
  0
VERTEX
  8
0
  6
CONTINUOUS
 62
     6
  5
620
 10
955604.513
 20
7303625.73
 30
0.0
  0
VERTEX
  8
0
  6
CONTINUOUS
 62
     6
  5
621
 10
955502.639
 20
7303291.644
 30
0.0
  0
VERTEX
  8
0
  6
CONTINUOUS
 62
     6
  5
622
 10
955478.744
 20
7303298.944
 30
0.0
  0
SEQEND
  8
0
  6
CONTINUOUS
 62
     6
  5
623
  0
LINE
  8
6
  6
CONTINUOUS
 62
     7
  5
624
 10
953615.244
 20
7304371.315
 30
0.0
 11
953592.413
 21
7303593.059
 31
0.0
  0
LINE
  8
6
  6
CONTINUOUS
 62
     7
  5
625
 10
953586.526
 20
7303392.463
 30
0.0
 11
953580.639
 21
7303191.88
 31
0.0
  0
TEXT
  8
0
  6
CONTINUOUS
 62
     7
  5
627
 10
957862.509
 20
7303143.548
 30
0.0
 40
8.0
  1
75'
 50
88.3189
  7
ROMANS
 72
     4
 11
957858.784519
 21
7303152.994329
 31
0.0
210
0.0
220
0.0
230
1.0
  0
TEXT
  8
0
  6
CONTINUOUS
 62
     7
  5
628
 10
958119.601
 20
7303062.715
 30
0.0
 40
8.0
  1
75'
 50
88.3189
  7
ROMANS
 72
     4
 11
958115.876519
 21
7303072.161329
 31
0.0
210
0.0
220
0.0
230
1.0
  0
TEXT
  8
0
  6
CONTINUOUS
 62
     7
  5
629
 10
958419.248
 20
7303077.172
 30
0.0
 40
8.0
  1
300'
 50
88.3189
  7
ROMANS
 72
     4
 11
958415.640865
 21
7303090.616607
 31
0.0
210
0.0
220
0.0
230
1.0
  0
TEXT
  8
0
  6
CONTINUOUS
 62
     7
  5
62A
 10
958429.871
 20
7303439.11
 30
0.0
 40
8.0
  1
400'
 50
88.3189
  7
ROMANS
 72
     4
 11
958426.263865
 21
7303452.554607
 31
0.0
210
0.0
220
0.0
230
1.0
  0
INSERT
  8
0
  6
CONTINUOUS
 62
     7
  5
636
  2
*D1
 10
957854.546
 20
7303008.565
 30
0.0
 70
     0
 71
     0
  0
INSERT
  8
0
  6
CONTINUOUS
 62
     7
  5
640
  2
*D2
 10
957850.244
 20
7302933.31
 30
0.0
 70
     0
 71
     0
  0
INSERT
  8
0
  6
CONTINUOUS
 62
     7
  5
64A
  2
*D3
 10
958120.296
 20
7303222.722
 30
0.0
 70
     0
 71
     0
  0
INSERT
  8
0
  6
CONTINUOUS
 62
     7
  5
654
  2
*D4
 10
958122.629
 20
7303302.223
 30
0.0
 70
     0
 71
     0
  0
INSERT
  8
0
  6
CONTINUOUS
 62
     7
  5
65E
  2
*D5
 10
958427.854
 20
7303578.039
 30
0.0
 70
     0
 71
     0
  0
INSERT
  8
0
  6
CONTINUOUS
 62
     7
  5
668
  2
*D6
 10
958418.336
 20
7303253.759
 30
0.0
 70
     0
 71
     0
  0
INSERT
  8
0
  6
CONTINUOUS
 62
     7
  5
672
  2
*D7
 10
958418.336
 20
7303253.759
 30
0.0
 70
     0
 71
     0
  0
INSERT
  8
0
  6
CONTINUOUS
 62
     7
  5
67C
  2
*D8
 10
958409.556
 20
7302954.585
 30
0.0
 70
     0
 71
     0
  0
INSERT
  8
0
  6
CONTINUOUS
 62
     7
  5
688
  2
*D9
 10
957464.169
 20
7302359.819
 30
0.0
 70
     0
 71
     0
  0
INSERT
  8
0
  6
CONTINUOUS
 62
     7
  5
692
  2
*D10
 10
957383.434
 20
7302318.216
 30
0.0
 70
     0
 71
     0
  0
INSERT
  8
0
  6
CONTINUOUS
 62
     7
  5
69C
  2
*D11
 10
957008.603
 20
7301952.687
 30
0.0
 70
     0
 71
     0
  0
INSERT
  8
0
  6
CONTINUOUS
 62
     7
  5
6A8
  2
*D12
 10
956962.365
 20
7301874.475
 30
0.0
 70
     0
 71
     0
  0
INSERT
  8
0
  6
CONTINUOUS
 62
     7
  5
6B4
  2
*D13
 10
955279.48
 20
7304252.372
 30
0.0
 70
     0
 71
     0
  0
INSERT
  8
0
  6
CONTINUOUS
 62
     7
  5
6BE
  2
*D14
 10
955277.559
 20
7304186.912
 30
0.0
 70
     0
 71
     0
  0
INSERT
  8
0
  6
CONTINUOUS
 62
     7
  5
6C8
  2
*D15
 10
955408.423
 20
7304068.984
 30
0.0
 70
     0
 71
     0
  0
INSERT
  8
0
  6
CONTINUOUS
 62
     7
  5
6D4
  2
*D16
 10
955482.859
 20
7304066.799
 30
0.0
 70
     0
 71
     0
  0
INSERT
  8
0
  6
CONTINUOUS
 62
     7
  5
6E0
  2
*D17
 10
955077.955
 20
7303580.623
 30
0.0
 70
     0
 71
     0
  0
INSERT
  8
0
  6
CONTINUOUS
 62
     7
  5
6EA
  2
*D18
 10
955430.962
 20
7303570.262
 30
0.0
 70
     0
 71
     0
  0
INSERT
  8
0
  6
CONTINUOUS
 62
     7
  5
6F6
  2
*D19
 10
956129.96
 20
7303100.575
 30
0.0
 70
     0
 71
     0
  0
INSERT
  8
0
  6
CONTINUOUS
 62
     7
  5
700
  2
*D20
 10
956093.674
 20
7303018.051
 30
0.0
 70
     0
 71
     0
  0
INSERT
  8
0
  6
CONTINUOUS
 62
     7
  5
70A
  2
*D21
 10
955027.683
 20
7303102.282
 30
0.0
 70
     0
 71
     0
  0
INSERT
  8
0
  6
CONTINUOUS
 62
     7
  5
716
  2
*D22
 10
955099.605
 20
7303100.171
 30
0.0
 70
     0
 71
     0
  0
INSERT
  8
0
  6
CONTINUOUS
 62
     7
  5
722
  2
*D23
 10
956046.504
 20
7302131.917
 30
0.0
 70
     0
 71
     0
  0
INSERT
  8
0
  6
CONTINUOUS
 62
     7
  5
72C
  2
*D24
 10
956043.863
 20
7302041.951
 30
0.0
 70
     0
 71
     0
  0
INSERT
  8
0
  6
CONTINUOUS
 62
     7
  5
736
  2
*D25
 10
955447.751
 20
7301829.334
 30
0.0
 70
     0
 71
     0
  0
INSERT
  8
0
  6
CONTINUOUS
 62
     7
  5
742
  2
*D26
 10
955727.45
 20
7301821.125
 30
0.0
 70
     0
 71
     0
  0
INSERT
  8
0
  6
CONTINUOUS
 62
     7
  5
74C
  2
*D27
 10
954855.454
 20
7300915.574
 30
0.0
 70
     0
 71
     0
  0
INSERT
  8
0
  6
CONTINUOUS
 62
     7
  5
756
  2
*D28
 10
955117.159
 20
7301180.025
 30
0.0
 70
     0
 71
     0
  0
INSERT
  8
0
  6
CONTINUOUS
 62
     7
  5
760
  2
*D29
 10
955783.798
 20
7301070.416
 30
0.0
 70
     0
 71
     0
  0
INSERT
  8
0
  6
CONTINUOUS
 62
     7
  5
76C
  2
*D30
 10
955807.772
 20
7301069.713
 30
0.0
 70
     0
 71
     0
  0
INSERT
  8
0
  6
CONTINUOUS
 62
     7
  5
778
  2
*D31
 10
955191.257
 20
7301183.853
 30
0.0
 70
     0
 71
     0
  0
INSERT
  8
0
  6
CONTINUOUS
 62
     7
  5
784
  2
*D32
 10
954805.331
 20
7300911.042
 30
0.0
 70
     0
 71
     0
  0
INSERT
  8
0
  6
CONTINUOUS
 62
     7
  5
78E
  2
*D33
 10
955924.217
 20
7299995.636
 30
0.0
 70
     0
 71
     0
  0
INSERT
  8
0
  6
CONTINUOUS
 62
     7
  5
79A
  2
*D34
 10
955919.52
 20
7299903.729
 30
0.0
 70
     0
 71
     0
  0
INSERT
  8
0
  6
CONTINUOUS
 62
     7
  5
7A6
  2
*D35
 10
955912.127
 20
7299651.825
 30
0.0
 70
     0
 71
     0
  0
INSERT
  8
0
  6
CONTINUOUS
 62
     7
  5
7B0
  2
*D36
 10
955909.545
 20
7299563.858
 30
0.0
 70
     0
 71
     0
  0
INSERT
  8
0
  6
CONTINUOUS
 62
     7
  5
7BA
  2
*D37
 10
956062.659
 20
7299943.55
 30
0.0
 70
     0
 71
     0
  0
TEXT
  8
0
  6
CONTINUOUS
 62
     7
  5
7BB
 10
956060.166
 20
7299722.288
 30
0.0
 40
8.0
  1
340'
 50
88.3189
  7
ROMANS
 72
     4
 11
956056.558865
 21
7299735.732607
 31
0.0
210
0.0
220
0.0
230
1.0
  0
INSERT
  8
0
  6
CONTINUOUS
 62
     7
  5
7C5
  2
*D38
 10
956052.684
 20
7299603.678
 30
0.0
 70
     0
 71
     0
  0
TEXT
  8
0
  6
CONTINUOUS
 62
    30
  5
7C7
 10
954557.754
 20
7303789.55
 30
0.0
 40
50.0
  1
LOCALIZER
 50
358.3189
  7
ROMANC
210
0.0
220
0.0
230
1.0
  0
TEXT
  8
0
  6
CONTINUOUS
 62
    30
  5
7C8
 10
954555.554
 20
7303714.583
 30
0.0
 40
50.0
  1
ANTENNA
 50
358.3189
  7
ROMANC
210
0.0
220
0.0
230
1.0
  0
TEXT
  8
0
  6
CONTINUOUS
 62
    30
  5
7C9
 10
957507.356
 20
7302027.426
 30
0.0
 40
50.0
  1
LUBBOCK INTERNATIONAL
 50
358.3189
  7
ROMANC
 72
     4
 11
958073.955755
 21
7302035.807542
 31
0.0
210
0.0
220
0.0
230
1.0
  0
TEXT
  8
0
  6
CONTINUOUS
 62
    30
  5
7CA
 10
957860.515
 20
7301942.029
 30
0.0
 40
50.0
  1
AIRPORT 
 50
358.3189
  7
ROMANC
 72
     4
 11
958062.723659
 21
7301961.105112
 31
0.0
210
0.0
220
0.0
230
1.0
  0
TEXT
  8
0
  6
CONTINUOUS
 62
    30
  5
7CB
 10
957719.004
 20
7301871.15
 30
0.0
 40
50.0
  1
MAIN TERMINAL
 50
358.3189
  7
ROMANC
 72
     4
 11
958069.568778
 21
7301885.871986
 31
0.0
210
0.0
220
0.0
230
1.0
  0
TEXT
  8
0
  6
CONTINUOUS
 62
    30
  5
7CC
 10
956624.169
 20
7302980.683
 30
0.0
 40
48.0
  1
TAXIWAY  J
 50
358.3189
  7
MONOTXT
 72
     4
 11
956847.573183
 21
7302998.136611
 31
0.0
210
0.0
220
0.0
230
1.0
  0
TEXT
  8
0
  6
CONTINUOUS
 62
    30
  5
7CD
 10
954839.414
 20
7300681.053
 30
0.0
 40
48.0
  1
TAXIWAY L
 50
272.355294
  7
MONOTXT
 72
     1
 11
954847.583734
 21
7300482.424943
 31
0.0
210
0.0
220
0.0
230
1.0
  0
TEXT
  8
0
  6
CONTINUOUS
 62
    30
  5
7CE
 10
955152.249
 20
7300945.822
 30
0.0
 40
48.0
  1
TAXIWAY D
 50
272.387172
  7
MONOTXT
 72
     1
 11
955160.62371
 21
7300744.932487
 31
0.0
210
0.0
220
0.0
230
1.0
  0
TEXT
  8
0
  6
CONTINUOUS
 62
    30
  5
7CF
 10
954020.988
 20
7303635.823
 30
0.0
 40
80.0
  1
CLEAR
 50
88.3189
  7
MONOTXT
 72
     4
 11
953986.317708
 21
7303818.006519
 31
0.0
210
0.0
220
0.0
230
1.0
  0
TEXT
  8
0
  6
CONTINUOUS
 62
    30
  5
7D0
 10
954126.885
 20
7303664.855
 30
0.0
 40
80.0
  1
ZONE
 50
88.3189
  7
MONOTXT
 72
     4
 11
954091.263442
 21
7303814.626475
 31
0.0
210
0.0
220
0.0
230
1.0
  0
TEXT
  8
0
  6
CONTINUOUS
 62
    30
  5
7D1
 10
956491.214
 20
7301807.682
 30
0.0
 40
64.0
  1
BRL
 50
88.3189
  7
MONOTXT
210
0.0
220
0.0
230
1.0
  0
TEXT
  8
0
  6
CONTINUOUS
 62
    30
  5
7D2
 10
955017.044
 20
7301722.886
 30
0.0
 40
64.0
  1
BRL
 50
88.3189
  7
MONOTXT
210
0.0
220
0.0
230
1.0
  0
TEXT
  8
19
  6
CONTINUOUS
 62
     1
  5
7D4
 10
953460.655
 20
7300055.339
 30
0.0
 40
24.0
  1
INTERSTATE  27
 50
88.3189
  7
ROMANC
210
0.0
220
0.0
230
1.0
  0
TEXT
  8
19
  6
CONTINUOUS
 62
     1
  5
7D5
 10
953573.513
 20
7303859.642
 30
0.0
 40
24.0
  1
INTERSTATE  27
 50
88.3189
  7
ROMANC
210
0.0
220
0.0
230
1.0
  0
TEXT
  8
0
  6
CONTINUOUS
 62
    30
  5
7D6
 10
956309.928
 20
7300402.815
 30
0.0
 40
48.0
  1
TAXIWAY  M
 50
88.3189
  7
MONOTXT
 72
     4
 11
956292.673966
 21
7300633.019255
 31
0.0
210
0.0
220
0.0
230
1.0
  0
TEXT
  8
0
  6
CONTINUOUS
 62
    30
  5
7D7
 10
956390.433
 20
7303145.831
 30
0.0
 40
48.0
  1
TAXIWAY  M
 50
88.3189
  7
MONOTXT
 72
     4
 11
956373.178966
 21
7303376.035255
 31
0.0
210
0.0
220
0.0
230
1.0
  0
TEXT
  8
0
  6
CONTINUOUS
 62
    30
  5
7D8
 10
955092.191
 20
7303234.358
 30
0.0
 40
48.0
  1
TAXIWAY  L
 50
88.3189
  7
MONOTXT
 72
     4
 11
955074.803924
 21
7303460.029207
 31
0.0
210
0.0
220
0.0
230
1.0
  0
TEXT
  8
0
  6
CONTINUOUS
 62
    30
  5
7D9
 10
955295.818
 20
7302784.733
 30
0.0
 40
48.0
  1
TAXIWAY  O
 50
73.042867
  7
MONOTXT
 72
     1
 11
955362.78196
 21
7303004.349777
 31
0.0
210
0.0
220
0.0
230
1.0
  0
TEXT
  8
0
  6
CONTINUOUS
 62
    30
  5
7DA
 10
957278.751
 20
7302563.451
 30
0.0
 40
48.0
  1
TAXIWAY
 50
299.013794
  7
MONOTXT
 72
     4
 11
957372.878174
 21
7302443.219936
 31
0.0
210
0.0
220
0.0
230
1.0
  0
TEXT
  8
0
  6
CONTINUOUS
 62
    30
  5
7DB
 10
956675.439
 20
7302042.26
 30
0.0
 40
48.0
  1
TAXIWAY
 50
335.684069
  7
MONOTXT
 72
     4
 11
956822.740135
 21
7302002.038002
 31
0.0
210
0.0
220
0.0
230
1.0
  0
TEXT
  8
0
  6
CONTINUOUS
 62
    30
  5
7DC
 10
957470.38
 20
7302210.716
 30
0.0
 40
48.0
  1
J
 50
298.294108
  7
MONOTXT
 72
     1
 11
957475.844245
 21
7302200.565295
 31
0.0
210
0.0
220
0.0
230
1.0
  0
TEXT
  8
0
  6
CONTINUOUS
 62
    30
  5
7DD
 10
957037.598
 20
7301856.847
 30
0.0
 40
48.0
  1
F
 50
328.340364
  7
MONOTXT
 72
     1
 11
957050.306134
 21
7301849.010659
 31
0.0
210
0.0
220
0.0
230
1.0
  0
TEXT
  8
0
  6
CONTINUOUS
 62
     7
  5
7DE
 10
953632.581
 20
7304022.075
 30
0.0
 40
8.0
  1
R=3669.83     CH=486.94'
 50
88.3189
  7
ROMANS
210
0.0
220
0.0
230
1.0
  0
TEXT
  8
0
  6
CONTINUOUS
 62
     7
  5
7DF
 10
953622.765
 20
7303687.602
 30
0.0
 40
8.0
  1
951.65'
 50
88.3189
  7
ROMANS
210
0.0
220
0.0
230
1.0
  0
TEXT
  8
0
  6
CONTINUOUS
 62
     7
  5
7E0
 10
953608.98
 20
7303217.917
 30
0.0
 40
8.0
  1
627.05'     N6%%d32'55"W
 50
88.3189
  7
ROMANS
210
0.0
220
0.0
230
1.0
  0
TEXT
  8
0
  6
CONTINUOUS
 62
     7
  5
7E1
 10
953647.714
 20
7302266.352
 30
0.0
 40
8.0
  1
300.37'  N2%%d53'45"W
 50
88.3189
  7
ROMANS
210
0.0
220
0.0
230
1.0
  0
TEXT
  8
0
  6
CONTINUOUS
 62
     7
  5
7E2
 10
953641.41
 20
7301885.913
 30
0.0
 40
8.0
  1
278.23'     N5%%d21'35"E
 50
88.3189
  7
ROMANS
210
0.0
220
0.0
230
1.0
  0
TEXT
  8
0
  6
CONTINUOUS
 62
     7
  5
7E3
 10
953582.513
 20
7299491.695
 30
0.0
 40
8.0
  1
50'
 50
88.3189
  7
ROMANS
210
0.0
220
0.0
230
1.0
  0
TEXT
  8
0
  6
CONTINUOUS
 62
     7
  5
7E4
 10
953588.774
 20
7301358.473
 30
0.0
 40
8.0
  1
N2%%d49'45"E     1201.5'
 50
88.3189
  7
ROMANS
210
0.0
220
0.0
230
1.0
  0
TEXT
  8
0
  6
CONTINUOUS
 62
     7
  5
7E5
 10
953517.426
 20
7300466.412
 30
0.0
 40
8.0
  1
735.58'
 50
88.3189
  7
ROMANS
210
0.0
220
0.0
230
1.0
  0
TEXT
  8
0
  6
CONTINUOUS
 62
     7
  5
7E6
 10
953533.374
 20
7300104.777
 30
0.0
 40
8.0
  1
191.89'     N7%%d57'2"W
 50
88.3189
  7
ROMANS
210
0.0
220
0.0
230
1.0
  0
TEXT
  8
0
  6
CONTINUOUS
 62
     7
  5
7E7
 10
953575.583
 20
7299519.538
 30
0.0
 40
8.0
  1
N11%%d52'W   54.2'
 50
88.3189
  7
ROMANS
210
0.0
220
0.0
230
1.0
  0
TEXT
  8
0
  6
CONTINUOUS
 62
     7
  5
7E8
 10
953559.097
 20
7299596.633
 30
0.0
 40
8.0
  1
N1%%d30'57"W   122.36'
 50
88.3189
  7
ROMANS
210
0.0
220
0.0
230
1.0
  0
TEXT
  8
0
  6
CONTINUOUS
 62
     7
  5
7E9
 10
953542.283
 20
7299822.269
 30
0.0
 40
8.0
  1
R=3649.72'   CH=286.65'
 50
88.3189
  7
ROMANS
210
0.0
220
0.0
230
1.0
  0
TEXT
  8
19
  6
CONTINUOUS
 62
     1
  5
7EA
 10
953475.555
 20
7301623.093
 30
0.0
 40
24.0
  1
INTERSTATE 27
 50
88.3189
  7
ROMANC
 72
     4
 11
953468.222325
 21
7301782.296638
 31
0.0
210
0.0
220
0.0
230
1.0
  0
POLYLINE
  8
1
  6
HIDDEN
 62
   253
  5
7EC
 66
     1
 10
0.0
 20
0.0
 30
0.0
 70
     1
  0
VERTEX
  8
1
  6
HIDDEN
 62
   253
  5
7ED
 10
953708.493
 20
7304805.145
 30
0.0
  0
VERTEX
  8
1
  6
HIDDEN
 62
   253
  5
7EE
 10
958790.272
 20
7304667.735
 30
0.0
  0
VERTEX
  8
1
  6
HIDDEN
 62
   253
  5
7EF
 10
958646.192
 20
7299438.056
 30
0.0
  0
VERTEX
  8
1
  6
HIDDEN
 62
   253
  5
7F0
 10
953545.168
 20
7299575.956
 30
0.0
  0
SEQEND
  8
1
  6
HIDDEN
 62
   253
  5
7F1
  0
TEXT
  8
19
  6
CONTINUOUS
 62
     1
  5
7F2
 10
958615.459
 20
7299456.025
 30
0.0
 40
24.0
  1
N MARTIN LUTHER KING, JR BLVD
 50
88.3189
  7
ROMANC
 72
     4
 11
958614.318501
 21
7299826.21179
 31
0.0
210
0.0
220
0.0
230
1.0
  0
TEXT
  8
19
  6
CONTINUOUS
 62
     1
  5
7F3
 10
955784.687
 20
7299444.262
 30
0.0
 40
24.0
  1
E BLUEFIELD ST
 50
358.3189
  7
ROMANC
 72
     4
 11
955959.567887
 21
7299451.134561
 31
0.0
210
0.0
220
0.0
230
1.0
  0
TEXT
  8
19
  6
CONTINUOUS
 62
     1
  5
7F4
 10
953718.195
 20
7304735.814
 30
0.0
 40
24.0
  1
E STONEHILL ST
 50
358.3189
  7
ROMANC
 72
     4
 11
953890.808863
 21
7304742.753097
 31
0.0
210
0.0
220
0.0
230
1.0
  0
TEXT
  8
19
  6
CONTINUOUS
 62
     1
  5
7F5
 10
955987.246
 20
7304669.975
 30
0.0
 40
24.0
  1
E STONEHILL ST
 50
358.3189
  7
ROMANC
 72
     4
 11
956159.859863
 21
7304676.914097
 31
0.0
210
0.0
220
0.0
230
1.0
  0
LINE
  8
58
  6
DIVIDE
 62
   216
  5
7F7
 10
955814.459
 20
7304705.207
 30
0.0
 11
955659.562
 21
7299427.48
 31
0.0
  0
LINE
  8
58
  6
DIVIDE
 62
   216
  5
7F8
 10
955659.562
 20
7299427.48
 30
0.0
 11
953373.736
 21
7299494.567
 31
0.0
  0
ENDSEC
  0
EOF
