  0
SECTION
  2
HEADER
  9
$ACADVER
  1
AC1009
  9
$INSBASE
 10
0.0
 20
0.0
 30
0.0
  9
$EXTMIN
 10
948231.061
 20
7299539.545
 30
0.0
  9
$EXTMAX
 10
953708.493
 20
7305002.834
 30
0.0
  9
$LIMMIN
 10
0.0
 20
0.0
  9
$LIMMAX
 10
12.0
 20
9.0
  9
$ORTHOMODE
 70
     0
  9
$REGENMODE
 70
     1
  9
$FILLMODE
 70
     1
  9
$QTEXTMODE
 70
     0
  9
$MIRRTEXT
 70
     1
  9
$DRAGMODE
 70
     2
  9
$LTSCALE
 40
1.0
  9
$OSMODE
 70
     0
  9
$ATTMODE
 70
     1
  9
$TEXTSIZE
 40
0.2
  9
$TRACEWID
 40
0.05
  9
$TEXTSTYLE
  7
STANDARD
  9
$CLAYER
  8
0
  9
$CELTYPE
  6
CONTINUOUS
  9
$CECOLOR
 62
   256
  9
$DIMSCALE
 40
1.0
  9
$DIMASZ
 40
0.18
  9
$DIMEXO
 40
0.0625
  9
$DIMDLI
 40
0.38
  9
$DIMRND
 40
0.0
  9
$DIMDLE
 40
0.0
  9
$DIMEXE
 40
0.18
  9
$DIMTP
 40
0.0
  9
$DIMTM
 40
0.0
  9
$DIMTXT
 40
0.18
  9
$DIMCEN
 40
0.09
  9
$DIMTSZ
 40
0.0
  9
$DIMTOL
 70
     0
  9
$DIMLIM
 70
     0
  9
$DIMTIH
 70
     1
  9
$DIMTOH
 70
     1
  9
$DIMSE1
 70
     0
  9
$DIMSE2
 70
     0
  9
$DIMTAD
 70
     0
  9
$DIMZIN
 70
     0
  9
$DIMBLK
  1

  9
$DIMASO
 70
     1
  9
$DIMSHO
 70
     1
  9
$DIMPOST
  1

  9
$DIMAPOST
  1

  9
$DIMALT
 70
     0
  9
$DIMALTD
 70
     2
  9
$DIMALTF
 40
25.4
  9
$DIMLFAC
 40
1.0
  9
$DIMTOFL
 70
     0
  9
$DIMTVP
 40
0.0
  9
$DIMTIX
 70
     0
  9
$DIMSOXD
 70
     0
  9
$DIMSAH
 70
     0
  9
$DIMBLK1
  1

  9
$DIMBLK2
  1

  9
$DIMSTYLE
  2
STANDARD
  9
$DIMCLRD
 70
     0
  9
$DIMCLRE
 70
     0
  9
$DIMCLRT
 70
     0
  9
$DIMTFAC
 40
1.0
  9
$DIMGAP
 40
0.09
  9
$LUNITS
 70
     2
  9
$LUPREC
 70
     4
  9
$AXISMODE
 70
     0
  9
$AXISUNIT
 10
0.0
 20
0.0
  9
$SKETCHINC
 40
0.1
  9
$FILLETRAD
 40
0.0
  9
$AUNITS
 70
     0
  9
$AUPREC
 70
     0
  9
$MENU
  1
acad
  9
$ELEVATION
 40
0.0
  9
$PELEVATION
 40
0.0
  9
$THICKNESS
 40
0.0
  9
$LIMCHECK
 70
     0
  9
$BLIPMODE
 70
     1
  9
$CHAMFERA
 40
0.0
  9
$CHAMFERB
 40
0.0
  9
$SKPOLY
 70
     0
  9
$TDCREATE
 40
2453013.903159722
  9
$TDUPDATE
 40
2453013.903159722
  9
$TDINDWG
 40
0.0000000000
  9
$TDUSRTIMER
 40
0.0000000000
  9
$USRTIMER
 70
     1
  9
$ANGBASE
 50
0.0
  9
$ANGDIR
 70
     0
  9
$PDMODE
 70
     0
  9
$PDSIZE
 40
0.0
  9
$PLINEWID
 40
0.0
  9
$COORDS
 70
     0
  9
$SPLFRAME
 70
     0
  9
$SPLINETYPE
 70
     6
  9
$SPLINESEGS
 70
    10
  9
$ATTDIA
 70
     0
  9
$ATTREQ
 70
     1
  9
$HANDLING
 70
     1
  9
$HANDSEED
  5
71
  9
$SURFTAB1
 70
     6
  9
$SURFTAB2
 70
     6
  9
$SURFTYPE
 70
     6
  9
$SURFU
 70
     6
  9
$SURFV
 70
     6
  9
$UCSNAME
  2

  9
$UCSORG
 10
0.0
 20
0.0
 30
0.0
  9
$UCSXDIR
 10
1.0
 20
0.0
 30
0.0
  9
$UCSYDIR
 10
0.0
 20
1.0
 30
0.0
  9
$PUCSNAME
  2

  9
$PUCSORG
 10
0.0
 20
0.0
 30
0.0
  9
$PUCSXDIR
 10
1.0
 20
0.0
 30
0.0
  9
$PUCSYDIR
 10
0.0
 20
1.0
 30
0.0
  9
$USERI1
 70
     0
  9
$USERI2
 70
     0
  9
$USERI3
 70
     0
  9
$USERI4
 70
     0
  9
$USERI5
 70
     0
  9
$USERR1
 40
0.0
  9
$USERR2
 40
0.0
  9
$USERR3
 40
0.0
  9
$USERR4
 40
0.0
  9
$USERR5
 40
0.0
  9
$WORLDVIEW
 70
     1
  9
$SHADEDGE
 70
     3
  9
$SHADEDIF
 70
    70
  9
$TILEMODE
 70
     1
  9
$MAXACTVP
 70
    16
  9
$PINSBASE
 10
0.0
 20
0.0
 30
0.0
  9
$PLIMCHECK
 70
     0
  9
$PEXTMIN
 10
-1.000000E+20
 20
-1.000000E+20
 30
-1.000000E+20
  9
$PEXTMAX
 10
-1.000000E+20
 20
-1.000000E+20
 30
-1.000000E+20
  9
$PLIMMIN
 10
0.0
 20
0.0
  9
$PLIMMAX
 10
12.0
 20
9.0
  9
$UNITMODE
 70
     0
  9
$VISRETAIN
 70
     0
  9
$PLINEGEN
 70
     1
  9
$PSLTSCALE
 70
     0
  9
$TREEDEPTH
 70
  3020
  9
$DWGCODEPAGE
  3
ansi_1252
  0
ENDSEC
  0
SECTION
  2
TABLES
  0
TABLE
  2
VPORT
 70
     1
  0
VPORT
  2
*ACTIVE
 70
     0
 10
0.0
 20
0.0
 11
1.0
 21
1.0
 12
0.0
 22
0.0
 13
0.0
 23
0.0
 14
0.0
 24
0.0
 15
0.0
 25
0.0
 16
0.0
 26
0.0
 36
1.0
 17
953792.822346
 27
7303885.3735
 37
0.0
 40
431.899
 41
1.130215
 42
50.0
 43
0.004
 44
0.0
 50
0.0
 51
0.0
 71
     0
 72
   100
 73
     1
 74
     0
 75
     0
 76
     0
 77
     0
 78
     0
  0
ENDTAB
  0
TABLE
  2
LTYPE
 70
     7
  0
LTYPE
  2
CONTINUOUS
 70
     0
  3
Solid line
 72
    65
 73
     0
 40
0.0
  0
LTYPE
  2
DOT
 70
    64
  3
. . . . . . . . . . . . . . . . . . . . . . . . . . . . . . . . .
 72
    65
 73
     2
 40
0.25
 49
0.0
 49
-0.25
  0
LTYPE
  2
HIDDEN
 70
    64
  3
__ __ __ __ __ __ __ __ __ __ __ __ __ __ __ __ __ __ __ __ __ 
 72
    65
 73
     2
 40
0.375
 49
0.25
 49
-0.125
  0
LTYPE
  2
DASHED
 70
    64
  3
__ __ __ __ __ __ __ __ __ __ __ __ __ __ __ __ __ __ __ __ __
 72
    65
 73
     2
 40
0.75
 49
0.5
 49
-0.25
  0
LTYPE
  2
DASHDOT
 70
    64
  3
__ . __ . __ . __ . __ . __ . __ . __ . __ . __ . __ . __ . _
 72
    65
 73
     4
 40
1.0
 49
0.5
 49
-0.25
 49
0.0
 49
-0.25
  0
LTYPE
  2
DIVIDE
 70
    64
  3
____ . . ____ . . ____ . . ____ . . ____ . . ____ . . ____ . .
 72
    65
 73
     6
 40
1.25
 49
0.5
 49
-0.25
 49
0.0
 49
-0.25
 49
0.0
 49
-0.25
  0
LTYPE
  2
CENTER
 70
    64
  3
____ _ ____ _ ____ _ ____ _ ____ _ ____ _ ____ _ ____ _ ____ _
 72
    65
 73
     4
 40
2.0
 49
1.25
 49
-0.25
 49
0.25
 49
-0.25
  0
ENDTAB
  0
TABLE
  2
LAYER
 70
    12
  0
LAYER
  2
0
 70
     0
 62
     7
  6
CONTINUOUS
  0
LAYER
  2
CONSTRUCTION_CLASS
 70
     1
 62
     7
  6
CONTINUOUS
  0
LAYER
  2
PATTERN_CLASS
 70
     0
 62
     7
  6
CONTINUOUS
  0
LAYER
  2
6
 70
    64
 62
     7
  6
CONTINUOUS
  0
LAYER
  2
27
 70
    64
 62
     7
  6
CONTINUOUS
  0
LAYER
  2
19
 70
    64
 62
     7
  6
CONTINUOUS
  0
LAYER
  2
11
 70
    64
 62
     7
  6
CONTINUOUS
  0
LAYER
  2
DEFPOINTS
 70
    64
 62
     7
  6
CONTINUOUS
  0
LAYER
  2
58
 70
    64
 62
     7
  6
CONTINUOUS
  0
LAYER
  2
1
 70
    64
 62
     7
  6
CONTINUOUS
  0
LAYER
  2
10
 70
    64
 62
     7
  6
CONTINUOUS
  0
LAYER
  2
28
 70
    64
 62
     7
  6
CONTINUOUS
  0
ENDTAB
  0
TABLE
  2
STYLE
 70
     4
  0
STYLE
  2
STANDARD
 70
     0
 40
0.0
 41
1.0
 50
0.0
 71
     0
 42
0.0
  3
txt
  4

  0
STYLE
  2
ROMANC
 70
     0
 40
0.2
 41
1.0
 50
0.0
 71
     0
 42
0.2
  3
ROMANC
  4

  0
STYLE
  2
ROMANS
 70
     0
 40
0.2
 41
1.0
 50
0.0
 71
     0
 42
0.2
  3
ROMANS
  4

  0
STYLE
  2
txt
 70
     0
 40
0.2
 41
1.0
 50
0.0
 71
     0
 42
0.2
  3
TXT
  4

  0
ENDTAB
  0
TABLE
  2
VIEW
 70
     0
  0
ENDTAB
  0
TABLE
  2
UCS
 70
     0
  0
ENDTAB
  0
TABLE
  2
APPID
 70
     1
  0
APPID
  2
ACAD
 70
     0
  0
ENDTAB
  0
TABLE
  2
DIMSTYLE
 70
     2
  0
DIMSTYLE
  2
STANDARD
 70
     0
  3

  4

  5

  6

  7

 40
1.0
 41
0.18
 42
0.0625
 43
0.38
 44
0.18
 45
0.0
 46
0.0
 47
0.0
 48
0.0
140
0.18
141
0.09
142
0.0
143
25.4
144
1.0
145
0.0
146
1.0
147
0.09
 71
     0
 72
     0
 73
     1
 74
     1
 75
     0
 76
     0
 77
     0
 78
     0
170
     0
171
     2
172
     0
173
     0
174
     0
175
     0
176
     0
177
     0
178
     0
  0
DIMSTYLE
  2
MSADIM
 70
     0
  3

  4

  5

  6

  7

 40
1.0
 41
8.0
 42
4.0
 43
0.0
 44
4.0
 45
0.0
 46
0.0
 47
0.0
 48
0.0
140
8.0
141
4.0
142
0.0
143
25.4
144
1.0
145
4.0
146
1.0
147
4.0
 71
     0
 72
     0
 73
     1
 74
     1
 75
     1
 76
     1
 77
     0
 78
     2
170
     0
171
     2
172
     0
173
     0
174
     0
175
     0
176
     0
177
     0
178
     0
  0
ENDTAB
  0
ENDSEC
  0
SECTION
  2
BLOCKS
  0
BLOCK
  8
11
  6
CONTINUOUS
 62
     7
  5
3E
  2
*D0
 70
     1
 10
0.0
 20
0.0
 30
0.0
  3
*N0
  0
TEXT
  8
11
  6
CONTINUOUS
 62
     7
  5
3F
 10
950171.604
 20
7304589.022
 30
0.0
 40
8.0
  1
S19%%d36'20"W
 50
70.394364
  7
ROMANS
 72
     1
 11
950178.450573
 21
7304632.08529
 31
0.0
210
0.0
220
0.0
230
1.0
 73
     3
  0
TEXT
  8
11
  6
CONTINUOUS
 62
     7
  5
40
 10
950162.414
 20
7304610.906
 30
0.0
 40
8.0
  1
686.79'
 50
70.394364
  7
ROMANS
 72
     1
 11
950170.914342
 21
7304634.770305
 31
0.0
210
0.0
220
0.0
230
1.0
  0
ENDBLK
  8
11
  6
CONTINUOUS
 62
     7
  5
41
  0
BLOCK
  8
11
  6
CONTINUOUS
 62
     7
  5
44
  2
*D1
 70
     1
 10
0.0
 20
0.0
 30
0.0
  3
*N1
  0
TEXT
  8
11
  6
CONTINUOUS
 62
     7
  5
45
 10
949214.597
 20
7302429.166
 30
0.0
 40
8.0
  1
S24%%d38'11"W
 50
65.363564
  7
ROMANS
 72
     1
 11
949225.193471
 21
7302471.463013
 31
0.0
210
0.0
220
0.0
230
1.0
 73
     3
  0
TEXT
  8
11
  6
CONTINUOUS
 62
     7
  5
46
 10
949205.694
 20
7302448.135
 30
0.0
 40
8.0
  1
4348.83'
 50
65.363564
  7
ROMANS
 72
     1
 11
949217.921723
 21
7302474.797852
 31
0.0
210
0.0
220
0.0
230
1.0
  0
ENDBLK
  8
11
  6
CONTINUOUS
 62
     7
  5
47
  0
ENDSEC
  0
SECTION
  2
ENTITIES
  0
LINE
  8
6
  6
CONTINUOUS
 62
     7
  5
29
 10
953156.206
 20
7302291.929
 30
0.0
 11
953270.588
 21
7303733.827
 31
0.0
  0
LINE
  8
6
  6
CONTINUOUS
 62
     7
  5
2A
 10
953156.206
 20
7302291.929
 30
0.0
 11
953148.176
 21
7302018.102
 31
0.0
  0
ARC
  8
6
  6
CONTINUOUS
 62
     7
  5
2B
 10
953259.644879
 20
7302020.021787
 30
0.0
 40
67.436145
 50
88.3203
 51
134.548483
210
0.0
220
0.0
230
1.0
  0
LINE
  8
6
  6
CONTINUOUS
 62
     7
  5
2C
 10
948300.106
 20
7300039.412
 30
0.0
 11
950206.354
 21
7304190.471
 31
0.0
  0
LINE
  8
6
  6
CONTINUOUS
 62
     7
  5
2D
 10
950115.527
 20
7304232.308
 30
0.0
 11
948296.609
 21
7300282.124
 31
0.0
  0
LINE
  8
27
  6
CONTINUOUS
 62
    32
  5
2F
 10
948286.838
 20
7300130.374
 30
0.0
 11
950160.915
 21
7304211.334
 31
0.0
  0
TEXT
  8
19
  6
CONTINUOUS
 62
     1
  5
32
 10
953277.649
 20
7299914.375
 30
0.0
 40
24.0
  1
INTERSTATE  27
 50
88.3203
  7
ROMANC
 72
     4
 11
953270.694635
 21
7300086.611856
 31
0.0
210
0.0
220
0.0
230
1.0
  0
TEXT
  8
19
  6
CONTINUOUS
 62
     1
  5
33
 10
953259.157
 20
7300887.75
 30
0.0
 40
24.0
  1
INTERSTATE  27
 50
88.3203
  7
ROMANC
 72
     4
 11
953252.202635
 21
7301059.986856
 31
0.0
210
0.0
220
0.0
230
1.0
  0
TEXT
  8
19
  6
CONTINUOUS
 62
     1
  5
34
 10
953307.889
 20
7302549.552
 30
0.0
 40
24.0
  1
INTERSTATE  27
 50
88.3203
  7
ROMANC
 72
     4
 11
953300.934635
 21
7302721.788856
 31
0.0
210
0.0
220
0.0
230
1.0
  0
TEXT
  8
19
  6
CONTINUOUS
 62
     1
  5
35
 10
953372.073
 20
7303936.309
 30
0.0
 40
24.0
  1
INTERSTATE  27
 50
88.3203
  7
ROMANC
 72
     4
 11
953365.118635
 21
7304108.545856
 31
0.0
210
0.0
220
0.0
230
1.0
  0
TEXT
  8
11
  6
CONTINUOUS
 62
     7
  5
38
 10
948238.256
 20
7299779.11
 30
0.0
 40
8.0
  1
60'
 50
358.3203
  7
ROMANS
210
0.0
220
0.0
230
1.0
  0
TEXT
  8
11
  6
CONTINUOUS
 62
     7
  5
39
 10
948389.231
 20
7304928.886
 30
0.0
 40
8.0
  1
60'
 50
358.3203
  7
ROMANS
210
0.0
220
0.0
230
1.0
  0
TEXT
  8
11
  6
CONTINUOUS
 62
     7
  5
3A
 10
949497.127
 20
7304917.154
 30
0.0
 40
8.0
  1
1847.59'
 50
358.3203
  7
ROMANS
 72
     4
 11
949526.564644
 21
7304920.29247
 31
0.0
210
0.0
220
0.0
230
1.0
  0
INSERT
  8
11
  6
CONTINUOUS
 62
     7
  5
42
  2
*D0
 10
950274.356
 20
7304913.256
 30
0.0
 70
     0
 71
     0
  0
INSERT
  8
11
  6
CONTINUOUS
 62
     7
  5
48
  2
*D1
 10
950043.909
 20
7304266.287
 30
0.0
 70
     0
 71
     0
  0
TEXT
  8
11
  6
CONTINUOUS
 62
     7
  5
49
 10
950270.701
 20
7304856.973
 30
0.0
 40
8.0
  1
50'
 50
338.3203
  7
ROMANS
 72
     4
 11
950280.851487
 21
7304857.24228
 31
0.0
210
0.0
220
0.0
230
1.0
  0
TEXT
  8
11
  6
CONTINUOUS
 62
     7
  5
4A
 10
950323.035
 20
7304840.643
 30
0.0
 40
8.0
  1
50'
 50
338.3203
  7
ROMANS
 72
     4
 11
950333.185487
 21
7304840.91228
 31
0.0
210
0.0
220
0.0
230
1.0
  0
TEXT
  8
11
  6
CONTINUOUS
 62
     7
  5
4B
 10
950098.86
 20
7304160.164
 30
0.0
 40
8.0
  1
50'
 50
338.3203
  7
ROMANS
 72
     4
 11
950109.010487
 21
7304160.43328
 31
0.0
210
0.0
220
0.0
230
1.0
  0
TEXT
  8
11
  6
CONTINUOUS
 62
     7
  5
4C
 10
950151.487
 20
7304146.222
 30
0.0
 40
8.0
  1
50'
 50
338.3203
  7
ROMANS
 72
     4
 11
950161.637487
 21
7304146.49128
 31
0.0
210
0.0
220
0.0
230
1.0
  0
TEXT
  8
11
  6
CONTINUOUS
 62
     7
  5
4D
 10
948313.796
 20
7300449.551
 30
0.0
 40
8.0
  1
50'
 50
338.3203
  7
ROMANS
 72
     4
 11
948323.946487
 21
7300449.82028
 31
0.0
210
0.0
220
0.0
230
1.0
  0
TEXT
  8
11
  6
CONTINUOUS
 62
     7
  5
4E
 10
948411.099
 20
7300349.96
 30
0.0
 40
8.0
  1
50'
 50
338.3203
  7
ROMANS
 72
     4
 11
948421.249487
 21
7300350.22928
 31
0.0
210
0.0
220
0.0
230
1.0
  0
TEXT
  8
19
  6
CONTINUOUS
 62
     1
  5
4F
 10
948387.737
 20
7304562.946
 30
0.0
 40
24.0
  1
N AVE Q
 50
88.3203
  7
ROMANC
 72
     4
 11
948378.467302
 21
7304656.227797
 31
0.0
210
0.0
220
0.0
230
1.0
  0
TEXT
  8
19
  6
CONTINUOUS
 62
     1
  5
50
 10
948328.916
 20
7302395.639
 30
0.0
 40
24.0
  1
N AVE Q
 50
88.3203
  7
ROMANC
 72
     4
 11
948319.646302
 21
7302488.920797
 31
0.0
210
0.0
220
0.0
230
1.0
  0
TEXT
  8
19
  6
CONTINUOUS
 62
     1
  5
51
 10
948277.087
 20
7300605.564
 30
0.0
 40
24.0
  1
N AVE Q
 50
88.3203
  7
ROMANC
 72
     4
 11
948267.817302
 21
7300698.845797
 31
0.0
210
0.0
220
0.0
230
1.0
  0
LINE
  8
58
  6
DIVIDE
 62
   216
  5
53
 10
948281.949
 20
7299718.24
 30
0.0
 11
948447.39
 21
7304947.403
 31
0.0
  0
ARC
  8
6
  6
CONTINUOUS
 62
     7
  5
54
 10
946202.897856
 20
7304035.539179
 30
0.0
 40
2258.82245
 50
356.171272
 51
18.953022
210
0.0
220
0.0
230
1.0
  0
POLYLINE
  8
1
  6
HIDDEN
 62
   253
  5
56
 66
     1
 10
0.0
 20
0.0
 30
0.0
 70
     1
  0
VERTEX
  8
1
  6
HIDDEN
 62
   253
  5
57
 10
948447.39
 20
7304947.403
 30
0.0
  0
VERTEX
  8
1
  6
HIDDEN
 62
   253
  5
58
 10
953708.493
 20
7304805.145
 30
0.0
  0
VERTEX
  8
1
  6
HIDDEN
 62
   253
  5
59
 10
953545.168
 20
7299575.956
 30
0.0
  0
VERTEX
  8
1
  6
HIDDEN
 62
   253
  5
5A
 10
948281.949
 20
7299718.24
 30
0.0
  0
SEQEND
  8
1
  6
HIDDEN
 62
   253
  5
5B
  0
LINE
  8
6
  6
CONTINUOUS
 62
     7
  5
5C
 10
948325.61
 20
7300345.105
 30
0.0
 11
948456.679
 21
7303884.708
 31
0.0
  0
ARC
  8
6
  6
CONTINUOUS
 62
     7
  5
5D
 10
948328.186257
 20
7305058.257389
 30
0.0
 40
1968.953865
 50
335.197833
 51
358.386964
210
0.0
220
0.0
230
1.0
  0
ARC
  8
6
  6
CONTINUOUS
 62
     7
  5
5E
 10
948328.186096
 20
7305058.25803
 30
0.0
 40
2068.953865
 50
335.197833
 51
358.386964
210
0.0
220
0.0
230
1.0
  0
ARC
  8
27
  6
CONTINUOUS
 62
    32
  5
5F
 10
948328.186177
 20
7305058.257709
 30
0.0
 40
2018.953865
 50
335.197833
 51
358.386964
210
0.0
220
0.0
230
1.0
  0
ARC
  8
6
  6
CONTINUOUS
 62
     7
  5
60
 10
956975.043081
 20
7304064.41805
 30
0.0
 40
3696.259594
 50
168.441444
 51
180.077917
210
0.0
220
0.0
230
1.0
  0
LINE
  8
6
  6
CONTINUOUS
 62
     7
  5
61
 10
953270.588
 20
7303733.827
 30
0.0
 11
953278.787
 21
7304059.391
 31
0.0
  0
LINE
  8
6
  6
CONTINUOUS
 62
     7
  5
62
 10
953148.176
 20
7302018.102
 30
0.0
 11
953193.253
 21
7300722.065
 31
0.0
  0
LINE
  8
6
  6
CONTINUOUS
 62
     7
  5
63
 10
953193.253
 20
7300722.065
 30
0.0
 11
953185.973
 21
7300374.302
 31
0.0
  0
ARC
  8
6
  6
CONTINUOUS
 62
     7
  5
64
 10
956524.098029
 20
7300256.783759
 30
0.0
 40
3340.192992
 50
177.983742
 51
192.399683
210
0.0
220
0.0
230
1.0
  0
LINE
  8
58
  6
DIVIDE
 62
   216
  5
65
 10
948281.949
 20
7299718.24
 30
0.0
 11
953544.792
 21
7299563.909
 31
0.0
  0
TEXT
  8
10
  6
CONTINUOUS
 62
   134
  5
67
 10
948970.801
 20
7303728.71
 30
0.0
 40
13.999
  1
UNSUBDIVIDED
 50
358.3203
  7
ROMANS
 11
948971.21134
 21
7303742.702985
 31
0.0
210
0.0
220
0.0
230
1.0
 73
     3
  0
TEXT
  8
10
  6
CONTINUOUS
 62
   134
  5
68
 10
951289.435
 20
7302237.129
 30
0.0
 40
13.999
  1
UNSUBDIVIDED
 50
358.3203
  7
ROMANS
 11
951289.84534
 21
7302251.121985
 31
0.0
210
0.0
220
0.0
230
1.0
 73
     3
  0
TEXT
  8
28
  6
CONTINUOUS
 62
    32
  5
6B
 10
948451.955
 20
7300533.625
 30
0.0
 40
24.0
  1
ATCHISON TOPEKA & SANTA FE RAILROAD
 50
65.0
  7
txt
 72
     4
 11
948610.022647
 21
7300900.996582
 31
0.0
210
0.0
220
0.0
230
1.0
  0
TEXT
  8
28
  6
CONTINUOUS
 62
    32
  5
6C
 10
949755.245
 20
7303350.076
 30
0.0
 40
24.0
  1
ATCHISON TOPEKA & SANTA FE RAILROAD
 50
65.0
  7
txt
 72
     4
 11
949913.312647
 21
7303717.447582
 31
0.0
210
0.0
220
0.0
230
1.0
  0
LINE
  8
6
  6
CONTINUOUS
 62
     7
  5
6D
 10
953270.588
 20
7303733.827
 30
0.0
 11
953278.787
 21
7304059.391
 31
0.0
  0
ENDSEC
  0
EOF
