  0
SECTION
  2
HEADER
  9
$ACADVER
  1
AC1009
  9
$INSBASE
 10
0.0
 20
0.0
 30
0.0
  9
$EXTMIN
 10
910654.07
 20
7279586.653
 30
0.0
  9
$EXTMAX
 10
916116.049
 20
7285055.38
 30
0.0
  9
$LIMMIN
 10
0.0
 20
0.0
  9
$LIMMAX
 10
12.0
 20
9.0
  9
$ORTHOMODE
 70
     0
  9
$REGENMODE
 70
     1
  9
$FILLMODE
 70
     1
  9
$QTEXTMODE
 70
     0
  9
$MIRRTEXT
 70
     1
  9
$DRAGMODE
 70
     2
  9
$LTSCALE
 40
1.0
  9
$OSMODE
 70
     0
  9
$ATTMODE
 70
     1
  9
$TEXTSIZE
 40
0.2
  9
$TRACEWID
 40
0.05
  9
$TEXTSTYLE
  7
STANDARD
  9
$CLAYER
  8
0
  9
$CELTYPE
  6
CONTINUOUS
  9
$CECOLOR
 62
   256
  9
$DIMSCALE
 40
1.0
  9
$DIMASZ
 40
0.18
  9
$DIMEXO
 40
0.0625
  9
$DIMDLI
 40
0.38
  9
$DIMRND
 40
0.0
  9
$DIMDLE
 40
0.0
  9
$DIMEXE
 40
0.18
  9
$DIMTP
 40
0.0
  9
$DIMTM
 40
0.0
  9
$DIMTXT
 40
0.18
  9
$DIMCEN
 40
0.09
  9
$DIMTSZ
 40
0.0
  9
$DIMTOL
 70
     0
  9
$DIMLIM
 70
     0
  9
$DIMTIH
 70
     1
  9
$DIMTOH
 70
     1
  9
$DIMSE1
 70
     0
  9
$DIMSE2
 70
     0
  9
$DIMTAD
 70
     0
  9
$DIMZIN
 70
     0
  9
$DIMBLK
  1

  9
$DIMASO
 70
     1
  9
$DIMSHO
 70
     1
  9
$DIMPOST
  1

  9
$DIMAPOST
  1

  9
$DIMALT
 70
     0
  9
$DIMALTD
 70
     2
  9
$DIMALTF
 40
25.4
  9
$DIMLFAC
 40
1.0
  9
$DIMTOFL
 70
     0
  9
$DIMTVP
 40
0.0
  9
$DIMTIX
 70
     0
  9
$DIMSOXD
 70
     0
  9
$DIMSAH
 70
     0
  9
$DIMBLK1
  1

  9
$DIMBLK2
  1

  9
$DIMSTYLE
  2
STANDARD
  9
$DIMCLRD
 70
     0
  9
$DIMCLRE
 70
     0
  9
$DIMCLRT
 70
     0
  9
$DIMTFAC
 40
1.0
  9
$DIMGAP
 40
0.09
  9
$LUNITS
 70
     2
  9
$LUPREC
 70
     4
  9
$AXISMODE
 70
     0
  9
$AXISUNIT
 10
0.0
 20
0.0
  9
$SKETCHINC
 40
0.1
  9
$FILLETRAD
 40
0.0
  9
$AUNITS
 70
     0
  9
$AUPREC
 70
     0
  9
$MENU
  1
acad
  9
$ELEVATION
 40
0.0
  9
$PELEVATION
 40
0.0
  9
$THICKNESS
 40
0.0
  9
$LIMCHECK
 70
     0
  9
$BLIPMODE
 70
     1
  9
$CHAMFERA
 40
0.0
  9
$CHAMFERB
 40
0.0
  9
$SKPOLY
 70
     0
  9
$TDCREATE
 40
2453013.903055556
  9
$TDUPDATE
 40
2453013.903055556
  9
$TDINDWG
 40
0.0000000000
  9
$TDUSRTIMER
 40
0.0000000000
  9
$USRTIMER
 70
     1
  9
$ANGBASE
 50
0.0
  9
$ANGDIR
 70
     0
  9
$PDMODE
 70
     0
  9
$PDSIZE
 40
0.0
  9
$PLINEWID
 40
0.0
  9
$COORDS
 70
     0
  9
$SPLFRAME
 70
     0
  9
$SPLINETYPE
 70
     6
  9
$SPLINESEGS
 70
    10
  9
$ATTDIA
 70
     0
  9
$ATTREQ
 70
     1
  9
$HANDLING
 70
     1
  9
$HANDSEED
  5
503
  9
$SURFTAB1
 70
     6
  9
$SURFTAB2
 70
     6
  9
$SURFTYPE
 70
     6
  9
$SURFU
 70
     6
  9
$SURFV
 70
     6
  9
$UCSNAME
  2

  9
$UCSORG
 10
0.0
 20
0.0
 30
0.0
  9
$UCSXDIR
 10
1.0
 20
0.0
 30
0.0
  9
$UCSYDIR
 10
0.0
 20
1.0
 30
0.0
  9
$PUCSNAME
  2

  9
$PUCSORG
 10
0.0
 20
0.0
 30
0.0
  9
$PUCSXDIR
 10
1.0
 20
0.0
 30
0.0
  9
$PUCSYDIR
 10
0.0
 20
1.0
 30
0.0
  9
$USERI1
 70
     0
  9
$USERI2
 70
     0
  9
$USERI3
 70
     0
  9
$USERI4
 70
     0
  9
$USERI5
 70
     0
  9
$USERR1
 40
0.0
  9
$USERR2
 40
0.0
  9
$USERR3
 40
0.0
  9
$USERR4
 40
0.0
  9
$USERR5
 40
0.0
  9
$WORLDVIEW
 70
     1
  9
$SHADEDGE
 70
     3
  9
$SHADEDIF
 70
    70
  9
$TILEMODE
 70
     1
  9
$MAXACTVP
 70
    16
  9
$PINSBASE
 10
0.0
 20
0.0
 30
0.0
  9
$PLIMCHECK
 70
     0
  9
$PEXTMIN
 10
-1.000000E+20
 20
-1.000000E+20
 30
-1.000000E+20
  9
$PEXTMAX
 10
-1.000000E+20
 20
-1.000000E+20
 30
-1.000000E+20
  9
$PLIMMIN
 10
0.0
 20
0.0
  9
$PLIMMAX
 10
12.0
 20
9.0
  9
$UNITMODE
 70
     0
  9
$VISRETAIN
 70
     0
  9
$PLINEGEN
 70
     1
  9
$PSLTSCALE
 70
     0
  9
$TREEDEPTH
 70
  3020
  9
$DWGCODEPAGE
  3
ansi_1252
  0
ENDSEC
  0
SECTION
  2
TABLES
  0
TABLE
  2
VPORT
 70
     1
  0
VPORT
  2
*ACTIVE
 70
     0
 10
0.0
 20
0.0
 11
1.0
 21
1.0
 12
0.0
 22
0.0
 13
0.0
 23
0.0
 14
0.0
 24
0.0
 15
0.0
 25
0.0
 16
0.0
 26
0.0
 36
1.0
 17
933332.291
 27
7244810.082106
 37
0.0
 40
11453.518212
 41
1.513235
 42
50.0
 43
0.004
 44
0.0
 50
0.0
 51
0.0
 71
     0
 72
   100
 73
     1
 74
     0
 75
     0
 76
     0
 77
     0
 78
     0
  0
ENDTAB
  0
TABLE
  2
LTYPE
 70
     7
  0
LTYPE
  2
CONTINUOUS
 70
     0
  3
Solid line
 72
    65
 73
     0
 40
0.0
  0
LTYPE
  2
DOT
 70
    64
  3
. . . . . . . . . . . . . . . . . . . . . . . . . . . . . . . . .
 72
    65
 73
     2
 40
0.25
 49
0.0
 49
-0.25
  0
LTYPE
  2
HIDDEN
 70
    64
  3
__ __ __ __ __ __ __ __ __ __ __ __ __ __ __ __ __ __ __ __ __ 
 72
    65
 73
     2
 40
0.375
 49
0.25
 49
-0.125
  0
LTYPE
  2
DASHED
 70
    64
  3
__ __ __ __ __ __ __ __ __ __ __ __ __ __ __ __ __ __ __ __ __
 72
    65
 73
     2
 40
0.75
 49
0.5
 49
-0.25
  0
LTYPE
  2
DASHDOT
 70
    64
  3
__ . __ . __ . __ . __ . __ . __ . __ . __ . __ . __ . __ . _
 72
    65
 73
     4
 40
1.0
 49
0.5
 49
-0.25
 49
0.0
 49
-0.25
  0
LTYPE
  2
DIVIDE
 70
    64
  3
____ . . ____ . . ____ . . ____ . . ____ . . ____ . . ____ . .
 72
    65
 73
     6
 40
1.25
 49
0.5
 49
-0.25
 49
0.0
 49
-0.25
 49
0.0
 49
-0.25
  0
LTYPE
  2
CENTER
 70
    64
  3
____ _ ____ _ ____ _ ____ _ ____ _ ____ _ ____ _ ____ _ ____ _
 72
    65
 73
     4
 40
2.0
 49
1.25
 49
-0.25
 49
0.25
 49
-0.25
  0
ENDTAB
  0
TABLE
  2
LAYER
 70
    14
  0
LAYER
  2
0
 70
     0
 62
     7
  6
CONTINUOUS
  0
LAYER
  2
CONSTRUCTION_CLASS
 70
     1
 62
     7
  6
CONTINUOUS
  0
LAYER
  2
PATTERN_CLASS
 70
     0
 62
     7
  6
CONTINUOUS
  0
LAYER
  2
6
 70
    64
 62
     7
  6
CONTINUOUS
  0
LAYER
  2
7
 70
    64
 62
     7
  6
CONTINUOUS
  0
LAYER
  2
10
 70
    64
 62
     7
  6
CONTINUOUS
  0
LAYER
  2
11
 70
    64
 62
     7
  6
CONTINUOUS
  0
LAYER
  2
19
 70
    64
 62
     7
  6
CONTINUOUS
  0
LAYER
  2
15
 70
    64
 62
     7
  6
CONTINUOUS
  0
LAYER
  2
21
 70
    64
 62
     7
  6
CONTINUOUS
  0
LAYER
  2
22
 70
    64
 62
     7
  6
CONTINUOUS
  0
LAYER
  2
DEFPOINTS
 70
    64
 62
     7
  6
CONTINUOUS
  0
LAYER
  2
1
 70
    64
 62
     7
  6
CONTINUOUS
  0
LAYER
  2
58
 70
    64
 62
     7
  6
CONTINUOUS
  0
ENDTAB
  0
TABLE
  2
STYLE
 70
     3
  0
STYLE
  2
STANDARD
 70
     0
 40
0.0
 41
1.0
 50
0.0
 71
     0
 42
0.0
  3
txt
  4

  0
STYLE
  2
ROMANS
 70
     0
 40
0.2
 41
1.0
 50
0.0
 71
     0
 42
0.2
  3
ROMANS
  4

  0
STYLE
  2
ROMANC
 70
     0
 40
0.2
 41
1.0
 50
0.0
 71
     0
 42
0.2
  3
ROMANC
  4

  0
ENDTAB
  0
TABLE
  2
VIEW
 70
     0
  0
ENDTAB
  0
TABLE
  2
UCS
 70
     0
  0
ENDTAB
  0
TABLE
  2
APPID
 70
     1
  0
APPID
  2
ACAD
 70
     0
  0
ENDTAB
  0
TABLE
  2
DIMSTYLE
 70
     2
  0
DIMSTYLE
  2
STANDARD
 70
     0
  3

  4

  5

  6

  7

 40
1.0
 41
0.18
 42
0.0625
 43
0.38
 44
0.18
 45
0.0
 46
0.0
 47
0.0
 48
0.0
140
0.18
141
0.09
142
0.0
143
25.4
144
1.0
145
0.0
146
1.0
147
0.09
 71
     0
 72
     0
 73
     1
 74
     1
 75
     0
 76
     0
 77
     0
 78
     0
170
     0
171
     2
172
     0
173
     0
174
     0
175
     0
176
     0
177
     0
178
     0
  0
DIMSTYLE
  2
MSADIM
 70
     0
  3

  4

  5

  6

  7

 40
1.0
 41
8.0
 42
4.0
 43
0.0
 44
4.0
 45
0.0
 46
0.0
 47
0.0
 48
0.0
140
8.0
141
4.0
142
0.0
143
25.4
144
1.0
145
4.0
146
1.0
147
4.0
 71
     0
 72
     0
 73
     1
 74
     1
 75
     1
 76
     1
 77
     0
 78
     2
170
     0
171
     2
172
     0
173
     1
174
     0
175
     0
176
     0
177
     0
178
     0
  0
ENDTAB
  0
ENDSEC
  0
SECTION
  2
BLOCKS
  0
BLOCK
  8
22
  6
CONTINUOUS
 62
     3
  5
4DA
  2
*D0
 70
     1
 10
0.0
 20
0.0
 30
0.0
  3
*N0
  0
POLYLINE
  8
22
  6
CONTINUOUS
 62
     3
  5
4DB
 66
     1
 10
0.0
 20
0.0
 30
0.0
  0
VERTEX
  8
22
  6
CONTINUOUS
 62
     3
  5
4DC
 10
913481.904
 20
7279715.594
 30
0.0
  0
VERTEX
  8
22
  6
CONTINUOUS
 62
     3
  5
4DD
 10
913474.696
 20
7279711.588
 30
0.0
  0
VERTEX
  8
22
  6
CONTINUOUS
 62
     3
  5
4DE
 10
913479.171
 20
7279718.514
 30
0.0
  0
SEQEND
  8
22
  6
CONTINUOUS
 62
     3
  5
4DF
  0
LINE
  8
22
  6
CONTINUOUS
 62
     3
  5
4E0
 10
913474.696
 20
7279711.588
 30
0.0
 11
913517.494
 21
7279751.635
 31
0.0
  0
LINE
  8
22
  6
CONTINUOUS
 62
     3
  5
4E1
 10
913517.494
 20
7279751.635
 30
0.0
 11
913533.494
 21
7279751.635
 31
0.0
  0
TEXT
  8
22
  6
CONTINUOUS
 62
     3
  5
4E2
 10
913537.494
 20
7279747.635
 30
0.0
 40
8.0
  1
10' TELEPHONE LINE EASEMENT
  7
ROMANS
 11
913537.494
 21
7279751.635
 31
0.0
210
0.0
220
0.0
230
1.0
 73
     2
  0
ENDBLK
  8
22
  6
CONTINUOUS
 62
     3
  5
4E3
  0
BLOCK
  8
22
  6
CONTINUOUS
 62
     3
  5
4E6
  2
*D1
 70
     1
 10
0.0
 20
0.0
 30
0.0
  3
*N1
  0
POLYLINE
  8
22
  6
CONTINUOUS
 62
     3
  5
4E7
 66
     1
 10
0.0
 20
0.0
 30
0.0
  0
VERTEX
  8
22
  6
CONTINUOUS
 62
     3
  5
4E8
 10
915713.37
 20
7279643.715
 30
0.0
  0
VERTEX
  8
22
  6
CONTINUOUS
 62
     3
  5
4E9
 10
915717.101
 20
7279636.361
 30
0.0
  0
VERTEX
  8
22
  6
CONTINUOUS
 62
     3
  5
4EA
 10
915710.348
 20
7279641.094
 30
0.0
  0
SEQEND
  8
22
  6
CONTINUOUS
 62
     3
  5
4EB
  0
LINE
  8
22
  6
CONTINUOUS
 62
     3
  5
4EC
 10
915717.101
 20
7279636.361
 30
0.0
 11
915680.043
 21
7279679.089
 31
0.0
  0
LINE
  8
22
  6
CONTINUOUS
 62
     3
  5
4ED
 10
915680.043
 20
7279679.089
 30
0.0
 11
915664.043
 21
7279679.089
 31
0.0
  0
TEXT
  8
22
  6
CONTINUOUS
 62
     3
  5
4EE
 10
915446.71
 20
7279675.089
 30
0.0
 40
8.0
  1
10' TELEPHONE LINE EASEMENT
  7
ROMANS
 11
915446.71
 21
7279679.089
 31
0.0
210
0.0
220
0.0
230
1.0
 73
     2
  0
ENDBLK
  8
22
  6
CONTINUOUS
 62
     3
  5
4EF
  0
ENDSEC
  0
SECTION
  2
ENTITIES
  0
LINE
  8
6
  6
CONTINUOUS
 62
     7
  5
29
 10
914950.733
 20
7279903.985
 30
0.0
 11
914957.108
 21
7280093.877
 31
0.0
  0
LINE
  8
6
  6
CONTINUOUS
 62
     7
  5
2A
 10
914950.733
 20
7279903.985
 30
0.0
 11
915884.757
 21
7279872.629
 31
0.0
  0
LINE
  8
6
  6
CONTINUOUS
 62
     7
  5
2B
 10
914972.602
 20
7280108.366
 30
0.0
 11
915885.889
 21
7280077.707
 31
0.0
  0
LINE
  8
6
  6
CONTINUOUS
 62
     7
  5
2C
 10
915900.335
 20
7280061.481
 30
0.0
 11
915884.757
 21
7279872.629
 31
0.0
  0
LINE
  8
6
  6
CONTINUOUS
 62
     7
  5
2D
 10
915904.011
 20
7280148.139
 30
0.0
 11
915910.386
 21
7280338.031
 31
0.0
  0
LINE
  8
6
  6
CONTINUOUS
 62
     7
  5
2E
 10
913968.132
 20
7280213.126
 30
0.0
 11
913974.507
 21
7280403.019
 31
0.0
  0
LINE
  8
6
  6
CONTINUOUS
 62
     7
  5
2F
 10
915911.057
 20
7280358.02
 30
0.0
 11
915917.432
 21
7280547.913
 31
0.0
  0
LINE
  8
6
  6
CONTINUOUS
 62
     7
  5
30
 10
913975.178
 20
7280423.007
 30
0.0
 11
913981.552
 21
7280612.901
 31
0.0
  0
LINE
  8
6
  6
CONTINUOUS
 62
     7
  5
31
 10
913388.806
 20
7282293.214
 30
0.0
 11
913301.892
 21
7279704.193
 31
0.0
  0
LINE
  8
6
  6
CONTINUOUS
 62
     7
  5
32
 10
913344.443
 20
7279807.844
 30
0.0
 11
913342.094
 21
7279737.862
 31
0.0
  0
LINE
  8
6
  6
CONTINUOUS
 62
     7
  5
33
 10
913341.759
 20
7279937.987
 30
0.0
 11
913344.443
 21
7279807.844
 31
0.0
  0
POLYLINE
  8
6
  6
CONTINUOUS
 62
     7
  5
34
 66
     1
 10
0.0
 20
0.0
 30
0.0
  0
VERTEX
  8
6
  6
CONTINUOUS
 62
     7
  5
35
 10
915936.623
 20
7281119.591
 30
0.0
  0
VERTEX
  8
6
  6
CONTINUOUS
 62
     7
  5
36
 10
915942.998
 20
7281309.484
 30
0.0
  0
VERTEX
  8
6
  6
CONTINUOUS
 62
     7
  5
37
 10
915417.674
 20
7281327.119
 30
0.0
  0
SEQEND
  8
6
  6
CONTINUOUS
 62
     7
  5
38
  0
LINE
  8
7
  6
CONTINUOUS
 62
     7
  5
3A
 10
915664.209
 20
7279860.022
 30
0.0
 11
915656.493
 21
7279630.151
 31
0.0
  0
LINE
  8
7
  6
CONTINUOUS
 62
     7
  5
3B
 10
915570.263
 20
7279863.175
 30
0.0
 11
915562.546
 21
7279633.304
 31
0.0
  0
LINE
  8
7
  6
CONTINUOUS
 62
     7
  5
3C
 10
915476.316
 20
7279866.329
 30
0.0
 11
915468.599
 21
7279636.459
 31
0.0
  0
LINE
  8
7
  6
CONTINUOUS
 62
     7
  5
3D
 10
915382.368
 20
7279869.483
 30
0.0
 11
915374.652
 21
7279639.612
 31
0.0
  0
LINE
  8
7
  6
CONTINUOUS
 62
     7
  5
3E
 10
915288.422
 20
7279872.637
 30
0.0
 11
915280.705
 21
7279642.766
 31
0.0
  0
LINE
  8
7
  6
CONTINUOUS
 62
     7
  5
3F
 10
915194.475
 20
7279875.79
 30
0.0
 11
915186.757
 21
7279645.92
 31
0.0
  0
POLYLINE
  8
6
  6
CONTINUOUS
 62
     7
  5
40
 66
     1
 10
0.0
 20
0.0
 30
0.0
  0
VERTEX
  8
6
  6
CONTINUOUS
 62
     7
  5
41
 10
915069.994
 20
7279879.969
 30
0.0
  0
VERTEX
  8
6
  6
CONTINUOUS
 62
     7
  5
42
 10
915079.653
 20
7279869.639
 30
0.0
  0
VERTEX
  8
6
  6
CONTINUOUS
 62
     7
  5
43
 10
915072.272
 20
7279649.764
 30
0.0
  0
SEQEND
  8
6
  6
CONTINUOUS
 62
     7
  5
44
  0
POLYLINE
  8
6
  6
CONTINUOUS
 62
     7
  5
45
 66
     1
 10
0.0
 20
0.0
 30
0.0
  0
VERTEX
  8
6
  6
CONTINUOUS
 62
     7
  5
46
 10
915092.261
 20
7279649.092
 30
0.0
  0
VERTEX
  8
6
  6
CONTINUOUS
 62
     7
  5
47
 10
915099.643
 20
7279868.968
 30
0.0
  0
VERTEX
  8
6
  6
CONTINUOUS
 62
     7
  5
48
 10
915109.972
 20
7279878.627
 30
0.0
  0
SEQEND
  8
6
  6
CONTINUOUS
 62
     7
  5
49
  0
POLYLINE
  8
6
  6
CONTINUOUS
 62
     7
  5
4A
 66
     1
 10
0.0
 20
0.0
 30
0.0
  0
VERTEX
  8
6
  6
CONTINUOUS
 62
     7
  5
4B
 10
915109.972
 20
7279878.627
 30
0.0
  0
VERTEX
  8
6
  6
CONTINUOUS
 62
     7
  5
4C
 10
915884.086
 20
7279852.64
 30
0.0
  0
VERTEX
  8
6
  6
CONTINUOUS
 62
     7
  5
4D
 10
915877.376
 20
7279652.753
 30
0.0
  0
SEQEND
  8
6
  6
CONTINUOUS
 62
     7
  5
4E
  0
LINE
  8
6
  6
CONTINUOUS
 62
     7
  5
4F
 10
915846.386
 20
7279623.777
 30
0.0
 11
915092.261
 21
7279649.092
 31
0.0
  0
POLYLINE
  8
6
  6
CONTINUOUS
 62
     7
  5
50
 66
     1
 10
0.0
 20
0.0
 30
0.0
  0
VERTEX
  8
6
  6
CONTINUOUS
 62
     7
  5
51
 10
914770.164
 20
7279890.035
 30
0.0
  0
VERTEX
  8
6
  6
CONTINUOUS
 62
     7
  5
52
 10
914759.834
 20
7279880.376
 30
0.0
  0
VERTEX
  8
6
  6
CONTINUOUS
 62
     7
  5
53
 10
914752.452
 20
7279660.5
 30
0.0
  0
SEQEND
  8
6
  6
CONTINUOUS
 62
     7
  5
54
  0
POLYLINE
  8
6
  6
CONTINUOUS
 62
     7
  5
55
 66
     1
 10
0.0
 20
0.0
 30
0.0
  0
VERTEX
  8
6
  6
CONTINUOUS
 62
     7
  5
56
 10
914732.463
 20
7279661.171
 30
0.0
  0
VERTEX
  8
6
  6
CONTINUOUS
 62
     7
  5
57
 10
914739.845
 20
7279881.047
 30
0.0
  0
VERTEX
  8
6
  6
CONTINUOUS
 62
     7
  5
58
 10
914730.186
 20
7279891.377
 30
0.0
  0
SEQEND
  8
6
  6
CONTINUOUS
 62
     7
  5
59
  0
LINE
  8
6
  6
CONTINUOUS
 62
     7
  5
5A
 10
914890.096
 20
7279886.009
 30
0.0
 11
914770.164
 21
7279890.035
 31
0.0
  0
LINE
  8
6
  6
CONTINUOUS
 62
     7
  5
5B
 10
914730.186
 20
7279891.377
 30
0.0
 11
913341.759
 21
7279937.987
 31
0.0
  0
LINE
  8
6
  6
CONTINUOUS
 62
     7
  5
5C
 10
913371.071
 20
7279706.873
 30
0.0
 11
914732.463
 21
7279661.171
 31
0.0
  0
LINE
  8
7
  6
CONTINUOUS
 62
     7
  5
5D
 10
914756.478
 20
7279780.432
 30
0.0
 11
914886.405
 21
7279776.07
 31
0.0
  0
LINE
  8
7
  6
CONTINUOUS
 62
     7
  5
5E
 10
914946.372
 20
7279774.058
 30
0.0
 11
915076.298
 21
7279769.696
 31
0.0
  0
LINE
  8
7
  6
CONTINUOUS
 62
     7
  5
5F
 10
914642.514
 20
7279664.19
 30
0.0
 11
914650.231
 21
7279894.061
 31
0.0
  0
LINE
  8
7
  6
CONTINUOUS
 62
     7
  5
60
 10
914552.565
 20
7279667.21
 30
0.0
 11
914560.281
 21
7279897.08
 31
0.0
  0
LINE
  8
7
  6
CONTINUOUS
 62
     7
  5
61
 10
914462.616
 20
7279670.229
 30
0.0
 11
914470.333
 21
7279900.1
 31
0.0
  0
LINE
  8
7
  6
CONTINUOUS
 62
     7
  5
62
 10
914372.666
 20
7279673.249
 30
0.0
 11
914380.383
 21
7279903.12
 31
0.0
  0
LINE
  8
7
  6
CONTINUOUS
 62
     7
  5
63
 10
914292.712
 20
7279675.933
 30
0.0
 11
914300.428
 21
7279905.804
 31
0.0
  0
LINE
  8
7
  6
CONTINUOUS
 62
     7
  5
64
 10
914212.756
 20
7279678.617
 30
0.0
 11
914220.473
 21
7279908.488
 31
0.0
  0
LINE
  8
7
  6
CONTINUOUS
 62
     7
  5
65
 10
914132.802
 20
7279681.301
 30
0.0
 11
914140.518
 21
7279911.172
 31
0.0
  0
LINE
  8
7
  6
CONTINUOUS
 62
     7
  5
66
 10
914052.846
 20
7279683.985
 30
0.0
 11
914060.563
 21
7279913.856
 31
0.0
  0
LINE
  8
7
  6
CONTINUOUS
 62
     7
  5
67
 10
913967.894
 20
7279686.837
 30
0.0
 11
913975.611
 21
7279916.708
 31
0.0
  0
LINE
  8
7
  6
CONTINUOUS
 62
     7
  5
68
 10
913882.942
 20
7279689.689
 30
0.0
 11
913890.659
 21
7279919.56
 31
0.0
  0
LINE
  8
7
  6
CONTINUOUS
 62
     7
  5
69
 10
913797.99
 20
7279692.541
 30
0.0
 11
913805.707
 21
7279922.412
 31
0.0
  0
LINE
  8
7
  6
CONTINUOUS
 62
     7
  5
6A
 10
913713.038
 20
7279695.393
 30
0.0
 11
913720.755
 21
7279925.264
 31
0.0
  0
LINE
  8
7
  6
CONTINUOUS
 62
     7
  5
6B
 10
913452.607
 20
7279954.276
 30
0.0
 11
913459.485
 21
7280159.161
 31
0.0
  0
LINE
  8
7
  6
CONTINUOUS
 62
     7
  5
6C
 10
913562.546
 20
7279950.586
 30
0.0
 11
913569.423
 21
7280155.471
 31
0.0
  0
LINE
  8
7
  6
CONTINUOUS
 62
     7
  5
6D
 10
913672.483
 20
7279946.895
 30
0.0
 11
913679.362
 21
7280151.779
 31
0.0
  0
LINE
  8
7
  6
CONTINUOUS
 62
     7
  5
6E
 10
913772.427
 20
7279943.54
 30
0.0
 11
913779.305
 21
7280148.425
 31
0.0
  0
LINE
  8
7
  6
CONTINUOUS
 62
     7
  5
6F
 10
913872.371
 20
7279940.185
 30
0.0
 11
913879.249
 21
7280145.069
 31
0.0
  0
LINE
  8
7
  6
CONTINUOUS
 62
     7
  5
70
 10
913972.315
 20
7279936.83
 30
0.0
 11
913979.193
 21
7280141.715
 31
0.0
  0
LINE
  8
7
  6
CONTINUOUS
 62
     7
  5
71
 10
914072.259
 20
7279933.475
 30
0.0
 11
914079.136
 21
7280138.359
 31
0.0
  0
LINE
  8
7
  6
CONTINUOUS
 62
     7
  5
72
 10
914172.201
 20
7279930.119
 30
0.0
 11
914179.079
 21
7280135.005
 31
0.0
  0
LINE
  8
7
  6
CONTINUOUS
 62
     7
  5
73
 10
914272.145
 20
7279926.765
 30
0.0
 11
914279.023
 21
7280131.649
 31
0.0
  0
LINE
  8
7
  6
CONTINUOUS
 62
     7
  5
74
 10
914372.089
 20
7279923.409
 30
0.0
 11
914378.967
 21
7280128.294
 31
0.0
  0
LINE
  8
7
  6
CONTINUOUS
 62
     7
  5
75
 10
914472.033
 20
7279920.055
 30
0.0
 11
914478.911
 21
7280124.939
 31
0.0
  0
LINE
  8
7
  6
CONTINUOUS
 62
     7
  5
76
 10
914571.976
 20
7279916.699
 30
0.0
 11
914578.854
 21
7280121.584
 31
0.0
  0
LINE
  8
7
  6
CONTINUOUS
 62
     7
  5
77
 10
914671.92
 20
7279913.345
 30
0.0
 11
914678.798
 21
7280118.229
 31
0.0
  0
LINE
  8
7
  6
CONTINUOUS
 62
     7
  5
78
 10
914781.858
 20
7279909.653
 30
0.0
 11
914788.736
 21
7280114.538
 31
0.0
  0
LINE
  8
7
  6
CONTINUOUS
 62
     7
  5
79
 10
915060.672
 20
7279900.293
 30
0.0
 11
915067.55
 21
7280105.178
 31
0.0
  0
LINE
  8
7
  6
CONTINUOUS
 62
     7
  5
7A
 10
915170.11
 20
7279896.62
 30
0.0
 11
915176.988
 21
7280101.505
 31
0.0
  0
LINE
  8
7
  6
CONTINUOUS
 62
     7
  5
7B
 10
915280.048
 20
7279892.929
 30
0.0
 11
915286.926
 21
7280097.813
 31
0.0
  0
LINE
  8
7
  6
CONTINUOUS
 62
     7
  5
7C
 10
915389.985
 20
7279889.239
 30
0.0
 11
915396.863
 21
7280094.123
 31
0.0
  0
LINE
  8
7
  6
CONTINUOUS
 62
     7
  5
7D
 10
915499.924
 20
7279885.548
 30
0.0
 11
915506.802
 21
7280090.433
 31
0.0
  0
LINE
  8
7
  6
CONTINUOUS
 62
     7
  5
7E
 10
915599.868
 20
7279882.193
 30
0.0
 11
915606.745
 21
7280087.077
 31
0.0
  0
LINE
  8
7
  6
CONTINUOUS
 62
     7
  5
7F
 10
915699.811
 20
7279878.837
 30
0.0
 11
915706.689
 21
7280083.722
 31
0.0
  0
LINE
  8
7
  6
CONTINUOUS
 62
     7
  5
80
 10
915799.755
 20
7279875.483
 30
0.0
 11
915806.633
 21
7280080.367
 31
0.0
  0
LINE
  8
7
  6
CONTINUOUS
 62
     7
  5
81
 10
913461.284
 20
7280215.132
 30
0.0
 11
913468.162
 21
7280420.017
 31
0.0
  0
LINE
  8
7
  6
CONTINUOUS
 62
     7
  5
82
 10
913558.729
 20
7280211.861
 30
0.0
 11
913565.607
 21
7280416.746
 31
0.0
  0
LINE
  8
7
  6
CONTINUOUS
 62
     7
  5
83
 10
913658.673
 20
7280208.505
 30
0.0
 11
913665.551
 21
7280413.39
 31
0.0
  0
LINE
  8
7
  6
CONTINUOUS
 62
     7
  5
84
 10
913758.616
 20
7280205.151
 30
0.0
 11
913765.494
 21
7280410.035
 31
0.0
  0
LINE
  8
7
  6
CONTINUOUS
 62
     7
  5
85
 10
913858.56
 20
7280201.795
 30
0.0
 11
913865.438
 21
7280406.68
 31
0.0
  0
LINE
  8
7
  6
CONTINUOUS
 62
     7
  5
86
 10
914140.413
 20
7280397.449
 30
0.0
 11
914133.536
 21
7280192.565
 31
0.0
  0
LINE
  8
7
  6
CONTINUOUS
 62
     7
  5
87
 10
915415.695
 20
7280354.638
 30
0.0
 11
915408.817
 21
7280149.753
 31
0.0
  0
LINE
  8
7
  6
CONTINUOUS
 62
     7
  5
88
 10
914240.357
 20
7280394.094
 30
0.0
 11
914233.479
 21
7280189.209
 31
0.0
  0
LINE
  8
7
  6
CONTINUOUS
 62
     7
  5
89
 10
914340.3
 20
7280390.739
 30
0.0
 11
914333.422
 21
7280185.855
 31
0.0
  0
LINE
  8
7
  6
CONTINUOUS
 62
     7
  5
8A
 10
914440.244
 20
7280387.384
 30
0.0
 11
914433.366
 21
7280182.499
 31
0.0
  0
LINE
  8
7
  6
CONTINUOUS
 62
     7
  5
8B
 10
914540.188
 20
7280384.028
 30
0.0
 11
914533.31
 21
7280179.144
 31
0.0
  0
LINE
  8
7
  6
CONTINUOUS
 62
     7
  5
8C
 10
914640.132
 20
7280380.674
 30
0.0
 11
914633.254
 21
7280175.789
 31
0.0
  0
LINE
  8
7
  6
CONTINUOUS
 62
     7
  5
8D
 10
914740.075
 20
7280377.318
 30
0.0
 11
914733.197
 21
7280172.434
 31
0.0
  0
LINE
  8
7
  6
CONTINUOUS
 62
     7
  5
8E
 10
914840.019
 20
7280373.964
 30
0.0
 11
914833.141
 21
7280169.079
 31
0.0
  0
LINE
  8
7
  6
CONTINUOUS
 62
     7
  5
8F
 10
914939.963
 20
7280370.608
 30
0.0
 11
914933.085
 21
7280165.724
 31
0.0
  0
LINE
  8
7
  6
CONTINUOUS
 62
     7
  5
90
 10
915039.907
 20
7280367.254
 30
0.0
 11
915033.029
 21
7280162.368
 31
0.0
  0
LINE
  8
7
  6
CONTINUOUS
 62
     7
  5
91
 10
915139.85
 20
7280363.898
 30
0.0
 11
915132.972
 21
7280159.014
 31
0.0
  0
LINE
  8
7
  6
CONTINUOUS
 62
     7
  5
92
 10
915515.638
 20
7280351.283
 30
0.0
 11
915508.76
 21
7280146.399
 31
0.0
  0
LINE
  8
7
  6
CONTINUOUS
 62
     7
  5
93
 10
915615.582
 20
7280347.928
 30
0.0
 11
915608.704
 21
7280143.043
 31
0.0
  0
LINE
  8
7
  6
CONTINUOUS
 62
     7
  5
94
 10
915715.526
 20
7280344.572
 30
0.0
 11
915708.648
 21
7280139.688
 31
0.0
  0
LINE
  8
7
  6
CONTINUOUS
 62
     7
  5
95
 10
915815.47
 20
7280341.218
 30
0.0
 11
915808.592
 21
7280136.333
 31
0.0
  0
LINE
  8
7
  6
CONTINUOUS
 62
     7
  5
96
 10
915423.244
 20
7280579.511
 30
0.0
 11
915416.366
 21
7280374.626
 31
0.0
  0
LINE
  8
7
  6
CONTINUOUS
 62
     7
  5
97
 10
915523.188
 20
7280576.156
 30
0.0
 11
915516.31
 21
7280371.272
 31
0.0
  0
LINE
  8
7
  6
CONTINUOUS
 62
     7
  5
98
 10
915623.132
 20
7280572.801
 30
0.0
 11
915616.254
 21
7280367.916
 31
0.0
  0
LINE
  8
7
  6
CONTINUOUS
 62
     7
  5
99
 10
915723.075
 20
7280569.446
 30
0.0
 11
915716.197
 21
7280364.562
 31
0.0
  0
LINE
  8
7
  6
CONTINUOUS
 62
     7
  5
9A
 10
915823.019
 20
7280566.091
 30
0.0
 11
915816.141
 21
7280361.206
 31
0.0
  0
LINE
  8
7
  6
CONTINUOUS
 62
     7
  5
9B
 10
914147.962
 20
7280622.323
 30
0.0
 11
914141.084
 21
7280417.438
 31
0.0
  0
LINE
  8
7
  6
CONTINUOUS
 62
     7
  5
9C
 10
914247.906
 20
7280618.967
 30
0.0
 11
914241.028
 21
7280414.082
 31
0.0
  0
LINE
  8
7
  6
CONTINUOUS
 62
     7
  5
9D
 10
914347.85
 20
7280615.612
 30
0.0
 11
914340.972
 21
7280410.728
 31
0.0
  0
LINE
  8
7
  6
CONTINUOUS
 62
     7
  5
9E
 10
914447.794
 20
7280612.257
 30
0.0
 11
914440.916
 21
7280407.372
 31
0.0
  0
LINE
  8
7
  6
CONTINUOUS
 62
     7
  5
9F
 10
914547.737
 20
7280608.902
 30
0.0
 11
914540.859
 21
7280404.018
 31
0.0
  0
LINE
  8
7
  6
CONTINUOUS
 62
     7
  5
A0
 10
914647.681
 20
7280605.547
 30
0.0
 11
914640.803
 21
7280400.662
 31
0.0
  0
LINE
  8
7
  6
CONTINUOUS
 62
     7
  5
A1
 10
914747.625
 20
7280602.192
 30
0.0
 11
914740.747
 21
7280397.307
 31
0.0
  0
LINE
  8
7
  6
CONTINUOUS
 62
     7
  5
A2
 10
914847.568
 20
7280598.837
 30
0.0
 11
914840.691
 21
7280393.952
 31
0.0
  0
LINE
  8
7
  6
CONTINUOUS
 62
     7
  5
A3
 10
914947.511
 20
7280595.481
 30
0.0
 11
914940.633
 21
7280390.597
 31
0.0
  0
LINE
  8
7
  6
CONTINUOUS
 62
     7
  5
A4
 10
915047.455
 20
7280592.127
 30
0.0
 11
915040.577
 21
7280387.242
 31
0.0
  0
LINE
  8
7
  6
CONTINUOUS
 62
     7
  5
A5
 10
915147.399
 20
7280588.771
 30
0.0
 11
915140.521
 21
7280383.887
 31
0.0
  0
LINE
  8
7
  6
CONTINUOUS
 62
     7
  5
A6
 10
913468.833
 20
7280440.005
 30
0.0
 11
913475.711
 21
7280644.89
 31
0.0
  0
LINE
  8
7
  6
CONTINUOUS
 62
     7
  5
A7
 10
913566.278
 20
7280436.734
 30
0.0
 11
913573.157
 21
7280641.619
 31
0.0
  0
LINE
  8
7
  6
CONTINUOUS
 62
     7
  5
A8
 10
913666.222
 20
7280433.38
 30
0.0
 11
913673.099
 21
7280638.264
 31
0.0
  0
LINE
  8
7
  6
CONTINUOUS
 62
     7
  5
A9
 10
913766.165
 20
7280430.024
 30
0.0
 11
913773.043
 21
7280634.909
 31
0.0
  0
LINE
  8
7
  6
CONTINUOUS
 62
     7
  5
AA
 10
913866.109
 20
7280426.669
 30
0.0
 11
913872.987
 21
7280631.553
 31
0.0
  0
LINE
  8
7
  6
CONTINUOUS
 62
     7
  5
AB
 10
913468.235
 20
7280701.172
 30
0.0
 11
913475.113
 21
7280906.058
 31
0.0
  0
LINE
  8
7
  6
CONTINUOUS
 62
     7
  5
AC
 10
913581.671
 20
7280697.364
 30
0.0
 11
913588.549
 21
7280902.249
 31
0.0
  0
LINE
  8
7
  6
CONTINUOUS
 62
     7
  5
AD
 10
913681.615
 20
7280694.01
 30
0.0
 11
913688.493
 21
7280898.894
 31
0.0
  0
LINE
  8
7
  6
CONTINUOUS
 62
     7
  5
AE
 10
913781.559
 20
7280690.654
 30
0.0
 11
913788.437
 21
7280895.539
 31
0.0
  0
LINE
  8
7
  6
CONTINUOUS
 62
     7
  5
AF
 10
913881.503
 20
7280687.3
 30
0.0
 11
913888.381
 21
7280892.184
 31
0.0
  0
LINE
  8
7
  6
CONTINUOUS
 62
     7
  5
B0
 10
913981.446
 20
7280683.944
 30
0.0
 11
913988.324
 21
7280888.829
 31
0.0
  0
LINE
  8
7
  6
CONTINUOUS
 62
     7
  5
B1
 10
914081.39
 20
7280680.589
 30
0.0
 11
914088.268
 21
7280885.473
 31
0.0
  0
LINE
  8
7
  6
CONTINUOUS
 62
     7
  5
B2
 10
914191.328
 20
7280676.898
 30
0.0
 11
914198.206
 21
7280881.783
 31
0.0
  0
LINE
  8
7
  6
CONTINUOUS
 62
     7
  5
B3
 10
914301.266
 20
7280673.208
 30
0.0
 11
914308.144
 21
7280878.093
 31
0.0
  0
LINE
  8
7
  6
CONTINUOUS
 62
     7
  5
B4
 10
914411.204
 20
7280669.517
 30
0.0
 11
914418.082
 21
7280874.401
 31
0.0
  0
LINE
  8
7
  6
CONTINUOUS
 62
     7
  5
B5
 10
914521.142
 20
7280665.826
 30
0.0
 11
914528.02
 21
7280870.711
 31
0.0
  0
LINE
  8
7
  6
CONTINUOUS
 62
     7
  5
B6
 10
914631.08
 20
7280662.136
 30
0.0
 11
914637.958
 21
7280867.021
 31
0.0
  0
LINE
  8
7
  6
CONTINUOUS
 62
     7
  5
B7
 10
914741.018
 20
7280658.445
 30
0.0
 11
914747.896
 21
7280863.329
 31
0.0
  0
LINE
  8
7
  6
CONTINUOUS
 62
     7
  5
B8
 10
914850.956
 20
7280654.755
 30
0.0
 11
914857.834
 21
7280859.639
 31
0.0
  0
LINE
  8
7
  6
CONTINUOUS
 62
     7
  5
B9
 10
915125.352
 20
7280645.543
 30
0.0
 11
915132.23
 21
7280850.428
 31
0.0
  0
LINE
  8
7
  6
CONTINUOUS
 62
     7
  5
BA
 10
915225.296
 20
7280642.188
 30
0.0
 11
915232.174
 21
7280847.072
 31
0.0
  0
LINE
  8
7
  6
CONTINUOUS
 62
     7
  5
BB
 10
915325.239
 20
7280638.833
 30
0.0
 11
915332.117
 21
7280843.718
 31
0.0
  0
LINE
  8
7
  6
CONTINUOUS
 62
     7
  5
BC
 10
915425.183
 20
7280635.478
 30
0.0
 11
915432.061
 21
7280840.362
 31
0.0
  0
LINE
  8
7
  6
CONTINUOUS
 62
     7
  5
BD
 10
915525.127
 20
7280632.122
 30
0.0
 11
915532.004
 21
7280837.007
 31
0.0
  0
LINE
  8
7
  6
CONTINUOUS
 62
     7
  5
BE
 10
915625.07
 20
7280628.768
 30
0.0
 11
915631.948
 21
7280833.652
 31
0.0
  0
LINE
  8
7
  6
CONTINUOUS
 62
     7
  5
BF
 10
915725.013
 20
7280625.412
 30
0.0
 11
915731.892
 21
7280830.297
 31
0.0
  0
LINE
  8
7
  6
CONTINUOUS
 62
     7
  5
C0
 10
915824.957
 20
7280622.058
 30
0.0
 11
915831.835
 21
7280826.942
 31
0.0
  0
LINE
  8
7
  6
CONTINUOUS
 62
     7
  5
C1
 10
915132.9
 20
7280870.416
 30
0.0
 11
915139.778
 21
7281075.301
 31
0.0
  0
LINE
  8
7
  6
CONTINUOUS
 62
     7
  5
C2
 10
915232.844
 20
7280867.061
 30
0.0
 11
915239.722
 21
7281071.945
 31
0.0
  0
LINE
  8
7
  6
CONTINUOUS
 62
     7
  5
C3
 10
915332.788
 20
7280863.706
 30
0.0
 11
915339.666
 21
7281068.591
 31
0.0
  0
LINE
  8
7
  6
CONTINUOUS
 62
     7
  5
C4
 10
915432.732
 20
7280860.351
 30
0.0
 11
915439.61
 21
7281065.235
 31
0.0
  0
LINE
  8
7
  6
CONTINUOUS
 62
     7
  5
C5
 10
915532.675
 20
7280856.996
 30
0.0
 11
915539.554
 21
7281061.881
 31
0.0
  0
LINE
  8
7
  6
CONTINUOUS
 62
     7
  5
C6
 10
915632.619
 20
7280853.641
 30
0.0
 11
915639.497
 21
7281058.525
 31
0.0
  0
LINE
  8
7
  6
CONTINUOUS
 62
     7
  5
C7
 10
915732.563
 20
7280850.285
 30
0.0
 11
915739.441
 21
7281055.17
 31
0.0
  0
LINE
  8
7
  6
CONTINUOUS
 62
     7
  5
C8
 10
915832.507
 20
7280846.931
 30
0.0
 11
915839.385
 21
7281051.815
 31
0.0
  0
LINE
  8
7
  6
CONTINUOUS
 62
     7
  5
C9
 10
913475.784
 20
7280926.046
 30
0.0
 11
913482.662
 21
7281130.931
 31
0.0
  0
LINE
  8
7
  6
CONTINUOUS
 62
     7
  5
CA
 10
913589.22
 20
7280922.238
 30
0.0
 11
913596.098
 21
7281127.123
 31
0.0
  0
LINE
  8
7
  6
CONTINUOUS
 62
     7
  5
CB
 10
913689.164
 20
7280918.883
 30
0.0
 11
913696.042
 21
7281123.767
 31
0.0
  0
LINE
  8
7
  6
CONTINUOUS
 62
     7
  5
CC
 10
913789.107
 20
7280915.527
 30
0.0
 11
913795.985
 21
7281120.412
 31
0.0
  0
LINE
  8
7
  6
CONTINUOUS
 62
     7
  5
CD
 10
913889.051
 20
7280912.173
 30
0.0
 11
913895.929
 21
7281117.057
 31
0.0
  0
LINE
  8
7
  6
CONTINUOUS
 62
     7
  5
CE
 10
913988.995
 20
7280908.817
 30
0.0
 11
913995.873
 21
7281113.702
 31
0.0
  0
LINE
  8
7
  6
CONTINUOUS
 62
     7
  5
CF
 10
914088.939
 20
7280905.463
 30
0.0
 11
914095.817
 21
7281110.347
 31
0.0
  0
LINE
  8
7
  6
CONTINUOUS
 62
     7
  5
D0
 10
914198.877
 20
7280901.771
 30
0.0
 11
914205.755
 21
7281106.656
 31
0.0
  0
LINE
  8
7
  6
CONTINUOUS
 62
     7
  5
D1
 10
914308.814
 20
7280898.081
 30
0.0
 11
914315.692
 21
7281102.966
 31
0.0
  0
LINE
  8
7
  6
CONTINUOUS
 62
     7
  5
D2
 10
914418.753
 20
7280894.391
 30
0.0
 11
914425.631
 21
7281099.275
 31
0.0
  0
LINE
  8
7
  6
CONTINUOUS
 62
     7
  5
D3
 10
914528.691
 20
7280890.7
 30
0.0
 11
914535.569
 21
7281095.584
 31
0.0
  0
LINE
  8
7
  6
CONTINUOUS
 62
     7
  5
D4
 10
914638.629
 20
7280887.009
 30
0.0
 11
914645.507
 21
7281091.894
 31
0.0
  0
LINE
  8
7
  6
CONTINUOUS
 62
     7
  5
D5
 10
914748.567
 20
7280883.319
 30
0.0
 11
914755.445
 21
7281088.204
 31
0.0
  0
LINE
  8
7
  6
CONTINUOUS
 62
     7
  5
D6
 10
914858.506
 20
7280879.628
 30
0.0
 11
914865.384
 21
7281084.512
 31
0.0
  0
LINE
  8
7
  6
CONTINUOUS
 62
     7
  5
D7
 10
913493.875
 20
7281186.585
 30
0.0
 11
913500.753
 21
7281391.47
 31
0.0
  0
LINE
  8
7
  6
CONTINUOUS
 62
     7
  5
D8
 10
913593.819
 20
7281183.231
 30
0.0
 11
913600.697
 21
7281388.115
 31
0.0
  0
LINE
  8
7
  6
CONTINUOUS
 62
     7
  5
D9
 10
913693.763
 20
7281179.875
 30
0.0
 11
913700.641
 21
7281384.76
 31
0.0
  0
LINE
  8
7
  6
CONTINUOUS
 62
     7
  5
DA
 10
913793.707
 20
7281176.52
 30
0.0
 11
913800.585
 21
7281381.404
 31
0.0
  0
LINE
  8
7
  6
CONTINUOUS
 62
     7
  5
DB
 10
913893.65
 20
7281173.165
 30
0.0
 11
913900.528
 21
7281378.05
 31
0.0
  0
LINE
  8
7
  6
CONTINUOUS
 62
     7
  5
DC
 10
914169.495
 20
7281163.905
 30
0.0
 11
914176.373
 21
7281368.789
 31
0.0
  0
LINE
  8
7
  6
CONTINUOUS
 62
     7
  5
DD
 10
914269.439
 20
7281160.549
 30
0.0
 11
914276.317
 21
7281365.435
 31
0.0
  0
LINE
  8
7
  6
CONTINUOUS
 62
     7
  5
DE
 10
914369.383
 20
7281157.195
 30
0.0
 11
914376.26
 21
7281362.079
 31
0.0
  0
LINE
  8
7
  6
CONTINUOUS
 62
     7
  5
DF
 10
914469.326
 20
7281153.839
 30
0.0
 11
914476.204
 21
7281358.724
 31
0.0
  0
LINE
  8
7
  6
CONTINUOUS
 62
     7
  5
E0
 10
914569.27
 20
7281150.485
 30
0.0
 11
914576.148
 21
7281355.369
 31
0.0
  0
LINE
  8
7
  6
CONTINUOUS
 62
     7
  5
E1
 10
914845.115
 20
7281141.224
 30
0.0
 11
914851.993
 21
7281346.109
 31
0.0
  0
LINE
  8
7
  6
CONTINUOUS
 62
     7
  5
E2
 10
914945.058
 20
7281137.869
 30
0.0
 11
914951.936
 21
7281342.753
 31
0.0
  0
LINE
  8
7
  6
CONTINUOUS
 62
     7
  5
E3
 10
915045.002
 20
7281134.514
 30
0.0
 11
915051.88
 21
7281339.399
 31
0.0
  0
LINE
  8
7
  6
CONTINUOUS
 62
     7
  5
E4
 10
915144.946
 20
7281131.159
 30
0.0
 11
915151.824
 21
7281336.043
 31
0.0
  0
LINE
  8
7
  6
CONTINUOUS
 62
     7
  5
E5
 10
915244.89
 20
7281127.804
 30
0.0
 11
915251.768
 21
7281332.689
 31
0.0
  0
LINE
  8
7
  6
CONTINUOUS
 62
     7
  5
E6
 10
915520.734
 20
7281118.544
 30
0.0
 11
915527.612
 21
7281323.428
 31
0.0
  0
LINE
  8
7
  6
CONTINUOUS
 62
     7
  5
E7
 10
915630.672
 20
7281114.854
 30
0.0
 11
915637.55
 21
7281319.738
 31
0.0
  0
LINE
  8
7
  6
CONTINUOUS
 62
     7
  5
E8
 10
915740.61
 20
7281111.162
 30
0.0
 11
915747.489
 21
7281316.047
 31
0.0
  0
LINE
  8
7
  6
CONTINUOUS
 62
     7
  5
E9
 10
915842.053
 20
7281107.758
 30
0.0
 11
915848.931
 21
7281312.642
 31
0.0
  0
ARC
  8
6
  6
CONTINUOUS
 62
     7
  5
EA
 10
915921.631677
 20
7281120.094164
 30
0.0
 40
15.0
 50
268.0773
 51
358.0773
210
0.0
220
0.0
230
1.0
  0
LINE
  8
6
  6
CONTINUOUS
 62
     7
  5
EB
 10
915921.129
 20
7281105.103
 30
0.0
 11
915425.788
 21
7281121.732
 31
0.0
  0
LINE
  8
6
  6
CONTINUOUS
 62
     7
  5
EC
 10
915411.3
 20
7281137.226
 30
0.0
 11
915417.674
 21
7281327.119
 31
0.0
  0
ARC
  8
6
  6
CONTINUOUS
 62
     7
  5
ED
 10
915426.290711
 20
7281136.722784
 30
0.0
 40
15.0
 50
178.0773
 51
268.0773
210
0.0
220
0.0
230
1.0
  0
POLYLINE
  8
6
  6
CONTINUOUS
 62
     7
  5
EE
 66
     1
 10
0.0
 20
0.0
 30
0.0
  0
VERTEX
  8
6
  6
CONTINUOUS
 62
     7
  5
EF
 10
914742.055
 20
7281349.799
 30
0.0
  0
VERTEX
  8
6
  6
CONTINUOUS
 62
     7
  5
F0
 10
915361.706
 20
7281328.998
 30
0.0
  0
VERTEX
  8
6
  6
CONTINUOUS
 62
     7
  5
F1
 10
915355.331
 20
7281139.105
 30
0.0
  0
SEQEND
  8
6
  6
CONTINUOUS
 62
     7
  5
F2
  0
ARC
  8
6
  6
CONTINUOUS
 62
     7
  5
F3
 10
915340.339128
 20
7281139.608183
 30
0.0
 40
15.0
 50
268.0773
 51
358.0773
210
0.0
220
0.0
230
1.0
  0
LINE
  8
6
  6
CONTINUOUS
 62
     7
  5
F4
 10
915339.836
 20
7281124.617
 30
0.0
 11
914750.168
 21
7281144.412
 31
0.0
  0
LINE
  8
6
  6
CONTINUOUS
 62
     7
  5
F5
 10
914735.679
 20
7281159.907
 30
0.0
 11
914742.055
 21
7281349.799
 31
0.0
  0
ARC
  8
6
  6
CONTINUOUS
 62
     7
  5
F6
 10
914750.671297
 20
7281159.40336
 30
0.0
 40
15.0
 50
178.0773
 51
268.0773
210
0.0
220
0.0
230
1.0
  0
POLYLINE
  8
6
  6
CONTINUOUS
 62
     7
  5
F7
 66
     1
 10
0.0
 20
0.0
 30
0.0
  0
VERTEX
  8
6
  6
CONTINUOUS
 62
     7
  5
F8
 10
914066.435
 20
7281372.48
 30
0.0
  0
VERTEX
  8
6
  6
CONTINUOUS
 62
     7
  5
F9
 10
914686.086
 20
7281351.678
 30
0.0
  0
VERTEX
  8
6
  6
CONTINUOUS
 62
     7
  5
FA
 10
914679.711
 20
7281161.786
 30
0.0
  0
SEQEND
  8
6
  6
CONTINUOUS
 62
     7
  5
FB
  0
ARC
  8
6
  6
CONTINUOUS
 62
     7
  5
FC
 10
914664.719715
 20
7281162.288759
 30
0.0
 40
15.0
 50
268.0773
 51
358.0773
210
0.0
220
0.0
230
1.0
  0
LINE
  8
6
  6
CONTINUOUS
 62
     7
  5
FD
 10
914664.217
 20
7281147.297
 30
0.0
 11
914074.548
 21
7281167.093
 31
0.0
  0
LINE
  8
6
  6
CONTINUOUS
 62
     7
  5
FE
 10
914060.06
 20
7281182.587
 30
0.0
 11
914066.435
 21
7281372.48
 31
0.0
  0
ARC
  8
6
  6
CONTINUOUS
 62
     7
  5
FF
 10
914075.051884
 20
7281182.083936
 30
0.0
 40
15.0
 50
178.0773
 51
268.0773
210
0.0
220
0.0
230
1.0
  0
POLYLINE
  8
6
  6
CONTINUOUS
 62
     7
  5
100
 66
     1
 10
0.0
 20
0.0
 30
0.0
  0
VERTEX
  8
6
  6
CONTINUOUS
 62
     7
  5
101
 10
914004.092
 20
7281184.466
 30
0.0
  0
VERTEX
  8
6
  6
CONTINUOUS
 62
     7
  5
102
 10
914010.466
 20
7281374.36
 30
0.0
  0
VERTEX
  8
6
  6
CONTINUOUS
 62
     7
  5
103
 10
913390.676
 20
7281395.166
 30
0.0
  0
VERTEX
  8
6
  6
CONTINUOUS
 62
     7
  5
104
 10
913384.301
 20
7281205.273
 30
0.0
  0
SEQEND
  8
6
  6
CONTINUOUS
 62
     7
  5
105
  0
LINE
  8
6
  6
CONTINUOUS
 62
     7
  5
106
 10
913398.789
 20
7281189.777
 30
0.0
 11
913988.597
 21
7281169.978
 31
0.0
  0
ARC
  8
6
  6
CONTINUOUS
 62
     7
  5
107
 10
913989.100302
 20
7281184.969335
 30
0.0
 40
15.0
 50
268.0773
 51
358.0773
210
0.0
220
0.0
230
1.0
  0
LINE
  8
6
  6
CONTINUOUS
 62
     7
  5
108
 10
914966.994
 20
7280875.986
 30
0.0
 11
914973.369
 21
7281065.879
 31
0.0
  0
ARC
  8
6
  6
CONTINUOUS
 62
     7
  5
109
 10
914958.377269
 20
7281066.382216
 30
0.0
 40
15.0
 50
358.0773
 51
88.0773
210
0.0
220
0.0
230
1.0
  0
ARC
  8
6
  6
CONTINUOUS
 62
     7
  5
10A
 10
914944.95681
 20
7280666.607415
 30
0.0
 40
15.0
 50
268.0773
 51
358.0773
210
0.0
220
0.0
230
1.0
  0
LINE
  8
6
  6
CONTINUOUS
 62
     7
  5
10B
 10
915904.823
 20
7280619.376
 30
0.0
 11
915030.405
 21
7280648.73
 31
0.0
  0
POLYLINE
  8
6
  6
CONTINUOUS
 62
     7
  5
10C
 66
     1
 10
0.0
 20
0.0
 30
0.0
  0
VERTEX
  8
6
  6
CONTINUOUS
 62
     7
  5
10D
 10
915015.917
 20
7280664.226
 30
0.0
  0
VERTEX
  8
6
  6
CONTINUOUS
 62
     7
  5
10E
 10
915022.291
 20
7280854.118
 30
0.0
  0
VERTEX
  8
6
  6
CONTINUOUS
 62
     7
  5
10F
 10
915926.693
 20
7280823.758
 30
0.0
  0
VERTEX
  8
6
  6
CONTINUOUS
 62
     7
  5
110
 10
915920.317
 20
7280633.864
 30
0.0
  0
SEQEND
  8
6
  6
CONTINUOUS
 62
     7
  5
111
  0
ARC
  8
6
  6
CONTINUOUS
 62
     7
  5
112
 10
915030.908392
 20
7280663.722016
 30
0.0
 40
15.0
 50
178.0773
 51
268.0773
210
0.0
220
0.0
230
1.0
  0
POLYLINE
  8
6
  6
CONTINUOUS
 62
     7
  5
113
 66
     1
 10
0.0
 20
0.0
 30
0.0
  0
VERTEX
  8
6
  6
CONTINUOUS
 62
     7
  5
114
 10
915927.363
 20
7280843.746
 30
0.0
  0
VERTEX
  8
6
  6
CONTINUOUS
 62
     7
  5
115
 10
915022.963
 20
7280874.107
 30
0.0
  0
VERTEX
  8
6
  6
CONTINUOUS
 62
     7
  5
116
 10
915029.337
 20
7281064.0
 30
0.0
  0
SEQEND
  8
6
  6
CONTINUOUS
 62
     7
  5
117
  0
ARC
  8
6
  6
CONTINUOUS
 62
     7
  5
118
 10
915044.328852
 20
7281063.496817
 30
0.0
 40
15.0
 50
88.0773
 51
178.0773
210
0.0
220
0.0
230
1.0
  0
LINE
  8
6
  6
CONTINUOUS
 62
     7
  5
119
 10
915044.832
 20
7281078.489
 30
0.0
 11
915919.25
 21
7281049.134
 31
0.0
  0
LINE
  8
6
  6
CONTINUOUS
 62
     7
  5
11A
 10
915933.737
 20
7281033.639
 30
0.0
 11
915927.363
 21
7280843.746
 31
0.0
  0
ARC
  8
6
  6
CONTINUOUS
 62
     7
  5
11B
 10
915918.746279
 20
7281034.142582
 30
0.0
 40
15.0
 50
358.0773
 51
88.0773
210
0.0
220
0.0
230
1.0
  0
ARC
  8
6
  6
CONTINUOUS
 62
     7
  5
11C
 10
915905.32582
 20
7280634.367782
 30
0.0
 40
15.0
 50
268.0773
 51
358.0773
210
0.0
220
0.0
230
1.0
  0
ARC
  8
6
  6
CONTINUOUS
 62
     7
  5
11D
 10
915902.440421
 20
7280548.416199
 30
0.0
 40
15.0
 50
358.0773
 51
88.0773
210
0.0
220
0.0
230
1.0
  0
LINE
  8
6
  6
CONTINUOUS
 62
     7
  5
11E
 10
915902.944
 20
7280563.408
 30
0.0
 11
915328.297
 21
7280582.699
 31
0.0
  0
POLYLINE
  8
6
  6
CONTINUOUS
 62
     7
  5
11F
 66
     1
 10
0.0
 20
0.0
 30
0.0
  0
VERTEX
  8
6
  6
CONTINUOUS
 62
     7
  5
120
 10
915312.803
 20
7280568.21
 30
0.0
  0
VERTEX
  8
6
  6
CONTINUOUS
 62
     7
  5
121
 10
915306.428
 20
7280378.318
 30
0.0
  0
VERTEX
  8
6
  6
CONTINUOUS
 62
     7
  5
122
 10
915911.057
 20
7280358.02
 30
0.0
  0
SEQEND
  8
6
  6
CONTINUOUS
 62
     7
  5
123
  0
ARC
  8
6
  6
CONTINUOUS
 62
     7
  5
124
 10
915327.794128
 20
7280567.707103
 30
0.0
 40
15.0
 50
88.0773
 51
178.0773
210
0.0
220
0.0
230
1.0
  0
ARC
  8
6
  6
CONTINUOUS
 62
     7
  5
125
 10
915241.842546
 20
7280570.592502
 30
0.0
 40
15.0
 50
358.0773
 51
88.0773
210
0.0
220
0.0
230
1.0
  0
LINE
  8
6
  6
CONTINUOUS
 62
     7
  5
126
 10
914053.016
 20
7280625.51
 30
0.0
 11
915242.346
 21
7280585.584
 31
0.0
  0
POLYLINE
  8
6
  6
CONTINUOUS
 62
     7
  5
127
 66
     1
 10
0.0
 20
0.0
 30
0.0
  0
VERTEX
  8
6
  6
CONTINUOUS
 62
     7
  5
128
 10
915256.834
 20
7280570.089
 30
0.0
  0
VERTEX
  8
6
  6
CONTINUOUS
 62
     7
  5
129
 10
915250.46
 20
7280380.196
 30
0.0
  0
VERTEX
  8
6
  6
CONTINUOUS
 62
     7
  5
12A
 10
914031.146
 20
7280421.128
 30
0.0
  0
VERTEX
  8
6
  6
CONTINUOUS
 62
     7
  5
12B
 10
914037.521
 20
7280611.022
 30
0.0
  0
SEQEND
  8
6
  6
CONTINUOUS
 62
     7
  5
12C
  0
ARC
  8
6
  6
CONTINUOUS
 62
     7
  5
12D
 10
914052.512514
 20
7280610.518367
 30
0.0
 40
15.0
 50
88.0773
 51
178.0773
210
0.0
220
0.0
230
1.0
  0
ARC
  8
6
  6
CONTINUOUS
 62
     7
  5
12E
 10
913966.560932
 20
7280613.403766
 30
0.0
 40
15.0
 50
358.0773
 51
88.0773
210
0.0
220
0.0
230
1.0
  0
ARC
  8
6
  6
CONTINUOUS
 62
     7
  5
12F
 10
913953.140473
 20
7280213.628965
 30
0.0
 40
15.0
 50
268.0773
 51
358.0773
210
0.0
220
0.0
230
1.0
  0
POLYLINE
  8
6
  6
CONTINUOUS
 62
     7
  5
130
 66
     1
 10
0.0
 20
0.0
 30
0.0
  0
VERTEX
  8
6
  6
CONTINUOUS
 62
     7
  5
131
 10
914024.101
 20
7280211.247
 30
0.0
  0
VERTEX
  8
6
  6
CONTINUOUS
 62
     7
  5
132
 10
914030.475
 20
7280401.14
 30
0.0
  0
VERTEX
  8
6
  6
CONTINUOUS
 62
     7
  5
133
 10
915249.788
 20
7280360.208
 30
0.0
  0
SEQEND
  8
6
  6
CONTINUOUS
 62
     7
  5
134
  0
ARC
  8
6
  6
CONTINUOUS
 62
     7
  5
135
 10
914039.092055
 20
7280210.743567
 30
0.0
 40
15.0
 50
178.0773
 51
268.0773
210
0.0
220
0.0
230
1.0
  0
LINE
  8
6
  6
CONTINUOUS
 62
     7
  5
136
 10
915227.919
 20
7280155.826
 30
0.0
 11
914038.589
 21
7280195.752
 31
0.0
  0
LINE
  8
6
  6
CONTINUOUS
 62
     7
  5
137
 10
915249.788
 20
7280360.208
 30
0.0
 11
915243.414
 21
7280170.314
 31
0.0
  0
ARC
  8
6
  6
CONTINUOUS
 62
     7
  5
138
 10
915228.422087
 20
7280170.817701
 30
0.0
 40
15.0
 50
268.0773
 51
358.0773
210
0.0
220
0.0
230
1.0
  0
POLYLINE
  8
6
  6
CONTINUOUS
 62
     7
  5
139
 66
     1
 10
0.0
 20
0.0
 30
0.0
  0
VERTEX
  8
6
  6
CONTINUOUS
 62
     7
  5
13A
 10
915910.386
 20
7280338.031
 30
0.0
  0
VERTEX
  8
6
  6
CONTINUOUS
 62
     7
  5
13B
 10
915305.757
 20
7280358.329
 30
0.0
  0
VERTEX
  8
6
  6
CONTINUOUS
 62
     7
  5
13C
 10
915299.382
 20
7280168.435
 30
0.0
  0
SEQEND
  8
6
  6
CONTINUOUS
 62
     7
  5
13D
  0
LINE
  8
6
  6
CONTINUOUS
 62
     7
  5
13E
 10
915313.87
 20
7280152.941
 30
0.0
 11
915888.516
 21
7280133.65
 31
0.0
  0
ARC
  8
6
  6
CONTINUOUS
 62
     7
  5
13F
 10
915314.373669
 20
7280167.932302
 30
0.0
 40
15.0
 50
178.0773
 51
268.0773
210
0.0
220
0.0
230
1.0
  0
ARC
  8
6
  6
CONTINUOUS
 62
     7
  5
140
 10
915889.019962
 20
7280148.641399
 30
0.0
 40
15.0
 50
268.0773
 51
358.0773
210
0.0
220
0.0
230
1.0
  0
ARC
  8
6
  6
CONTINUOUS
 62
     7
  5
141
 10
915885.385406
 20
7280062.714966
 30
0.0
 40
15.0
 50
355.284467
 51
88.0773
210
0.0
220
0.0
230
1.0
  0
ARC
  8
6
  6
CONTINUOUS
 62
     7
  5
142
 10
914972.099453
 20
7280093.374019
 30
0.0
 40
15.0
 50
88.0773
 51
178.0773
210
0.0
220
0.0
230
1.0
  0
POLYLINE
  8
6
  6
CONTINUOUS
 62
     7
  5
143
 66
     1
 10
0.0
 20
0.0
 30
0.0
  0
VERTEX
  8
6
  6
CONTINUOUS
 62
     7
  5
144
 10
913342.429
 20
7279957.975
 30
0.0
  0
VERTEX
  8
6
  6
CONTINUOUS
 62
     7
  5
145
 10
914890.767
 20
7279905.997
 30
0.0
  0
VERTEX
  8
6
  6
CONTINUOUS
 62
     7
  5
146
 10
914897.142
 20
7280095.891
 30
0.0
  0
SEQEND
  8
6
  6
CONTINUOUS
 62
     7
  5
147
  0
ARC
  8
6
  6
CONTINUOUS
 62
     7
  5
148
 10
914882.150123
 20
7280096.393622
 30
0.0
 40
15.0
 50
358.0773
 51
88.0773
210
0.0
220
0.0
230
1.0
  0
LINE
  8
6
  6
CONTINUOUS
 62
     7
  5
149
 10
914882.882
 20
7279671.13
 30
0.0
 11
914890.096
 21
7279886.009
 31
0.0
  0
LINE
  8
6
  6
CONTINUOUS
 62
     7
  5
14A
 10
914752.452
 20
7279660.5
 30
0.0
 11
914867.388
 21
7279656.641
 31
0.0
  0
ARC
  8
6
  6
CONTINUOUS
 62
     7
  5
14B
 10
914867.890885
 20
7279671.632896
 30
0.0
 40
15.0
 50
268.0773
 51
358.0773
210
0.0
220
0.0
230
1.0
  0
POLYLINE
  8
6
  6
CONTINUOUS
 62
     7
  5
14C
 66
     1
 10
0.0
 20
0.0
 30
0.0
  0
VERTEX
  8
6
  6
CONTINUOUS
 62
     7
  5
14D
 10
914942.848
 20
7279669.116
 30
0.0
  0
VERTEX
  8
6
  6
CONTINUOUS
 62
     7
  5
14E
 10
914950.062
 20
7279883.995
 30
0.0
  0
VERTEX
  8
6
  6
CONTINUOUS
 62
     7
  5
14F
 10
915069.994
 20
7279879.969
 30
0.0
  0
SEQEND
  8
6
  6
CONTINUOUS
 62
     7
  5
150
  0
LINE
  8
6
  6
CONTINUOUS
 62
     7
  5
151
 10
915072.272
 20
7279649.764
 30
0.0
 11
914957.337
 21
7279653.622
 31
0.0
  0
ARC
  8
6
  6
CONTINUOUS
 62
     7
  5
152
 10
914957.840215
 20
7279668.613293
 30
0.0
 40
15.0
 50
178.0773
 51
268.0773
210
0.0
220
0.0
230
1.0
  0
ARC
  8
6
  6
CONTINUOUS
 62
     7
  5
153
 10
915847.392668
 20
7279653.759425
 30
0.0
 40
30.0
 50
268.0773
 51
358.0773
210
0.0
220
0.0
230
1.0
  0
LINE
  8
6
  6
CONTINUOUS
 62
     7
  5
154
 10
913348.803
 20
7280147.868
 30
0.0
 11
913342.429
 21
7279957.975
 31
0.0
  0
LINE
  8
6
  6
CONTINUOUS
 62
     7
  5
155
 10
914882.654
 20
7280111.385
 30
0.0
 11
913364.299
 21
7280162.356
 31
0.0
  0
ARC
  8
6
  6
CONTINUOUS
 62
     7
  5
156
 10
913363.795436
 20
7280147.364861
 30
0.0
 40
15.0
 50
88.0773
 51
178.0773
210
0.0
220
0.0
230
1.0
  0
LINE
  8
6
  6
CONTINUOUS
 62
     7
  5
157
 10
913952.637
 20
7280198.638
 30
0.0
 11
913366.178
 21
7280218.325
 31
0.0
  0
POLYLINE
  8
6
  6
CONTINUOUS
 62
     7
  5
158
 66
     1
 10
0.0
 20
0.0
 30
0.0
  0
VERTEX
  8
6
  6
CONTINUOUS
 62
     7
  5
159
 10
913351.689
 20
7280233.82
 30
0.0
  0
VERTEX
  8
6
  6
CONTINUOUS
 62
     7
  5
15A
 10
913358.064
 20
7280423.713
 30
0.0
  0
VERTEX
  8
6
  6
CONTINUOUS
 62
     7
  5
15B
 10
913974.507
 20
7280403.019
 30
0.0
  0
SEQEND
  8
6
  6
CONTINUOUS
 62
     7
  5
15C
  0
ARC
  8
6
  6
CONTINUOUS
 62
     7
  5
15D
 10
913366.680834
 20
7280233.316443
 30
0.0
 40
15.0
 50
178.0773
 51
268.0773
210
0.0
220
0.0
230
1.0
  0
POLYLINE
  8
6
  6
CONTINUOUS
 62
     7
  5
15E
 66
     1
 10
0.0
 20
0.0
 30
0.0
  0
VERTEX
  8
6
  6
CONTINUOUS
 62
     7
  5
15F
 10
913975.178
 20
7280423.007
 30
0.0
  0
VERTEX
  8
6
  6
CONTINUOUS
 62
     7
  5
160
 10
913358.735
 20
7280443.702
 30
0.0
  0
VERTEX
  8
6
  6
CONTINUOUS
 62
     7
  5
161
 10
913365.11
 20
7280633.594
 30
0.0
  0
SEQEND
  8
6
  6
CONTINUOUS
 62
     7
  5
162
  0
LINE
  8
6
  6
CONTINUOUS
 62
     7
  5
163
 10
913380.604
 20
7280648.083
 30
0.0
 11
913967.064
 21
7280628.395
 31
0.0
  0
ARC
  8
6
  6
CONTINUOUS
 62
     7
  5
164
 10
913380.101293
 20
7280633.091244
 30
0.0
 40
15.0
 50
88.0773
 51
178.0773
210
0.0
220
0.0
230
1.0
  0
LINE
  8
6
  6
CONTINUOUS
 62
     7
  5
165
 10
913382.483
 20
7280704.052
 30
0.0
 11
914944.454
 21
7280651.616
 31
0.0
  0
POLYLINE
  8
6
  6
CONTINUOUS
 62
     7
  5
166
 66
     1
 10
0.0
 20
0.0
 30
0.0
  0
VERTEX
  8
6
  6
CONTINUOUS
 62
     7
  5
167
 10
914959.948
 20
7280666.104
 30
0.0
  0
VERTEX
  8
6
  6
CONTINUOUS
 62
     7
  5
168
 10
914966.323
 20
7280855.997
 30
0.0
  0
VERTEX
  8
6
  6
CONTINUOUS
 62
     7
  5
169
 10
913374.37
 20
7280909.439
 30
0.0
  0
VERTEX
  8
6
  6
CONTINUOUS
 62
     7
  5
16A
 10
913367.995
 20
7280719.546
 30
0.0
  0
SEQEND
  8
6
  6
CONTINUOUS
 62
     7
  5
16B
  0
ARC
  8
6
  6
CONTINUOUS
 62
     7
  5
16C
 10
913382.986692
 20
7280719.042826
 30
0.0
 40
15.0
 50
178.0773
 51
268.0773
210
0.0
220
0.0
230
1.0
  0
POLYLINE
  8
6
  6
CONTINUOUS
 62
     7
  5
16D
 66
     1
 10
0.0
 20
0.0
 30
0.0
  0
VERTEX
  8
6
  6
CONTINUOUS
 62
     7
  5
16E
 10
913381.416
 20
7281119.321
 30
0.0
  0
VERTEX
  8
6
  6
CONTINUOUS
 62
     7
  5
16F
 10
913375.04
 20
7280929.427
 30
0.0
  0
VERTEX
  8
6
  6
CONTINUOUS
 62
     7
  5
170
 10
914966.994
 20
7280875.986
 30
0.0
  0
SEQEND
  8
6
  6
CONTINUOUS
 62
     7
  5
171
  0
LINE
  8
6
  6
CONTINUOUS
 62
     7
  5
172
 10
914958.881
 20
7281081.374
 30
0.0
 11
913396.91
 21
7281133.809
 31
0.0
  0
ARC
  8
6
  6
CONTINUOUS
 62
     7
  5
173
 10
913396.407151
 20
7281118.817627
 30
0.0
 40
15.0
 50
88.0773
 51
178.0773
210
0.0
220
0.0
230
1.0
  0
ARC
  8
6
  6
CONTINUOUS
 62
     7
  5
174
 10
913399.29255
 20
7281204.769209
 30
0.0
 40
15.0
 50
178.0773
 51
268.0773
210
0.0
220
0.0
230
1.0
  0
ARC
  8
6
  6
CONTINUOUS
 62
     7
  5
175
 10
913372.077051
 20
7279736.855888
 30
0.0
 40
30.0
 50
178.0773
 51
268.0773
210
0.0
220
0.0
230
1.0
  0
POLYLINE
  8
6
  6
CONTINUOUS
 62
     7
  5
176
 66
     1
 10
0.0
 20
0.0
 30
0.0
  0
VERTEX
  8
6
  6
CONTINUOUS
 62
     7
  5
177
 10
913681.323
 20
7281405.42
 30
0.0
  0
VERTEX
  8
6
  6
CONTINUOUS
 62
     7
  5
178
 10
913391.347
 20
7281415.154
 30
0.0
  0
VERTEX
  8
6
  6
CONTINUOUS
 62
     7
  5
179
 10
913419.21
 20
7282245.166
 30
0.0
  0
SEQEND
  8
6
  6
CONTINUOUS
 62
     7
  5
17A
  0
LINE
  8
6
  6
CONTINUOUS
 62
     7
  5
17B
 10
913691.653
 20
7281415.079
 30
0.0
 11
913719.685
 21
7282250.089
 31
0.0
  0
LINE
  8
6
  6
CONTINUOUS
 62
     7
  5
17C
 10
913719.685
 20
7282250.089
 30
0.0
 11
913434.705
 21
7282259.655
 31
0.0
  0
POLYLINE
  8
6
  6
CONTINUOUS
 62
     7
  5
17D
 66
     1
 10
0.0
 20
0.0
 30
0.0
  0
VERTEX
  8
6
  6
CONTINUOUS
 62
     7
  5
17E
 10
915943.669
 20
7281329.473
 30
0.0
  0
VERTEX
  8
6
  6
CONTINUOUS
 62
     7
  5
17F
 10
915698.188
 20
7281337.713
 30
0.0
  0
VERTEX
  8
6
  6
CONTINUOUS
 62
     7
  5
180
 10
915688.528
 20
7281348.043
 30
0.0
  0
VERTEX
  8
6
  6
CONTINUOUS
 62
     7
  5
181
 10
915716.559
 20
7282183.053
 30
0.0
  0
SEQEND
  8
6
  6
CONTINUOUS
 62
     7
  5
182
  0
LINE
  8
6
  6
CONTINUOUS
 62
     7
  5
183
 10
915418.345
 20
7281347.107
 30
0.0
 11
915658.209
 21
7281339.055
 31
0.0
  0
LINE
  8
6
  6
CONTINUOUS
 62
     7
  5
184
 10
913681.323
 20
7281405.42
 30
0.0
 11
913691.653
 21
7281415.079
 31
0.0
  0
LINE
  8
6
  6
CONTINUOUS
 62
     7
  5
185
 10
914367.272
 20
7281392.398
 30
0.0
 11
914356.942
 21
7281382.74
 31
0.0
  0
LINE
  8
6
  6
CONTINUOUS
 62
     7
  5
186
 10
915042.892
 20
7281369.718
 30
0.0
 11
915032.563
 21
7281360.059
 31
0.0
  0
LINE
  8
6
  6
CONTINUOUS
 62
     7
  5
187
 10
915668.539
 20
7281348.715
 30
0.0
 11
915658.209
 21
7281339.055
 31
0.0
  0
LINE
  8
7
  6
CONTINUOUS
 62
     7
  5
188
 10
913396.044
 20
7281555.075
 30
0.0
 11
913696.015
 21
7281545.005
 31
0.0
  0
LINE
  8
7
  6
CONTINUOUS
 62
     7
  5
189
 10
913400.741
 20
7281694.996
 30
0.0
 11
913700.713
 21
7281684.926
 31
0.0
  0
LINE
  8
7
  6
CONTINUOUS
 62
     7
  5
18A
 10
913405.438
 20
7281834.917
 30
0.0
 11
913705.409
 21
7281824.848
 31
0.0
  0
LINE
  8
7
  6
CONTINUOUS
 62
     7
  5
18B
 10
913410.136
 20
7281974.839
 30
0.0
 11
913710.107
 21
7281964.769
 31
0.0
  0
LINE
  8
7
  6
CONTINUOUS
 62
     7
  5
18C
 10
913414.832
 20
7282114.76
 30
0.0
 11
913714.803
 21
7282104.69
 31
0.0
  0
LINE
  8
7
  6
CONTINUOUS
 62
     7
  5
18D
 10
914015.834
 20
7281534.269
 30
0.0
 11
913716.004
 21
7281544.335
 31
0.0
  0
LINE
  8
7
  6
CONTINUOUS
 62
     7
  5
18E
 10
914020.532
 20
7281674.19
 30
0.0
 11
913720.701
 21
7281684.256
 31
0.0
  0
LINE
  8
7
  6
CONTINUOUS
 62
     7
  5
18F
 10
914025.229
 20
7281814.111
 30
0.0
 11
913725.398
 21
7281824.177
 31
0.0
  0
LINE
  8
7
  6
CONTINUOUS
 62
     7
  5
190
 10
914029.926
 20
7281954.033
 30
0.0
 11
913730.095
 21
7281964.098
 31
0.0
  0
LINE
  8
7
  6
CONTINUOUS
 62
     7
  5
191
 10
914034.624
 20
7282093.954
 30
0.0
 11
913734.793
 21
7282104.019
 31
0.0
  0
LINE
  8
7
  6
CONTINUOUS
 62
     7
  5
192
 10
914371.634
 20
7281522.325
 30
0.0
 11
914071.803
 21
7281532.39
 31
0.0
  0
LINE
  8
7
  6
CONTINUOUS
 62
     7
  5
193
 10
914376.332
 20
7281662.246
 30
0.0
 11
914076.5
 21
7281672.312
 31
0.0
  0
LINE
  8
7
  6
CONTINUOUS
 62
     7
  5
194
 10
914381.028
 20
7281802.167
 30
0.0
 11
914081.198
 21
7281812.233
 31
0.0
  0
LINE
  8
7
  6
CONTINUOUS
 62
     7
  5
195
 10
914385.726
 20
7281942.088
 30
0.0
 11
914085.895
 21
7281952.154
 31
0.0
  0
LINE
  8
7
  6
CONTINUOUS
 62
     7
  5
196
 10
914390.423
 20
7282082.009
 30
0.0
 11
914090.592
 21
7282092.075
 31
0.0
  0
LINE
  8
7
  6
CONTINUOUS
 62
     7
  5
197
 10
914691.455
 20
7281511.589
 30
0.0
 11
914391.623
 21
7281521.653
 31
0.0
  0
LINE
  8
7
  6
CONTINUOUS
 62
     7
  5
198
 10
914696.151
 20
7281651.51
 30
0.0
 11
914396.32
 21
7281661.574
 31
0.0
  0
LINE
  8
7
  6
CONTINUOUS
 62
     7
  5
199
 10
914700.849
 20
7281791.431
 30
0.0
 11
914401.017
 21
7281801.497
 31
0.0
  0
LINE
  8
7
  6
CONTINUOUS
 62
     7
  5
19A
 10
914705.545
 20
7281931.352
 30
0.0
 11
914405.714
 21
7281941.418
 31
0.0
  0
LINE
  8
7
  6
CONTINUOUS
 62
     7
  5
19B
 10
914710.243
 20
7282071.273
 30
0.0
 11
914410.412
 21
7282081.339
 31
0.0
  0
LINE
  8
7
  6
CONTINUOUS
 62
     7
  5
19C
 10
915047.253
 20
7281499.644
 30
0.0
 11
914747.423
 21
7281509.71
 31
0.0
  0
LINE
  8
7
  6
CONTINUOUS
 62
     7
  5
19D
 10
915051.951
 20
7281639.565
 30
0.0
 11
914752.12
 21
7281649.631
 31
0.0
  0
LINE
  8
7
  6
CONTINUOUS
 62
     7
  5
19E
 10
915056.649
 20
7281779.487
 30
0.0
 11
914756.817
 21
7281789.552
 31
0.0
  0
LINE
  8
7
  6
CONTINUOUS
 62
     7
  5
19F
 10
915061.345
 20
7281919.408
 30
0.0
 11
914761.514
 21
7281929.473
 31
0.0
  0
LINE
  8
7
  6
CONTINUOUS
 62
     7
  5
1A0
 10
915066.043
 20
7282059.329
 30
0.0
 11
914766.211
 21
7282069.394
 31
0.0
  0
LINE
  8
7
  6
CONTINUOUS
 62
     7
  5
1A1
 10
915367.074
 20
7281488.908
 30
0.0
 11
915067.242
 21
7281498.973
 31
0.0
  0
LINE
  8
7
  6
CONTINUOUS
 62
     7
  5
1A2
 10
915371.77
 20
7281628.829
 30
0.0
 11
915071.94
 21
7281638.894
 31
0.0
  0
LINE
  8
7
  6
CONTINUOUS
 62
     7
  5
1A3
 10
915376.468
 20
7281768.751
 30
0.0
 11
915076.637
 21
7281778.815
 31
0.0
  0
LINE
  8
7
  6
CONTINUOUS
 62
     7
  5
1A4
 10
915381.165
 20
7281908.672
 30
0.0
 11
915081.334
 21
7281918.737
 31
0.0
  0
LINE
  8
7
  6
CONTINUOUS
 62
     7
  5
1A5
 10
915385.862
 20
7282048.593
 30
0.0
 11
915086.031
 21
7282058.658
 31
0.0
  0
LINE
  8
7
  6
CONTINUOUS
 62
     7
  5
1A6
 10
915423.042
 20
7281487.029
 30
0.0
 11
915672.901
 21
7281478.642
 31
0.0
  0
LINE
  8
7
  6
CONTINUOUS
 62
     7
  5
1A7
 10
915948.366
 20
7281469.394
 30
0.0
 11
915692.89
 21
7281477.97
 31
0.0
  0
LINE
  8
7
  6
CONTINUOUS
 62
     7
  5
1A8
 10
915427.739
 20
7281626.951
 30
0.0
 11
915677.599
 21
7281618.563
 31
0.0
  0
LINE
  8
7
  6
CONTINUOUS
 62
     7
  5
1A9
 10
915432.436
 20
7281766.872
 30
0.0
 11
915682.295
 21
7281758.484
 31
0.0
  0
LINE
  8
7
  6
CONTINUOUS
 62
     7
  5
1AA
 10
915437.134
 20
7281906.793
 30
0.0
 11
915686.993
 21
7281898.405
 31
0.0
  0
LINE
  8
7
  6
CONTINUOUS
 62
     7
  5
1AB
 10
915441.831
 20
7282046.714
 30
0.0
 11
915691.69
 21
7282038.326
 31
0.0
  0
LINE
  8
7
  6
CONTINUOUS
 62
     7
  5
1AC
 10
915953.063
 20
7281609.315
 30
0.0
 11
915697.587
 21
7281617.891
 31
0.0
  0
LINE
  8
7
  6
CONTINUOUS
 62
     7
  5
1AD
 10
915957.761
 20
7281749.236
 30
0.0
 11
915702.284
 21
7281757.812
 31
0.0
  0
LINE
  8
7
  6
CONTINUOUS
 62
     7
  5
1AE
 10
915962.457
 20
7281889.157
 30
0.0
 11
915706.981
 21
7281897.733
 31
0.0
  0
LINE
  8
7
  6
CONTINUOUS
 62
     7
  5
1AF
 10
915967.155
 20
7282029.079
 30
0.0
 11
915711.679
 21
7282037.655
 31
0.0
  0
ARC
  8
6
  6
CONTINUOUS
 62
     7
  5
1B0
 10
913434.201848
 20
7282244.663421
 30
0.0
 40
15.0
 50
88.0773
 51
178.0773
210
0.0
220
0.0
230
1.0
  0
POLYLINE
  8
6
  6
CONTINUOUS
 62
     7
  5
1B1
 66
     1
 10
0.0
 20
0.0
 30
0.0
  0
VERTEX
  8
6
  6
CONTINUOUS
 62
     7
  5
1B2
 10
914011.138
 20
7281394.348
 30
0.0
  0
VERTEX
  8
6
  6
CONTINUOUS
 62
     7
  5
1B3
 10
913721.301
 20
7281404.078
 30
0.0
  0
VERTEX
  8
6
  6
CONTINUOUS
 62
     7
  5
1B4
 10
913711.642
 20
7281414.408
 30
0.0
  0
VERTEX
  8
6
  6
CONTINUOUS
 62
     7
  5
1B5
 10
913739.673
 20
7282249.417
 30
0.0
  0
VERTEX
  8
6
  6
CONTINUOUS
 62
     7
  5
1B6
 10
914024.513
 20
7282239.855
 30
0.0
  0
SEQEND
  8
6
  6
CONTINUOUS
 62
     7
  5
1B7
  0
LINE
  8
6
  6
CONTINUOUS
 62
     7
  5
1B8
 10
914039.001
 20
7282224.36
 30
0.0
 11
914011.138
 21
7281394.348
 31
0.0
  0
ARC
  8
6
  6
CONTINUOUS
 62
     7
  5
1B9
 10
914024.0096
 20
7282224.863546
 30
0.0
 40
15.0
 50
358.0773
 51
88.0773
210
0.0
220
0.0
230
1.0
  0
POLYLINE
  8
6
  6
CONTINUOUS
 62
     7
  5
1BA
 66
     1
 10
0.0
 20
0.0
 30
0.0
  0
VERTEX
  8
6
  6
CONTINUOUS
 62
     7
  5
1BB
 10
914356.942
 20
7281382.74
 30
0.0
  0
VERTEX
  8
6
  6
CONTINUOUS
 62
     7
  5
1BC
 10
914067.106
 20
7281392.469
 30
0.0
  0
VERTEX
  8
6
  6
CONTINUOUS
 62
     7
  5
1BD
 10
914094.969
 20
7282222.482
 30
0.0
  0
SEQEND
  8
6
  6
CONTINUOUS
 62
     7
  5
1BE
  0
POLYLINE
  8
6
  6
CONTINUOUS
 62
     7
  5
1BF
 66
     1
 10
0.0
 20
0.0
 30
0.0
  0
VERTEX
  8
6
  6
CONTINUOUS
 62
     7
  5
1C0
 10
914110.464
 20
7282236.97
 30
0.0
  0
VERTEX
  8
6
  6
CONTINUOUS
 62
     7
  5
1C1
 10
914395.304
 20
7282227.408
 30
0.0
  0
VERTEX
  8
6
  6
CONTINUOUS
 62
     7
  5
1C2
 10
914367.272
 20
7281392.398
 30
0.0
  0
SEQEND
  8
6
  6
CONTINUOUS
 62
     7
  5
1C3
  0
ARC
  8
6
  6
CONTINUOUS
 62
     7
  5
1C4
 10
914109.961182
 20
7282221.978148
 30
0.0
 40
15.0
 50
88.0773
 51
178.0773
210
0.0
220
0.0
230
1.0
  0
POLYLINE
  8
6
  6
CONTINUOUS
 62
     7
  5
1C5
 66
     1
 10
0.0
 20
0.0
 30
0.0
  0
VERTEX
  8
6
  6
CONTINUOUS
 62
     7
  5
1C6
 10
914686.757
 20
7281371.668
 30
0.0
  0
VERTEX
  8
6
  6
CONTINUOUS
 62
     7
  5
1C7
 10
914396.921
 20
7281381.397
 30
0.0
  0
VERTEX
  8
6
  6
CONTINUOUS
 62
     7
  5
1C8
 10
914387.261
 20
7281391.727
 30
0.0
  0
VERTEX
  8
6
  6
CONTINUOUS
 62
     7
  5
1C9
 10
914415.292
 20
7282226.737
 30
0.0
  0
VERTEX
  8
6
  6
CONTINUOUS
 62
     7
  5
1CA
 10
914700.132
 20
7282217.175
 30
0.0
  0
SEQEND
  8
6
  6
CONTINUOUS
 62
     7
  5
1CB
  0
LINE
  8
6
  6
CONTINUOUS
 62
     7
  5
1CC
 10
914714.621
 20
7282201.68
 30
0.0
 11
914686.757
 21
7281371.668
 31
0.0
  0
ARC
  8
6
  6
CONTINUOUS
 62
     7
  5
1CD
 10
914699.629013
 20
7282202.18297
 30
0.0
 40
15.0
 50
358.0773
 51
88.0773
210
0.0
220
0.0
230
1.0
  0
POLYLINE
  8
6
  6
CONTINUOUS
 62
     7
  5
1CE
 66
     1
 10
0.0
 20
0.0
 30
0.0
  0
VERTEX
  8
6
  6
CONTINUOUS
 62
     7
  5
1CF
 10
915032.563
 20
7281360.059
 30
0.0
  0
VERTEX
  8
6
  6
CONTINUOUS
 62
     7
  5
1D0
 10
914742.725
 20
7281369.789
 30
0.0
  0
VERTEX
  8
6
  6
CONTINUOUS
 62
     7
  5
1D1
 10
914770.589
 20
7282199.801
 30
0.0
  0
SEQEND
  8
6
  6
CONTINUOUS
 62
     7
  5
1D2
  0
POLYLINE
  8
6
  6
CONTINUOUS
 62
     7
  5
1D3
 66
     1
 10
0.0
 20
0.0
 30
0.0
  0
VERTEX
  8
6
  6
CONTINUOUS
 62
     7
  5
1D4
 10
914786.084
 20
7282214.289
 30
0.0
  0
VERTEX
  8
6
  6
CONTINUOUS
 62
     7
  5
1D5
 10
915070.923
 20
7282204.728
 30
0.0
  0
VERTEX
  8
6
  6
CONTINUOUS
 62
     7
  5
1D6
 10
915042.892
 20
7281369.718
 30
0.0
  0
SEQEND
  8
6
  6
CONTINUOUS
 62
     7
  5
1D7
  0
ARC
  8
6
  6
CONTINUOUS
 62
     7
  5
1D8
 10
914785.580596
 20
7282199.297572
 30
0.0
 40
15.0
 50
88.0773
 51
178.0773
210
0.0
220
0.0
230
1.0
  0
POLYLINE
  8
6
  6
CONTINUOUS
 62
     7
  5
1D9
 66
     1
 10
0.0
 20
0.0
 30
0.0
  0
VERTEX
  8
6
  6
CONTINUOUS
 62
     7
  5
1DA
 10
915362.376
 20
7281348.987
 30
0.0
  0
VERTEX
  8
6
  6
CONTINUOUS
 62
     7
  5
1DB
 10
915072.54
 20
7281358.717
 30
0.0
  0
VERTEX
  8
6
  6
CONTINUOUS
 62
     7
  5
1DC
 10
915062.881
 20
7281369.046
 30
0.0
  0
VERTEX
  8
6
  6
CONTINUOUS
 62
     7
  5
1DD
 10
915090.912
 20
7282204.056
 30
0.0
  0
VERTEX
  8
6
  6
CONTINUOUS
 62
     7
  5
1DE
 10
915375.752
 20
7282194.494
 30
0.0
  0
SEQEND
  8
6
  6
CONTINUOUS
 62
     7
  5
1DF
  0
LINE
  8
6
  6
CONTINUOUS
 62
     7
  5
1E0
 10
915390.24
 20
7282179.0
 30
0.0
 11
915362.376
 21
7281348.987
 31
0.0
  0
ARC
  8
6
  6
CONTINUOUS
 62
     7
  5
1E1
 10
915375.248427
 20
7282179.502395
 30
0.0
 40
15.0
 50
358.0773
 51
88.0773
210
0.0
220
0.0
230
1.0
  0
LINE
  8
6
  6
CONTINUOUS
 62
     7
  5
1E2
 10
915446.209
 20
7282177.121
 30
0.0
 11
915418.345
 21
7281347.107
 31
0.0
  0
POLYLINE
  8
6
  6
CONTINUOUS
 62
     7
  5
1E3
 66
     1
 10
0.0
 20
0.0
 30
0.0
  0
VERTEX
  8
6
  6
CONTINUOUS
 62
     7
  5
1E4
 10
915668.539
 20
7281348.715
 30
0.0
  0
VERTEX
  8
6
  6
CONTINUOUS
 62
     7
  5
1E5
 10
915696.571
 20
7282183.724
 30
0.0
  0
VERTEX
  8
6
  6
CONTINUOUS
 62
     7
  5
1E6
 10
915461.703
 20
7282191.609
 30
0.0
  0
SEQEND
  8
6
  6
CONTINUOUS
 62
     7
  5
1E7
  0
ARC
  8
6
  6
CONTINUOUS
 62
     7
  5
1E8
 10
915461.200009
 20
7282176.616996
 30
0.0
 40
15.0
 50
88.0773
 51
178.0773
210
0.0
220
0.0
230
1.0
  0
LINE
  8
6
  6
CONTINUOUS
 62
     7
  5
1E9
 10
915722.716
 20
7282182.846
 30
0.0
 11
915716.559
 21
7282183.053
 31
0.0
  0
LINE
  8
6
  6
CONTINUOUS
 62
     7
  5
1EA
 10
915943.669
 20
7281329.473
 30
0.0
 11
915970.758
 21
7282136.408
 31
0.0
  0
LINE
  8
6
  6
CONTINUOUS
 62
     7
  5
1EB
 10
915973.109
 20
7282206.459
 30
0.0
 11
913388.806
 21
7282293.214
 31
0.0
  0
TEXT
  8
10
  6
CONTINUOUS
 62
   134
  5
1EE
 10
915807.237
 20
7282101.539
 30
0.0
 40
13.999
  1
  1
 50
358.0773
  7
ROMANS
 11
915807.706683
 21
7282115.530119
 31
0.0
210
0.0
220
0.0
230
1.0
 73
     3
  0
TEXT
  8
10
  6
CONTINUOUS
 62
   134
  5
1EF
 10
915802.315
 20
7281954.919
 30
0.0
 40
13.999
  1
  2
 50
358.0773
  7
ROMANS
 11
915802.784683
 21
7281968.910119
 31
0.0
210
0.0
220
0.0
230
1.0
 73
     3
  0
TEXT
  8
10
  6
CONTINUOUS
 62
   134
  5
1F0
 10
915797.393
 20
7281808.298
 30
0.0
 40
13.999
  1
  3
 50
358.0773
  7
ROMANS
 11
915797.862683
 21
7281822.289119
 31
0.0
210
0.0
220
0.0
230
1.0
 73
     3
  0
TEXT
  8
10
  6
CONTINUOUS
 62
   134
  5
1F1
 10
915792.988
 20
7281677.113
 30
0.0
 40
13.999
  1
  4
 50
358.0773
  7
ROMANS
 11
915793.457683
 21
7281691.104119
 31
0.0
210
0.0
220
0.0
230
1.0
 73
     3
  0
TEXT
  8
10
  6
CONTINUOUS
 62
   134
  5
1F2
 10
915788.326
 20
7281538.21
 30
0.0
 40
13.999
  1
  5
 50
358.0773
  7
ROMANS
 11
915788.795683
 21
7281552.201119
 31
0.0
210
0.0
220
0.0
230
1.0
 73
     3
  0
TEXT
  8
10
  6
CONTINUOUS
 62
   134
  5
1F3
 10
915783.792
 20
7281403.164
 30
0.0
 40
13.999
  1
  6
 50
358.0773
  7
ROMANS
 11
915784.261683
 21
7281417.155119
 31
0.0
210
0.0
220
0.0
230
1.0
 73
     3
  0
TEXT
  8
10
  6
CONTINUOUS
 62
   134
  5
1F4
 10
915854.561
 20
7281211.513
 30
0.0
 40
13.999
  1
  7
 50
358.0773
  7
ROMANS
 11
915855.030683
 21
7281225.504119
 31
0.0
210
0.0
220
0.0
230
1.0
 73
     3
  0
TEXT
  8
10
  6
CONTINUOUS
 62
   134
  5
1F5
 10
915762.023
 20
7281214.619
 30
0.0
 40
13.999
  1
  8
 50
358.0773
  7
ROMANS
 11
915762.492683
 21
7281228.610119
 31
0.0
210
0.0
220
0.0
230
1.0
 73
     3
  0
TEXT
  8
10
  6
CONTINUOUS
 62
   134
  5
1F6
 10
915657.918
 20
7281218.115
 30
0.0
 40
13.999
  1
  9
 50
358.0773
  7
ROMANS
 11
915658.387683
 21
7281232.106119
 31
0.0
210
0.0
220
0.0
230
1.0
 73
     3
  0
TEXT
  8
10
  6
CONTINUOUS
 62
   134
  5
1F7
 10
915542.245
 20
7281221.997
 30
0.0
 40
13.999
  1
 10
 50
358.0773
  7
ROMANS
 11
915542.714683
 21
7281235.988119
 31
0.0
210
0.0
220
0.0
230
1.0
 73
     3
  0
TEXT
  8
10
  6
CONTINUOUS
 62
   134
  5
1F8
 10
915438.141
 20
7281225.492
 30
0.0
 40
13.999
  1
 11
 50
358.0773
  7
ROMANS
 11
915438.610683
 21
7281239.483119
 31
0.0
210
0.0
220
0.0
230
1.0
 73
     3
  0
TEXT
  8
10
  6
CONTINUOUS
 62
   134
  5
1F9
 10
915525.588
 20
7281415.695
 30
0.0
 40
13.999
  1
 12
 50
358.0773
  7
ROMANS
 11
915526.057683
 21
7281429.686119
 31
0.0
210
0.0
220
0.0
230
1.0
 73
     3
  0
TEXT
  8
10
  6
CONTINUOUS
 62
   134
  5
1FA
 10
915529.991
 20
7281546.882
 30
0.0
 40
13.999
  1
 13
 50
358.0773
  7
ROMANS
 11
915530.460683
 21
7281560.873119
 31
0.0
210
0.0
220
0.0
230
1.0
 73
     3
  0
TEXT
  8
10
  6
CONTINUOUS
 62
   134
  5
1FB
 10
915534.524
 20
7281681.926
 30
0.0
 40
13.999
  1
 14
 50
358.0773
  7
ROMANS
 11
915534.993683
 21
7281695.917119
 31
0.0
210
0.0
220
0.0
230
1.0
 73
     3
  0
TEXT
  8
10
  6
CONTINUOUS
 62
   134
  5
1FC
 10
915539.058
 20
7281816.972
 30
0.0
 40
13.999
  1
 15
 50
358.0773
  7
ROMANS
 11
915539.527683
 21
7281830.963119
 31
0.0
210
0.0
220
0.0
230
1.0
 73
     3
  0
TEXT
  8
10
  6
CONTINUOUS
 62
   134
  5
1FD
 10
915543.98
 20
7281963.591
 30
0.0
 40
13.999
  1
 16
 50
358.0773
  7
ROMANS
 11
915544.449683
 21
7281977.582119
 31
0.0
210
0.0
220
0.0
230
1.0
 73
     3
  0
TEXT
  8
10
  6
CONTINUOUS
 62
   134
  5
1FE
 10
915548.903
 20
7282110.211
 30
0.0
 40
13.999
  1
 17
 50
358.0773
  7
ROMANS
 11
915549.372683
 21
7282124.202119
 31
0.0
210
0.0
220
0.0
230
1.0
 73
     3
  0
TEXT
  8
10
  6
CONTINUOUS
 62
   134
  5
1FF
 10
915213.452
 20
7282121.472
 30
0.0
 40
13.999
  1
 18
 50
358.0773
  7
ROMANS
 11
915213.921683
 21
7282135.463119
 31
0.0
210
0.0
220
0.0
230
1.0
 73
     3
  0
TEXT
  8
10
  6
CONTINUOUS
 62
   134
  5
200
 10
915208.401
 20
7281970.994
 30
0.0
 40
13.999
  1
 19
 50
358.0773
  7
ROMANS
 11
915208.870683
 21
7281984.985119
 31
0.0
210
0.0
220
0.0
230
1.0
 73
     3
  0
TEXT
  8
10
  6
CONTINUOUS
 62
   134
  5
201
 10
915203.608
 20
7281828.232
 30
0.0
 40
13.999
  1
 20
 50
358.0773
  7
ROMANS
 11
915204.077683
 21
7281842.223119
 31
0.0
210
0.0
220
0.0
230
1.0
 73
     3
  0
TEXT
  8
10
  6
CONTINUOUS
 62
   134
  5
202
 10
915199.075
 20
7281693.187
 30
0.0
 40
13.999
  1
 21
 50
358.0773
  7
ROMANS
 11
915199.544683
 21
7281707.178119
 31
0.0
210
0.0
220
0.0
230
1.0
 73
     3
  0
TEXT
  8
10
  6
CONTINUOUS
 62
   134
  5
203
 10
915194.412
 20
7281554.283
 30
0.0
 40
13.999
  1
 22
 50
358.0773
  7
ROMANS
 11
915194.881683
 21
7281568.274119
 31
0.0
210
0.0
220
0.0
230
1.0
 73
     3
  0
TEXT
  8
10
  6
CONTINUOUS
 62
   134
  5
204
 10
915190.008
 20
7281423.098
 30
0.0
 40
13.999
  1
 23
 50
358.0773
  7
ROMANS
 11
915190.477683
 21
7281437.089119
 31
0.0
210
0.0
220
0.0
230
1.0
 73
     3
  0
TEXT
  8
10
  6
CONTINUOUS
 62
   134
  5
205
 10
915279.796
 20
7281223.083
 30
0.0
 40
13.999
  1
 24
 50
358.0773
  7
ROMANS
 11
915280.265683
 21
7281237.074119
 31
0.0
210
0.0
220
0.0
230
1.0
 73
     3
  0
TEXT
  8
10
  6
CONTINUOUS
 62
   134
  5
206
 10
915171.835
 20
7281226.707
 30
0.0
 40
13.999
  1
 25
 50
358.0773
  7
ROMANS
 11
915172.304683
 21
7281240.698119
 31
0.0
210
0.0
220
0.0
230
1.0
 73
     3
  0
TEXT
  8
10
  6
CONTINUOUS
 62
   134
  5
207
 10
915067.729
 20
7281230.201
 30
0.0
 40
13.999
  1
 26
 50
358.0773
  7
ROMANS
 11
915068.198683
 21
7281244.192119
 31
0.0
210
0.0
220
0.0
230
1.0
 73
     3
  0
TEXT
  8
10
  6
CONTINUOUS
 62
   134
  5
208
 10
914975.192
 20
7281233.308
 30
0.0
 40
13.999
  1
 27
 50
358.0773
  7
ROMANS
 11
914975.661683
 21
7281247.299119
 31
0.0
210
0.0
220
0.0
230
1.0
 73
     3
  0
TEXT
  8
10
  6
CONTINUOUS
 62
   134
  5
209
 10
914871.087
 20
7281236.803
 30
0.0
 40
13.999
  1
 28
 50
358.0773
  7
ROMANS
 11
914871.556683
 21
7281250.794119
 31
0.0
210
0.0
220
0.0
230
1.0
 73
     3
  0
TEXT
  8
10
  6
CONTINUOUS
 62
   134
  5
20A
 10
914763.126
 20
7281240.427
 30
0.0
 40
13.999
  1
 29
 50
358.0773
  7
ROMANS
 11
914763.595683
 21
7281254.418119
 31
0.0
210
0.0
220
0.0
230
1.0
 73
     3
  0
TEXT
  8
10
  6
CONTINUOUS
 62
   134
  5
20B
 10
914869.851
 20
7281429.982
 30
0.0
 40
13.999
  1
 30
 50
358.0773
  7
ROMANS
 11
914870.320683
 21
7281443.973119
 31
0.0
210
0.0
220
0.0
230
1.0
 73
     3
  0
TEXT
  8
10
  6
CONTINUOUS
 62
   134
  5
20C
 10
914874.385
 20
7281565.027
 30
0.0
 40
13.999
  1
 31
 50
358.0773
  7
ROMANS
 11
914874.854683
 21
7281579.018119
 31
0.0
210
0.0
220
0.0
230
1.0
 73
     3
  0
TEXT
  8
10
  6
CONTINUOUS
 62
   134
  5
20D
 10
914879.048
 20
7281703.931
 30
0.0
 40
13.999
  1
 32
 50
358.0773
  7
ROMANS
 11
914879.517683
 21
7281717.922119
 31
0.0
210
0.0
220
0.0
230
1.0
 73
     3
  0
TEXT
  8
10
  6
CONTINUOUS
 62
   134
  5
20E
 10
914883.582
 20
7281838.975
 30
0.0
 40
13.999
  1
 33
 50
358.0773
  7
ROMANS
 11
914884.051683
 21
7281852.966119
 31
0.0
210
0.0
220
0.0
230
1.0
 73
     3
  0
TEXT
  8
10
  6
CONTINUOUS
 62
   134
  5
20F
 10
914888.245
 20
7281977.879
 30
0.0
 40
13.999
  1
 34
 50
358.0773
  7
ROMANS
 11
914888.714683
 21
7281991.870119
 31
0.0
210
0.0
220
0.0
230
1.0
 73
     3
  0
TEXT
  8
10
  6
CONTINUOUS
 62
   134
  5
210
 10
914893.426
 20
7282132.216
 30
0.0
 40
13.999
  1
 35
 50
358.0773
  7
ROMANS
 11
914893.895683
 21
7282146.207119
 31
0.0
210
0.0
220
0.0
230
1.0
 73
     3
  0
TEXT
  8
10
  6
CONTINUOUS
 62
   134
  5
211
 10
914527.13
 20
7282144.512
 30
0.0
 40
13.999
  1
 36
 50
358.0773
  7
ROMANS
 11
914527.599683
 21
7282158.503119
 31
0.0
210
0.0
220
0.0
230
1.0
 73
     3
  0
TEXT
  8
10
  6
CONTINUOUS
 62
   134
  5
212
 10
914521.949
 20
7281990.175
 30
0.0
 40
13.999
  1
 37
 50
358.0773
  7
ROMANS
 11
914522.418683
 21
7282004.166119
 31
0.0
210
0.0
220
0.0
230
1.0
 73
     3
  0
TEXT
  8
10
  6
CONTINUOUS
 62
   134
  5
213
 10
914517.286
 20
7281851.273
 30
0.0
 40
13.999
  1
 38
 50
358.0773
  7
ROMANS
 11
914517.755683
 21
7281865.264119
 31
0.0
210
0.0
220
0.0
230
1.0
 73
     3
  0
TEXT
  8
10
  6
CONTINUOUS
 62
   134
  5
214
 10
914512.623
 20
7281712.368
 30
0.0
 40
13.999
  1
 39
 50
358.0773
  7
ROMANS
 11
914513.092683
 21
7281726.359119
 31
0.0
210
0.0
220
0.0
230
1.0
 73
     3
  0
TEXT
  8
10
  6
CONTINUOUS
 62
   134
  5
215
 10
914507.96
 20
7281573.465
 30
0.0
 40
13.999
  1
 40
 50
358.0773
  7
ROMANS
 11
914508.429683
 21
7281587.456119
 31
0.0
210
0.0
220
0.0
230
1.0
 73
     3
  0
TEXT
  8
10
  6
CONTINUOUS
 62
   134
  5
216
 10
914503.427
 20
7281438.421
 30
0.0
 40
13.999
  1
 41
 50
358.0773
  7
ROMANS
 11
914503.896683
 21
7281452.412119
 31
0.0
210
0.0
220
0.0
230
1.0
 73
     3
  0
TEXT
  8
10
  6
CONTINUOUS
 62
   134
  5
217
 10
914601.184
 20
7281245.864
 30
0.0
 40
13.999
  1
 42
 50
358.0773
  7
ROMANS
 11
914601.653683
 21
7281259.855119
 31
0.0
210
0.0
220
0.0
230
1.0
 73
     3
  0
TEXT
  8
10
  6
CONTINUOUS
 62
   134
  5
218
 10
914497.079
 20
7281249.358
 30
0.0
 40
13.999
  1
 43
 50
358.0773
  7
ROMANS
 11
914497.548683
 21
7281263.349119
 31
0.0
210
0.0
220
0.0
230
1.0
 73
     3
  0
TEXT
  8
10
  6
CONTINUOUS
 62
   134
  5
219
 10
914385.262
 20
7281253.112
 30
0.0
 40
13.999
  1
 44
 50
358.0773
  7
ROMANS
 11
914385.731683
 21
7281267.103119
 31
0.0
210
0.0
220
0.0
230
1.0
 73
     3
  0
TEXT
  8
10
  6
CONTINUOUS
 62
   134
  5
21A
 10
914296.581
 20
7281256.089
 30
0.0
 40
13.999
  1
 45
 50
358.0773
  7
ROMANS
 11
914297.050683
 21
7281270.080119
 31
0.0
210
0.0
220
0.0
230
1.0
 73
     3
  0
TEXT
  8
10
  6
CONTINUOUS
 62
   134
  5
21B
 10
914196.331
 20
7281259.455
 30
0.0
 40
13.999
  1
 46
 50
358.0773
  7
ROMANS
 11
914196.800683
 21
7281273.446119
 31
0.0
210
0.0
220
0.0
230
1.0
 73
     3
  0
TEXT
  8
10
  6
CONTINUOUS
 62
   134
  5
21C
 10
914088.37
 20
7281263.079
 30
0.0
 40
13.999
  1
 47
 50
358.0773
  7
ROMANS
 11
914088.839683
 21
7281277.070119
 31
0.0
210
0.0
220
0.0
230
1.0
 73
     3
  0
TEXT
  8
10
  6
CONTINUOUS
 62
   134
  5
21D
 10
914187.254
 20
7281449.035
 30
0.0
 40
13.999
  1
 48
 50
358.0773
  7
ROMANS
 11
914187.723683
 21
7281463.026119
 31
0.0
210
0.0
220
0.0
230
1.0
 73
     3
  0
TEXT
  8
10
  6
CONTINUOUS
 62
   134
  5
21E
 10
914191.788
 20
7281584.079
 30
0.0
 40
13.999
  1
 49
 50
358.0773
  7
ROMANS
 11
914192.257683
 21
7281598.070119
 31
0.0
210
0.0
220
0.0
230
1.0
 73
     3
  0
TEXT
  8
10
  6
CONTINUOUS
 62
   134
  5
21F
 10
914196.451
 20
7281722.984
 30
0.0
 40
13.999
  1
 50
 50
358.0773
  7
ROMANS
 11
914196.920683
 21
7281736.975119
 31
0.0
210
0.0
220
0.0
230
1.0
 73
     3
  0
TEXT
  8
10
  6
CONTINUOUS
 62
   134
  5
220
 10
914201.114
 20
7281861.887
 30
0.0
 40
13.999
  1
 51
 50
358.0773
  7
ROMANS
 11
914201.583683
 21
7281875.878119
 31
0.0
210
0.0
220
0.0
230
1.0
 73
     3
  0
TEXT
  8
10
  6
CONTINUOUS
 62
   134
  5
221
 10
914205.777
 20
7282000.79
 30
0.0
 40
13.999
  1
 52
 50
358.0773
  7
ROMANS
 11
914206.246683
 21
7282014.781119
 31
0.0
210
0.0
220
0.0
230
1.0
 73
     3
  0
TEXT
  8
10
  6
CONTINUOUS
 62
   134
  5
222
 10
914211.088
 20
7282158.986
 30
0.0
 40
13.999
  1
 53
 50
358.0773
  7
ROMANS
 11
914211.557683
 21
7282172.977119
 31
0.0
210
0.0
220
0.0
230
1.0
 73
     3
  0
TEXT
  8
10
  6
CONTINUOUS
 62
   134
  5
223
 10
913852.504
 20
7282171.023
 30
0.0
 40
13.999
  1
 54
 50
358.0773
  7
ROMANS
 11
913852.973683
 21
7282185.014119
 31
0.0
210
0.0
220
0.0
230
1.0
 73
     3
  0
TEXT
  8
10
  6
CONTINUOUS
 62
   134
  5
224
 10
913847.063
 20
7282008.969
 30
0.0
 40
13.999
  1
 55
 50
358.0773
  7
ROMANS
 11
913847.532683
 21
7282022.960119
 31
0.0
210
0.0
220
0.0
230
1.0
 73
     3
  0
TEXT
  8
10
  6
CONTINUOUS
 62
   134
  5
225
 10
913842.401
 20
7281870.066
 30
0.0
 40
13.999
  1
 56
 50
358.0773
  7
ROMANS
 11
913842.870683
 21
7281884.057119
 31
0.0
210
0.0
220
0.0
230
1.0
 73
     3
  0
TEXT
  8
10
  6
CONTINUOUS
 62
   134
  5
226
 10
913837.867
 20
7281735.021
 30
0.0
 40
13.999
  1
 57
 50
358.0773
  7
ROMANS
 11
913838.336683
 21
7281749.012119
 31
0.0
210
0.0
220
0.0
230
1.0
 73
     3
  0
TEXT
  8
10
  6
CONTINUOUS
 62
   134
  5
227
 10
913833.074
 20
7281592.259
 30
0.0
 40
13.999
  1
 58
 50
358.0773
  7
ROMANS
 11
913833.543683
 21
7281606.250119
 31
0.0
210
0.0
220
0.0
230
1.0
 73
     3
  0
TEXT
  8
10
  6
CONTINUOUS
 62
   134
  5
228
 10
913828.541
 20
7281457.215
 30
0.0
 40
13.999
  1
 59
 50
358.0773
  7
ROMANS
 11
913829.010683
 21
7281471.206119
 31
0.0
210
0.0
220
0.0
230
1.0
 73
     3
  0
TEXT
  8
10
  6
CONTINUOUS
 62
   134
  5
229
 10
913926.429
 20
7281268.515
 30
0.0
 40
13.999
  1
 60
 50
358.0773
  7
ROMANS
 11
913926.898683
 21
7281282.506119
 31
0.0
210
0.0
220
0.0
230
1.0
 73
     3
  0
TEXT
  8
10
  6
CONTINUOUS
 62
   134
  5
22A
 10
913810.756
 20
7281272.398
 30
0.0
 40
13.999
  1
 61
 50
358.0773
  7
ROMANS
 11
913811.225683
 21
7281286.389119
 31
0.0
210
0.0
220
0.0
230
1.0
 73
     3
  0
TEXT
  8
10
  6
CONTINUOUS
 62
   134
  5
22B
 10
913714.363
 20
7281275.634
 30
0.0
 40
13.999
  1
 62
 50
358.0773
  7
ROMANS
 11
913714.832683
 21
7281289.625119
 31
0.0
210
0.0
220
0.0
230
1.0
 73
     3
  0
TEXT
  8
10
  6
CONTINUOUS
 62
   134
  5
22C
 10
913617.97
 20
7281278.87
 30
0.0
 40
13.999
  1
 63
 50
358.0773
  7
ROMANS
 11
913618.439683
 21
7281292.861119
 31
0.0
210
0.0
220
0.0
230
1.0
 73
     3
  0
TEXT
  8
10
  6
CONTINUOUS
 62
   134
  5
22D
 10
913517.721
 20
7281282.236
 30
0.0
 40
13.999
  1
 64
 50
358.0773
  7
ROMANS
 11
913518.190683
 21
7281296.227119
 31
0.0
210
0.0
220
0.0
230
1.0
 73
     3
  0
TEXT
  8
10
  6
CONTINUOUS
 62
   134
  5
22E
 10
913417.471
 20
7281285.601
 30
0.0
 40
13.999
  1
 65
 50
358.0773
  7
ROMANS
 11
913417.940683
 21
7281299.592119
 31
0.0
210
0.0
220
0.0
230
1.0
 73
     3
  0
TEXT
  8
10
  6
CONTINUOUS
 62
   134
  5
22F
 10
913527.664
 20
7281463.452
 30
0.0
 40
13.999
  1
 66
 50
358.0773
  7
ROMANS
 11
913528.133683
 21
7281477.443119
 31
0.0
210
0.0
220
0.0
230
1.0
 73
     3
  0
TEXT
  8
10
  6
CONTINUOUS
 62
   134
  5
230
 10
913532.326
 20
7281602.356
 30
0.0
 40
13.999
  1
 67
 50
358.0773
  7
ROMANS
 11
913532.795683
 21
7281616.347119
 31
0.0
210
0.0
220
0.0
230
1.0
 73
     3
  0
TEXT
  8
10
  6
CONTINUOUS
 62
   134
  5
231
 10
913537.119
 20
7281745.118
 30
0.0
 40
13.999
  1
 68
 50
358.0773
  7
ROMANS
 11
913537.588683
 21
7281759.109119
 31
0.0
210
0.0
220
0.0
230
1.0
 73
     3
  0
TEXT
  8
10
  6
CONTINUOUS
 62
   134
  5
232
 10
913541.653
 20
7281880.162
 30
0.0
 40
13.999
  1
 69
 50
358.0773
  7
ROMANS
 11
913542.122683
 21
7281894.153119
 31
0.0
210
0.0
220
0.0
230
1.0
 73
     3
  0
TEXT
  8
10
  6
CONTINUOUS
 62
   134
  5
233
 10
913546.446
 20
7282022.924
 30
0.0
 40
13.999
  1
 70
 50
358.0773
  7
ROMANS
 11
913546.915683
 21
7282036.915119
 31
0.0
210
0.0
220
0.0
230
1.0
 73
     3
  0
TEXT
  8
10
  6
CONTINUOUS
 62
   134
  5
234
 10
913551.756
 20
7282181.12
 30
0.0
 40
13.999
  1
 71
 50
358.0773
  7
ROMANS
 11
913552.225683
 21
7282195.111119
 31
0.0
210
0.0
220
0.0
230
1.0
 73
     3
  0
TEXT
  8
10
  6
CONTINUOUS
 62
   134
  5
235
 10
913396.837
 20
7281015.899
 30
0.0
 40
13.999
  1
 72
 50
358.0773
  7
ROMANS
 11
913397.306683
 21
7281029.890119
 31
0.0
210
0.0
220
0.0
230
1.0
 73
     3
  0
TEXT
  8
10
  6
CONTINUOUS
 62
   134
  5
236
 10
913504.797
 20
7281012.275
 30
0.0
 40
13.999
  1
 73
 50
358.0773
  7
ROMANS
 11
913505.266683
 21
7281026.266119
 31
0.0
210
0.0
220
0.0
230
1.0
 73
     3
  0
TEXT
  8
10
  6
CONTINUOUS
 62
   134
  5
237
 10
913608.903
 20
7281008.781
 30
0.0
 40
13.999
  1
 74
 50
358.0773
  7
ROMANS
 11
913609.372683
 21
7281022.772119
 31
0.0
210
0.0
220
0.0
230
1.0
 73
     3
  0
TEXT
  8
10
  6
CONTINUOUS
 62
   134
  5
238
 10
913705.296
 20
7281005.544
 30
0.0
 40
13.999
  1
 75
 50
358.0773
  7
ROMANS
 11
913705.765683
 21
7281019.535119
 31
0.0
210
0.0
220
0.0
230
1.0
 73
     3
  0
TEXT
  8
10
  6
CONTINUOUS
 62
   134
  5
239
 10
913805.545
 20
7281002.179
 30
0.0
 40
13.999
  1
 76
 50
358.0773
  7
ROMANS
 11
913806.014683
 21
7281016.170119
 31
0.0
210
0.0
220
0.0
230
1.0
 73
     3
  0
TEXT
  8
10
  6
CONTINUOUS
 62
   134
  5
23A
 10
913909.65
 20
7280998.684
 30
0.0
 40
13.999
  1
 77
 50
358.0773
  7
ROMANS
 11
913910.119683
 21
7281012.675119
 31
0.0
210
0.0
220
0.0
230
1.0
 73
     3
  0
TEXT
  8
10
  6
CONTINUOUS
 62
   134
  5
23B
 10
914013.756
 20
7280995.19
 30
0.0
 40
13.999
  1
 78
 50
358.0773
  7
ROMANS
 11
914014.225683
 21
7281009.181119
 31
0.0
210
0.0
220
0.0
230
1.0
 73
     3
  0
TEXT
  8
10
  6
CONTINUOUS
 62
   134
  5
23C
 10
914121.717
 20
7280991.565
 30
0.0
 40
13.999
  1
 79
 50
358.0773
  7
ROMANS
 11
914122.186683
 21
7281005.556119
 31
0.0
210
0.0
220
0.0
230
1.0
 73
     3
  0
TEXT
  8
10
  6
CONTINUOUS
 62
   134
  5
23D
 10
914229.677
 20
7280987.941
 30
0.0
 40
13.999
  1
 80
 50
358.0773
  7
ROMANS
 11
914230.146683
 21
7281001.932119
 31
0.0
210
0.0
220
0.0
230
1.0
 73
     3
  0
TEXT
  8
10
  6
CONTINUOUS
 62
   134
  5
23E
 10
914326.071
 20
7280984.705
 30
0.0
 40
13.999
  1
 81
 50
358.0773
  7
ROMANS
 11
914326.540683
 21
7280998.696119
 31
0.0
210
0.0
220
0.0
230
1.0
 73
     3
  0
TEXT
  8
10
  6
CONTINUOUS
 62
   134
  5
23F
 10
914445.6
 20
7280980.693
 30
0.0
 40
13.999
  1
 82
 50
358.0773
  7
ROMANS
 11
914446.069683
 21
7280994.684119
 31
0.0
210
0.0
220
0.0
230
1.0
 73
     3
  0
TEXT
  8
10
  6
CONTINUOUS
 62
   134
  5
240
 10
914561.271
 20
7280976.809
 30
0.0
 40
13.999
  1
 83
 50
358.0773
  7
ROMANS
 11
914561.740683
 21
7280990.800119
 31
0.0
210
0.0
220
0.0
230
1.0
 73
     3
  0
TEXT
  8
10
  6
CONTINUOUS
 62
   134
  5
241
 10
914669.233
 20
7280973.185
 30
0.0
 40
13.999
  1
 84
 50
358.0773
  7
ROMANS
 11
914669.702683
 21
7280987.176119
 31
0.0
210
0.0
220
0.0
230
1.0
 73
     3
  0
TEXT
  8
10
  6
CONTINUOUS
 62
   134
  5
242
 10
914769.482
 20
7280969.82
 30
0.0
 40
13.999
  1
 85
 50
358.0773
  7
ROMANS
 11
914769.951683
 21
7280983.811119
 31
0.0
210
0.0
220
0.0
230
1.0
 73
     3
  0
TEXT
  8
10
  6
CONTINUOUS
 62
   134
  5
243
 10
914881.298
 20
7280966.066
 30
0.0
 40
13.999
  1
 86
 50
358.0773
  7
ROMANS
 11
914881.767683
 21
7280980.057119
 31
0.0
210
0.0
220
0.0
230
1.0
 73
     3
  0
TEXT
  8
10
  6
CONTINUOUS
 62
   134
  5
244
 10
915050.952
 20
7280960.371
 30
0.0
 40
13.999
  1
 87
 50
358.0773
  7
ROMANS
 11
915051.421683
 21
7280974.362119
 31
0.0
210
0.0
220
0.0
230
1.0
 73
     3
  0
TEXT
  8
10
  6
CONTINUOUS
 62
   134
  5
245
 10
915166.624
 20
7280956.487
 30
0.0
 40
13.999
  1
 88
 50
358.0773
  7
ROMANS
 11
915167.093683
 21
7280970.478119
 31
0.0
210
0.0
220
0.0
230
1.0
 73
     3
  0
TEXT
  8
10
  6
CONTINUOUS
 62
   134
  5
246
 10
915255.305
 20
7280953.51
 30
0.0
 40
13.999
  1
 89
 50
358.0773
  7
ROMANS
 11
915255.774683
 21
7280967.501119
 31
0.0
210
0.0
220
0.0
230
1.0
 73
     3
  0
TEXT
  8
10
  6
CONTINUOUS
 62
   134
  5
247
 10
915355.555
 20
7280950.145
 30
0.0
 40
13.999
  1
 90
 50
358.0773
  7
ROMANS
 11
915356.024683
 21
7280964.136119
 31
0.0
210
0.0
220
0.0
230
1.0
 73
     3
  0
TEXT
  8
10
  6
CONTINUOUS
 62
   134
  5
248
 10
915467.372
 20
7280946.392
 30
0.0
 40
13.999
  1
 91
 50
358.0773
  7
ROMANS
 11
915467.841683
 21
7280960.383119
 31
0.0
210
0.0
220
0.0
230
1.0
 73
     3
  0
TEXT
  8
10
  6
CONTINUOUS
 62
   134
  5
249
 10
915567.621
 20
7280943.026
 30
0.0
 40
13.999
  1
 92
 50
358.0773
  7
ROMANS
 11
915568.090683
 21
7280957.017119
 31
0.0
210
0.0
220
0.0
230
1.0
 73
     3
  0
TEXT
  8
10
  6
CONTINUOUS
 62
   134
  5
24A
 10
915660.16
 20
7280939.919
 30
0.0
 40
13.999
  1
 93
 50
358.0773
  7
ROMANS
 11
915660.629683
 21
7280953.910119
 31
0.0
210
0.0
220
0.0
230
1.0
 73
     3
  0
TEXT
  8
10
  6
CONTINUOUS
 62
   134
  5
24B
 10
915756.552
 20
7280936.683
 30
0.0
 40
13.999
  1
 94
 50
358.0773
  7
ROMANS
 11
915757.021683
 21
7280950.674119
 31
0.0
210
0.0
220
0.0
230
1.0
 73
     3
  0
TEXT
  8
10
  6
CONTINUOUS
 62
   134
  5
24C
 10
915852.946
 20
7280933.448
 30
0.0
 40
13.999
  1
 95
 50
358.0773
  7
ROMANS
 11
915853.415683
 21
7280947.439119
 31
0.0
210
0.0
220
0.0
230
1.0
 73
     3
  0
TEXT
  8
10
  6
CONTINUOUS
 62
   134
  5
24D
 10
915845.822
 20
7280721.235
 30
0.0
 40
13.999
  1
 96
 50
358.0773
  7
ROMANS
 11
915846.291683
 21
7280735.226119
 31
0.0
210
0.0
220
0.0
230
1.0
 73
     3
  0
TEXT
  8
10
  6
CONTINUOUS
 62
   134
  5
24E
 10
915749.428
 20
7280724.47
 30
0.0
 40
13.999
  1
 97
 50
358.0773
  7
ROMANS
 11
915749.897683
 21
7280738.461119
 31
0.0
210
0.0
220
0.0
230
1.0
 73
     3
  0
TEXT
  8
10
  6
CONTINUOUS
 62
   134
  5
24F
 10
915637.612
 20
7280728.224
 30
0.0
 40
13.999
  1
 98
 50
358.0773
  7
ROMANS
 11
915638.081683
 21
7280742.215119
 31
0.0
210
0.0
220
0.0
230
1.0
 73
     3
  0
TEXT
  8
10
  6
CONTINUOUS
 62
   134
  5
250
 10
915552.786
 20
7280731.071
 30
0.0
 40
13.999
  1
 99
 50
358.0773
  7
ROMANS
 11
915553.255683
 21
7280745.062119
 31
0.0
210
0.0
220
0.0
230
1.0
 73
     3
  0
TEXT
  8
10
  6
CONTINUOUS
 62
   134
  5
251
 10
915452.536
 20
7280734.437
 30
0.0
 40
13.999
  1
100
 50
358.0773
  7
ROMANS
 11
915453.005683
 21
7280748.428119
 31
0.0
210
0.0
220
0.0
230
1.0
 73
     3
  0
TEXT
  8
10
  6
CONTINUOUS
 62
   134
  5
252
 10
915363.854
 20
7280737.414
 30
0.0
 40
13.999
  1
101
 50
358.0773
  7
ROMANS
 11
915364.323683
 21
7280751.405119
 31
0.0
210
0.0
220
0.0
230
1.0
 73
     3
  0
TEXT
  8
10
  6
CONTINUOUS
 62
   134
  5
253
 10
915263.604
 20
7280740.779
 30
0.0
 40
13.999
  1
102
 50
358.0773
  7
ROMANS
 11
915264.073683
 21
7280754.770119
 31
0.0
210
0.0
220
0.0
230
1.0
 73
     3
  0
TEXT
  8
10
  6
CONTINUOUS
 62
   134
  5
254
 10
915163.355
 20
7280744.145
 30
0.0
 40
13.999
  1
103
 50
358.0773
  7
ROMANS
 11
915163.824683
 21
7280758.136119
 31
0.0
210
0.0
220
0.0
230
1.0
 73
     3
  0
TEXT
  8
10
  6
CONTINUOUS
 62
   134
  5
255
 10
915059.25
 20
7280747.639
 30
0.0
 40
13.999
  1
104
 50
358.0773
  7
ROMANS
 11
915059.719683
 21
7280761.630119
 31
0.0
210
0.0
220
0.0
230
1.0
 73
     3
  0
TEXT
  8
10
  6
CONTINUOUS
 62
   134
  5
256
 10
914893.454
 20
7280753.205
 30
0.0
 40
13.999
  1
105
 50
358.0773
  7
ROMANS
 11
914893.923683
 21
7280767.196119
 31
0.0
210
0.0
220
0.0
230
1.0
 73
     3
  0
TEXT
  8
10
  6
CONTINUOUS
 62
   134
  5
257
 10
914777.781
 20
7280757.088
 30
0.0
 40
13.999
  1
106
 50
358.0773
  7
ROMANS
 11
914778.250683
 21
7280771.079119
 31
0.0
210
0.0
220
0.0
230
1.0
 73
     3
  0
TEXT
  8
10
  6
CONTINUOUS
 62
   134
  5
258
 10
914669.82
 20
7280760.712
 30
0.0
 40
13.999
  1
107
 50
358.0773
  7
ROMANS
 11
914670.289683
 21
7280774.703119
 31
0.0
210
0.0
220
0.0
230
1.0
 73
     3
  0
TEXT
  8
10
  6
CONTINUOUS
 62
   134
  5
259
 10
914554.148
 20
7280764.596
 30
0.0
 40
13.999
  1
108
 50
358.0773
  7
ROMANS
 11
914554.617683
 21
7280778.587119
 31
0.0
210
0.0
220
0.0
230
1.0
 73
     3
  0
TEXT
  8
10
  6
CONTINUOUS
 62
   134
  5
25A
 10
914453.898
 20
7280767.961
 30
0.0
 40
13.999
  1
109
 50
358.0773
  7
ROMANS
 11
914454.367683
 21
7280781.952119
 31
0.0
210
0.0
220
0.0
230
1.0
 73
     3
  0
TEXT
  8
10
  6
CONTINUOUS
 62
   134
  5
25B
 10
914334.37
 20
7280771.973
 30
0.0
 40
13.999
  1
110
 50
358.0773
  7
ROMANS
 11
914334.839683
 21
7280785.964119
 31
0.0
210
0.0
220
0.0
230
1.0
 73
     3
  0
TEXT
  8
10
  6
CONTINUOUS
 62
   134
  5
25C
 10
914230.264
 20
7280775.469
 30
0.0
 40
13.999
  1
111
 50
358.0773
  7
ROMANS
 11
914230.733683
 21
7280789.460119
 31
0.0
210
0.0
220
0.0
230
1.0
 73
     3
  0
TEXT
  8
10
  6
CONTINUOUS
 62
   134
  5
25D
 10
914122.304
 20
7280779.093
 30
0.0
 40
13.999
  1
112
 50
358.0773
  7
ROMANS
 11
914122.773683
 21
7280793.084119
 31
0.0
210
0.0
220
0.0
230
1.0
 73
     3
  0
TEXT
  8
10
  6
CONTINUOUS
 62
   134
  5
25E
 10
914018.199
 20
7280782.587
 30
0.0
 40
13.999
  1
113
 50
358.0773
  7
ROMANS
 11
914018.668683
 21
7280796.578119
 31
0.0
210
0.0
220
0.0
230
1.0
 73
     3
  0
TEXT
  8
10
  6
CONTINUOUS
 62
   134
  5
25F
 10
913914.094
 20
7280786.082
 30
0.0
 40
13.999
  1
114
 50
358.0773
  7
ROMANS
 11
913914.563683
 21
7280800.073119
 31
0.0
210
0.0
220
0.0
230
1.0
 73
     3
  0
TEXT
  8
10
  6
CONTINUOUS
 62
   134
  5
260
 10
913809.988
 20
7280789.578
 30
0.0
 40
13.999
  1
115
 50
358.0773
  7
ROMANS
 11
913810.457683
 21
7280803.569119
 31
0.0
210
0.0
220
0.0
230
1.0
 73
     3
  0
TEXT
  8
10
  6
CONTINUOUS
 62
   134
  5
261
 10
913717.451
 20
7280792.684
 30
0.0
 40
13.999
  1
116
 50
358.0773
  7
ROMANS
 11
913717.920683
 21
7280806.675119
 31
0.0
210
0.0
220
0.0
230
1.0
 73
     3
  0
TEXT
  8
10
  6
CONTINUOUS
 62
   134
  5
262
 10
913617.201
 20
7280796.049
 30
0.0
 40
13.999
  1
117
 50
358.0773
  7
ROMANS
 11
913617.670683
 21
7280810.040119
 31
0.0
210
0.0
220
0.0
230
1.0
 73
     3
  0
TEXT
  8
10
  6
CONTINUOUS
 62
   134
  5
263
 10
913516.952
 20
7280799.414
 30
0.0
 40
13.999
  1
118
 50
358.0773
  7
ROMANS
 11
913517.421683
 21
7280813.405119
 31
0.0
210
0.0
220
0.0
230
1.0
 73
     3
  0
TEXT
  8
10
  6
CONTINUOUS
 62
   134
  5
264
 10
913401.28
 20
7280803.297
 30
0.0
 40
13.999
  1
119
 50
358.0773
  7
ROMANS
 11
913401.749683
 21
7280817.288119
 31
0.0
210
0.0
220
0.0
230
1.0
 73
     3
  0
TEXT
  8
10
  6
CONTINUOUS
 62
   134
  5
265
 10
913391.953
 20
7280525.491
 30
0.0
 40
13.999
  1
120
 50
358.0773
  7
ROMANS
 11
913392.422683
 21
7280539.482119
 31
0.0
210
0.0
220
0.0
230
1.0
 73
     3
  0
TEXT
  8
10
  6
CONTINUOUS
 62
   134
  5
266
 10
913503.769
 20
7280521.737
 30
0.0
 40
13.999
  1
121
 50
358.0773
  7
ROMANS
 11
913504.238683
 21
7280535.728119
 31
0.0
210
0.0
220
0.0
230
1.0
 73
     3
  0
TEXT
  8
10
  6
CONTINUOUS
 62
   134
  5
267
 10
913604.019
 20
7280518.372
 30
0.0
 40
13.999
  1
122
 50
358.0773
  7
ROMANS
 11
913604.488683
 21
7280532.363119
 31
0.0
210
0.0
220
0.0
230
1.0
 73
     3
  0
TEXT
  8
10
  6
CONTINUOUS
 62
   134
  5
268
 10
913700.414
 20
7280515.136
 30
0.0
 40
13.999
  1
123
 50
358.0773
  7
ROMANS
 11
913700.883683
 21
7280529.127119
 31
0.0
210
0.0
220
0.0
230
1.0
 73
     3
  0
TEXT
  8
10
  6
CONTINUOUS
 62
   134
  5
269
 10
913796.807
 20
7280511.901
 30
0.0
 40
13.999
  1
124
 50
358.0773
  7
ROMANS
 11
913797.276683
 21
7280525.892119
 31
0.0
210
0.0
220
0.0
230
1.0
 73
     3
  0
TEXT
  8
10
  6
CONTINUOUS
 62
   134
  5
26A
 10
913904.768
 20
7280508.276
 30
0.0
 40
13.999
  1
125
 50
358.0773
  7
ROMANS
 11
913905.237683
 21
7280522.267119
 31
0.0
210
0.0
220
0.0
230
1.0
 73
     3
  0
TEXT
  8
10
  6
CONTINUOUS
 62
   134
  5
26B
 10
914074.42
 20
7280502.58
 30
0.0
 40
13.999
  1
126
 50
358.0773
  7
ROMANS
 11
914074.889683
 21
7280516.571119
 31
0.0
210
0.0
220
0.0
230
1.0
 73
     3
  0
TEXT
  8
10
  6
CONTINUOUS
 62
   134
  5
26C
 10
914174.67
 20
7280499.215
 30
0.0
 40
13.999
  1
127
 50
358.0773
  7
ROMANS
 11
914175.139683
 21
7280513.206119
 31
0.0
210
0.0
220
0.0
230
1.0
 73
     3
  0
TEXT
  8
10
  6
CONTINUOUS
 62
   134
  5
26D
 10
914274.919
 20
7280495.85
 30
0.0
 40
13.999
  1
128
 50
358.0773
  7
ROMANS
 11
914275.388683
 21
7280509.841119
 31
0.0
210
0.0
220
0.0
230
1.0
 73
     3
  0
TEXT
  8
10
  6
CONTINUOUS
 62
   134
  5
26E
 10
914371.313
 20
7280492.614
 30
0.0
 40
13.999
  1
129
 50
358.0773
  7
ROMANS
 11
914371.782683
 21
7280506.605119
 31
0.0
210
0.0
220
0.0
230
1.0
 73
     3
  0
TEXT
  8
10
  6
CONTINUOUS
 62
   134
  5
26F
 10
914467.707
 20
7280489.378
 30
0.0
 40
13.999
  1
130
 50
358.0773
  7
ROMANS
 11
914468.176683
 21
7280503.369119
 31
0.0
210
0.0
220
0.0
230
1.0
 73
     3
  0
TEXT
  8
10
  6
CONTINUOUS
 62
   134
  5
270
 10
914571.812
 20
7280485.883
 30
0.0
 40
13.999
  1
131
 50
358.0773
  7
ROMANS
 11
914572.281683
 21
7280499.874119
 31
0.0
210
0.0
220
0.0
230
1.0
 73
     3
  0
TEXT
  8
10
  6
CONTINUOUS
 62
   134
  5
271
 10
914675.917
 20
7280482.388
 30
0.0
 40
13.999
  1
132
 50
358.0773
  7
ROMANS
 11
914676.386683
 21
7280496.379119
 31
0.0
210
0.0
220
0.0
230
1.0
 73
     3
  0
TEXT
  8
10
  6
CONTINUOUS
 62
   134
  5
272
 10
914776.167
 20
7280479.023
 30
0.0
 40
13.999
  1
133
 50
358.0773
  7
ROMANS
 11
914776.636683
 21
7280493.014119
 31
0.0
210
0.0
220
0.0
230
1.0
 73
     3
  0
TEXT
  8
10
  6
CONTINUOUS
 62
   134
  5
273
 10
914876.415
 20
7280475.658
 30
0.0
 40
13.999
  1
134
 50
358.0773
  7
ROMANS
 11
914876.884683
 21
7280489.649119
 31
0.0
210
0.0
220
0.0
230
1.0
 73
     3
  0
TEXT
  8
10
  6
CONTINUOUS
 62
   134
  5
274
 10
914968.954
 20
7280472.551
 30
0.0
 40
13.999
  1
135
 50
358.0773
  7
ROMANS
 11
914969.423683
 21
7280486.542119
 31
0.0
210
0.0
220
0.0
230
1.0
 73
     3
  0
TEXT
  8
10
  6
CONTINUOUS
 62
   134
  5
275
 10
915076.914
 20
7280468.926
 30
0.0
 40
13.999
  1
136
 50
358.0773
  7
ROMANS
 11
915077.383683
 21
7280482.917119
 31
0.0
210
0.0
220
0.0
230
1.0
 73
     3
  0
TEXT
  8
10
  6
CONTINUOUS
 62
   134
  5
276
 10
915177.164
 20
7280465.561
 30
0.0
 40
13.999
  1
137
 50
358.0773
  7
ROMANS
 11
915177.633683
 21
7280479.552119
 31
0.0
210
0.0
220
0.0
230
1.0
 73
     3
  0
TEXT
  8
10
  6
CONTINUOUS
 62
   134
  5
277
 10
915346.816
 20
7280459.866
 30
0.0
 40
13.999
  1
138
 50
358.0773
  7
ROMANS
 11
915347.285683
 21
7280473.857119
 31
0.0
210
0.0
220
0.0
230
1.0
 73
     3
  0
TEXT
  8
10
  6
CONTINUOUS
 62
   134
  5
278
 10
915447.066
 20
7280456.501
 30
0.0
 40
13.999
  1
139
 50
358.0773
  7
ROMANS
 11
915447.535683
 21
7280470.492119
 31
0.0
210
0.0
220
0.0
230
1.0
 73
     3
  0
TEXT
  8
10
  6
CONTINUOUS
 62
   134
  5
279
 10
915555.026
 20
7280452.877
 30
0.0
 40
13.999
  1
140
 50
358.0773
  7
ROMANS
 11
915555.495683
 21
7280466.868119
 31
0.0
210
0.0
220
0.0
230
1.0
 73
     3
  0
TEXT
  8
10
  6
CONTINUOUS
 62
   134
  5
27A
 10
915647.564
 20
7280449.77
 30
0.0
 40
13.999
  1
141
 50
358.0773
  7
ROMANS
 11
915648.033683
 21
7280463.761119
 31
0.0
210
0.0
220
0.0
230
1.0
 73
     3
  0
TEXT
  8
10
  6
CONTINUOUS
 62
   134
  5
27B
 10
915751.67
 20
7280446.275
 30
0.0
 40
13.999
  1
142
 50
358.0773
  7
ROMANS
 11
915752.139683
 21
7280460.266119
 31
0.0
210
0.0
220
0.0
230
1.0
 73
     3
  0
TEXT
  8
10
  6
CONTINUOUS
 62
   134
  5
27C
 10
915848.064
 20
7280443.039
 30
0.0
 40
13.999
  1
143
 50
358.0773
  7
ROMANS
 11
915848.533683
 21
7280457.030119
 31
0.0
210
0.0
220
0.0
230
1.0
 73
     3
  0
TEXT
  8
10
  6
CONTINUOUS
 62
   134
  5
27D
 10
915840.939
 20
7280230.826
 30
0.0
 40
13.999
  1
144
 50
358.0773
  7
ROMANS
 11
915841.408683
 21
7280244.817119
 31
0.0
210
0.0
220
0.0
230
1.0
 73
     3
  0
TEXT
  8
10
  6
CONTINUOUS
 62
   134
  5
27E
 10
915736.834
 20
7280234.321
 30
0.0
 40
13.999
  1
145
 50
358.0773
  7
ROMANS
 11
915737.303683
 21
7280248.312119
 31
0.0
210
0.0
220
0.0
230
1.0
 73
     3
  0
TEXT
  8
10
  6
CONTINUOUS
 62
   134
  5
27F
 10
915632.73
 20
7280237.815
 30
0.0
 40
13.999
  1
146
 50
358.0773
  7
ROMANS
 11
915633.199683
 21
7280251.806119
 31
0.0
210
0.0
220
0.0
230
1.0
 73
     3
  0
TEXT
  8
10
  6
CONTINUOUS
 62
   134
  5
280
 10
915536.335
 20
7280241.051
 30
0.0
 40
13.999
  1
147
 50
358.0773
  7
ROMANS
 11
915536.804683
 21
7280255.042119
 31
0.0
210
0.0
220
0.0
230
1.0
 73
     3
  0
TEXT
  8
10
  6
CONTINUOUS
 62
   134
  5
281
 10
915443.798
 20
7280244.158
 30
0.0
 40
13.999
  1
148
 50
358.0773
  7
ROMANS
 11
915444.267683
 21
7280258.149119
 31
0.0
210
0.0
220
0.0
230
1.0
 73
     3
  0
TEXT
  8
10
  6
CONTINUOUS
 62
   134
  5
282
 10
915331.981
 20
7280247.912
 30
0.0
 40
13.999
  1
149
 50
358.0773
  7
ROMANS
 11
915332.450683
 21
7280261.903119
 31
0.0
210
0.0
220
0.0
230
1.0
 73
     3
  0
TEXT
  8
10
  6
CONTINUOUS
 62
   134
  5
283
 10
915181.606
 20
7280252.96
 30
0.0
 40
13.999
  1
150
 50
358.0773
  7
ROMANS
 11
915182.075683
 21
7280266.951119
 31
0.0
210
0.0
220
0.0
230
1.0
 73
     3
  0
TEXT
  8
10
  6
CONTINUOUS
 62
   134
  5
284
 10
915073.646
 20
7280256.584
 30
0.0
 40
13.999
  1
151
 50
358.0773
  7
ROMANS
 11
915074.115683
 21
7280270.575119
 31
0.0
210
0.0
220
0.0
230
1.0
 73
     3
  0
TEXT
  8
10
  6
CONTINUOUS
 62
   134
  5
285
 10
914957.973
 20
7280260.467
 30
0.0
 40
13.999
  1
152
 50
358.0773
  7
ROMANS
 11
914958.442683
 21
7280274.458119
 31
0.0
210
0.0
220
0.0
230
1.0
 73
     3
  0
TEXT
  8
10
  6
CONTINUOUS
 62
   134
  5
286
 10
914869.292
 20
7280263.444
 30
0.0
 40
13.999
  1
153
 50
358.0773
  7
ROMANS
 11
914869.761683
 21
7280277.435119
 31
0.0
210
0.0
220
0.0
230
1.0
 73
     3
  0
TEXT
  8
10
  6
CONTINUOUS
 62
   134
  5
287
 10
914765.186
 20
7280266.939
 30
0.0
 40
13.999
  1
154
 50
358.0773
  7
ROMANS
 11
914765.655683
 21
7280280.930119
 31
0.0
210
0.0
220
0.0
230
1.0
 73
     3
  0
TEXT
  8
10
  6
CONTINUOUS
 62
   134
  5
288
 10
914668.793
 20
7280270.175
 30
0.0
 40
13.999
  1
155
 50
358.0773
  7
ROMANS
 11
914669.262683
 21
7280284.166119
 31
0.0
210
0.0
220
0.0
230
1.0
 73
     3
  0
TEXT
  8
10
  6
CONTINUOUS
 62
   134
  5
289
 10
914560.832
 20
7280273.799
 30
0.0
 40
13.999
  1
156
 50
358.0773
  7
ROMANS
 11
914561.301683
 21
7280287.790119
 31
0.0
210
0.0
220
0.0
230
1.0
 73
     3
  0
TEXT
  8
10
  6
CONTINUOUS
 62
   134
  5
28A
 10
914468.295
 20
7280276.906
 30
0.0
 40
13.999
  1
157
 50
358.0773
  7
ROMANS
 11
914468.764683
 21
7280290.897119
 31
0.0
210
0.0
220
0.0
230
1.0
 73
     3
  0
TEXT
  8
10
  6
CONTINUOUS
 62
   134
  5
28B
 10
914368.045
 20
7280280.271
 30
0.0
 40
13.999
  1
158
 50
358.0773
  7
ROMANS
 11
914368.514683
 21
7280294.262119
 31
0.0
210
0.0
220
0.0
230
1.0
 73
     3
  0
TEXT
  8
10
  6
CONTINUOUS
 62
   134
  5
28C
 10
914263.939
 20
7280283.765
 30
0.0
 40
13.999
  1
159
 50
358.0773
  7
ROMANS
 11
914264.408683
 21
7280297.756119
 31
0.0
210
0.0
220
0.0
230
1.0
 73
     3
  0
TEXT
  8
10
  6
CONTINUOUS
 62
   134
  5
28D
 10
914163.69
 20
7280287.132
 30
0.0
 40
13.999
  1
160
 50
358.0773
  7
ROMANS
 11
914164.159683
 21
7280301.123119
 31
0.0
210
0.0
220
0.0
230
1.0
 73
     3
  0
TEXT
  8
10
  6
CONTINUOUS
 62
   134
  5
28E
 10
914063.441
 20
7280290.497
 30
0.0
 40
13.999
  1
161
 50
358.0773
  7
ROMANS
 11
914063.910683
 21
7280304.488119
 31
0.0
210
0.0
220
0.0
230
1.0
 73
     3
  0
TEXT
  8
10
  6
CONTINUOUS
 62
   134
  5
28F
 10
913882.22
 20
7280296.58
 30
0.0
 40
13.999
  1
162
 50
358.0773
  7
ROMANS
 11
913882.689683
 21
7280310.571119
 31
0.0
210
0.0
220
0.0
230
1.0
 73
     3
  0
TEXT
  8
10
  6
CONTINUOUS
 62
   134
  5
290
 10
913789.683
 20
7280299.687
 30
0.0
 40
13.999
  1
163
 50
358.0773
  7
ROMANS
 11
913790.152683
 21
7280313.678119
 31
0.0
210
0.0
220
0.0
230
1.0
 73
     3
  0
TEXT
  8
10
  6
CONTINUOUS
 62
   134
  5
291
 10
913693.289
 20
7280302.922
 30
0.0
 40
13.999
  1
164
 50
358.0773
  7
ROMANS
 11
913693.758683
 21
7280316.913119
 31
0.0
210
0.0
220
0.0
230
1.0
 73
     3
  0
TEXT
  8
10
  6
CONTINUOUS
 62
   134
  5
292
 10
913600.751
 20
7280306.029
 30
0.0
 40
13.999
  1
165
 50
358.0773
  7
ROMANS
 11
913601.220683
 21
7280320.020119
 31
0.0
210
0.0
220
0.0
230
1.0
 73
     3
  0
TEXT
  8
10
  6
CONTINUOUS
 62
   134
  5
293
 10
913500.501
 20
7280309.394
 30
0.0
 40
13.999
  1
166
 50
358.0773
  7
ROMANS
 11
913500.970683
 21
7280323.385119
 31
0.0
210
0.0
220
0.0
230
1.0
 73
     3
  0
TEXT
  8
10
  6
CONTINUOUS
 62
   134
  5
294
 10
913388.685
 20
7280313.148
 30
0.0
 40
13.999
  1
167
 50
358.0773
  7
ROMANS
 11
913389.154683
 21
7280327.139119
 31
0.0
210
0.0
220
0.0
230
1.0
 73
     3
  0
TEXT
  8
10
  6
CONTINUOUS
 62
   134
  5
295
 10
913379.782
 20
7280047.908
 30
0.0
 40
13.999
  1
168
 50
358.0773
  7
ROMANS
 11
913380.251683
 21
7280061.899119
 31
0.0
210
0.0
220
0.0
230
1.0
 73
     3
  0
TEXT
  8
10
  6
CONTINUOUS
 62
   134
  5
296
 10
913487.741
 20
7280044.284
 30
0.0
 40
13.999
  1
169
 50
358.0773
  7
ROMANS
 11
913488.210683
 21
7280058.275119
 31
0.0
210
0.0
220
0.0
230
1.0
 73
     3
  0
TEXT
  8
10
  6
CONTINUOUS
 62
   134
  5
297
 10
913603.414
 20
7280040.401
 30
0.0
 40
13.999
  1
170
 50
358.0773
  7
ROMANS
 11
913603.883683
 21
7280054.392119
 31
0.0
210
0.0
220
0.0
230
1.0
 73
     3
  0
TEXT
  8
10
  6
CONTINUOUS
 62
   134
  5
298
 10
913699.808
 20
7280037.166
 30
0.0
 40
13.999
  1
171
 50
358.0773
  7
ROMANS
 11
913700.277683
 21
7280051.157119
 31
0.0
210
0.0
220
0.0
230
1.0
 73
     3
  0
TEXT
  8
10
  6
CONTINUOUS
 62
   134
  5
299
 10
913811.624
 20
7280033.411
 30
0.0
 40
13.999
  1
172
 50
358.0773
  7
ROMANS
 11
913812.093683
 21
7280047.402119
 31
0.0
210
0.0
220
0.0
230
1.0
 73
     3
  0
TEXT
  8
10
  6
CONTINUOUS
 62
   134
  5
29A
 10
913911.874
 20
7280030.046
 30
0.0
 40
13.999
  1
173
 50
358.0773
  7
ROMANS
 11
913912.343683
 21
7280044.037119
 31
0.0
210
0.0
220
0.0
230
1.0
 73
     3
  0
TEXT
  8
10
  6
CONTINUOUS
 62
   134
  5
29B
 10
914012.123
 20
7280026.681
 30
0.0
 40
13.999
  1
174
 50
358.0773
  7
ROMANS
 11
914012.592683
 21
7280040.672119
 31
0.0
210
0.0
220
0.0
230
1.0
 73
     3
  0
TEXT
  8
10
  6
CONTINUOUS
 62
   134
  5
29C
 10
914104.662
 20
7280023.574
 30
0.0
 40
13.999
  1
175
 50
358.0773
  7
ROMANS
 11
914105.131683
 21
7280037.565119
 31
0.0
210
0.0
220
0.0
230
1.0
 73
     3
  0
TEXT
  8
10
  6
CONTINUOUS
 62
   134
  5
29D
 10
914204.911
 20
7280020.209
 30
0.0
 40
13.999
  1
176
 50
358.0773
  7
ROMANS
 11
914205.380683
 21
7280034.200119
 31
0.0
210
0.0
220
0.0
230
1.0
 73
     3
  0
TEXT
  8
10
  6
CONTINUOUS
 62
   134
  5
29E
 10
914312.872
 20
7280016.584
 30
0.0
 40
13.999
  1
177
 50
358.0773
  7
ROMANS
 11
914313.341683
 21
7280030.575119
 31
0.0
210
0.0
220
0.0
230
1.0
 73
     3
  0
TEXT
  8
10
  6
CONTINUOUS
 62
   134
  5
29F
 10
914401.554
 20
7280013.607
 30
0.0
 40
13.999
  1
178
 50
358.0773
  7
ROMANS
 11
914402.023683
 21
7280027.598119
 31
0.0
210
0.0
220
0.0
230
1.0
 73
     3
  0
TEXT
  8
10
  6
CONTINUOUS
 62
   134
  5
2A0
 10
914513.37
 20
7280009.854
 30
0.0
 40
13.999
  1
179
 50
358.0773
  7
ROMANS
 11
914513.839683
 21
7280023.845119
 31
0.0
210
0.0
220
0.0
230
1.0
 73
     3
  0
TEXT
  8
10
  6
CONTINUOUS
 62
   134
  5
2A1
 10
914605.908
 20
7280006.747
 30
0.0
 40
13.999
  1
180
 50
358.0773
  7
ROMANS
 11
914606.377683
 21
7280020.738119
 31
0.0
210
0.0
220
0.0
230
1.0
 73
     3
  0
TEXT
  8
10
  6
CONTINUOUS
 62
   134
  5
2A2
 10
914702.301
 20
7280003.512
 30
0.0
 40
13.999
  1
181
 50
358.0773
  7
ROMANS
 11
914702.770683
 21
7280017.503119
 31
0.0
210
0.0
220
0.0
230
1.0
 73
     3
  0
TEXT
  8
10
  6
CONTINUOUS
 62
   134
  5
2A3
 10
914821.83
 20
7279999.498
 30
0.0
 40
13.999
  1
182
 50
358.0773
  7
ROMANS
 11
914822.299683
 21
7280013.489119
 31
0.0
210
0.0
220
0.0
230
1.0
 73
     3
  0
TEXT
  8
10
  6
CONTINUOUS
 62
   134
  5
2A4
 10
914987.627
 20
7279993.933
 30
0.0
 40
13.999
  1
183
 50
358.0773
  7
ROMANS
 11
914988.096683
 21
7280007.924119
 31
0.0
210
0.0
220
0.0
230
1.0
 73
     3
  0
TEXT
  8
10
  6
CONTINUOUS
 62
   134
  5
2A5
 10
915099.443
 20
7279990.179
 30
0.0
 40
13.999
  1
184
 50
358.0773
  7
ROMANS
 11
915099.912683
 21
7280004.170119
 31
0.0
210
0.0
220
0.0
230
1.0
 73
     3
  0
TEXT
  8
10
  6
CONTINUOUS
 62
   134
  5
2A6
 10
915203.549
 20
7279986.685
 30
0.0
 40
13.999
  1
185
 50
358.0773
  7
ROMANS
 11
915204.018683
 21
7280000.676119
 31
0.0
210
0.0
220
0.0
230
1.0
 73
     3
  0
TEXT
  8
10
  6
CONTINUOUS
 62
   134
  5
2A7
 10
915315.365
 20
7279982.931
 30
0.0
 40
13.999
  1
186
 50
358.0773
  7
ROMANS
 11
915315.834683
 21
7279996.922119
 31
0.0
210
0.0
220
0.0
230
1.0
 73
     3
  0
TEXT
  8
10
  6
CONTINUOUS
 62
   134
  5
2A8
 10
915427.182
 20
7279979.177
 30
0.0
 40
13.999
  1
187
 50
358.0773
  7
ROMANS
 11
915427.651683
 21
7279993.168119
 31
0.0
210
0.0
220
0.0
230
1.0
 73
     3
  0
TEXT
  8
10
  6
CONTINUOUS
 62
   134
  5
2A9
 10
915527.432
 20
7279975.812
 30
0.0
 40
13.999
  1
188
 50
358.0773
  7
ROMANS
 11
915527.901683
 21
7279989.803119
 31
0.0
210
0.0
220
0.0
230
1.0
 73
     3
  0
TEXT
  8
10
  6
CONTINUOUS
 62
   134
  5
2AA
 10
915631.536
 20
7279972.317
 30
0.0
 40
13.999
  1
189
 50
358.0773
  7
ROMANS
 11
915632.005683
 21
7279986.308119
 31
0.0
210
0.0
220
0.0
230
1.0
 73
     3
  0
TEXT
  8
10
  6
CONTINUOUS
 62
   134
  5
2AB
 10
915731.786
 20
7279968.952
 30
0.0
 40
13.999
  1
190
 50
358.0773
  7
ROMANS
 11
915732.255683
 21
7279982.943119
 31
0.0
210
0.0
220
0.0
230
1.0
 73
     3
  0
TEXT
  8
10
  6
CONTINUOUS
 62
   134
  5
2AC
 10
915824.323
 20
7279965.846
 30
0.0
 40
13.999
  1
191
 50
358.0773
  7
ROMANS
 11
915824.792683
 21
7279979.837119
 31
0.0
210
0.0
220
0.0
230
1.0
 73
     3
  0
TEXT
  8
10
  6
CONTINUOUS
 62
   134
  5
2AD
 10
914808.29
 20
7279826.129
 30
0.0
 40
13.999
  1
192
 50
358.0773
  7
ROMANS
 11
914808.759683
 21
7279840.120119
 31
0.0
210
0.0
220
0.0
230
1.0
 73
     3
  0
TEXT
  8
10
  6
CONTINUOUS
 62
   134
  5
2AE
 10
914804.663
 20
7279718.092
 30
0.0
 40
13.999
  1
193
 50
358.0773
  7
ROMANS
 11
914805.132683
 21
7279732.083119
 31
0.0
210
0.0
220
0.0
230
1.0
 73
     3
  0
TEXT
  8
10
  6
CONTINUOUS
 62
   134
  5
2AF
 10
914671.396
 20
7279772.782
 30
0.0
 40
13.999
  1
194
 50
358.0773
  7
ROMANS
 11
914671.865683
 21
7279786.773119
 31
0.0
210
0.0
220
0.0
230
1.0
 73
     3
  0
TEXT
  8
10
  6
CONTINUOUS
 62
   134
  5
2B0
 10
914582.713
 20
7279775.759
 30
0.0
 40
13.999
  1
195
 50
358.0773
  7
ROMANS
 11
914583.182683
 21
7279789.750119
 31
0.0
210
0.0
220
0.0
230
1.0
 73
     3
  0
TEXT
  8
10
  6
CONTINUOUS
 62
   134
  5
2B1
 10
914494.032
 20
7279778.736
 30
0.0
 40
13.999
  1
196
 50
358.0773
  7
ROMANS
 11
914494.501683
 21
7279792.727119
 31
0.0
210
0.0
220
0.0
230
1.0
 73
     3
  0
TEXT
  8
10
  6
CONTINUOUS
 62
   134
  5
2B2
 10
914405.35
 20
7279781.713
 30
0.0
 40
13.999
  1
197
 50
358.0773
  7
ROMANS
 11
914405.819683
 21
7279795.704119
 31
0.0
210
0.0
220
0.0
230
1.0
 73
     3
  0
TEXT
  8
10
  6
CONTINUOUS
 62
   134
  5
2B3
 10
914320.523
 20
7279784.561
 30
0.0
 40
13.999
  1
198
 50
358.0773
  7
ROMANS
 11
914320.992683
 21
7279798.552119
 31
0.0
210
0.0
220
0.0
230
1.0
 73
     3
  0
TEXT
  8
10
  6
CONTINUOUS
 62
   134
  5
2B4
 10
914239.552
 20
7279787.279
 30
0.0
 40
13.999
  1
199
 50
358.0773
  7
ROMANS
 11
914240.021683
 21
7279801.270119
 31
0.0
210
0.0
220
0.0
230
1.0
 73
     3
  0
TEXT
  8
10
  6
CONTINUOUS
 62
   134
  5
2B5
 10
914158.581
 20
7279789.997
 30
0.0
 40
13.999
  1
200
 50
358.0773
  7
ROMANS
 11
914159.050683
 21
7279803.988119
 31
0.0
210
0.0
220
0.0
230
1.0
 73
     3
  0
TEXT
  8
10
  6
CONTINUOUS
 62
   134
  5
2B6
 10
914073.755
 20
7279792.845
 30
0.0
 40
13.999
  1
201
 50
358.0773
  7
ROMANS
 11
914074.224683
 21
7279806.836119
 31
0.0
210
0.0
220
0.0
230
1.0
 73
     3
  0
TEXT
  8
10
  6
CONTINUOUS
 62
   134
  5
2B7
 10
913988.929
 20
7279795.693
 30
0.0
 40
13.999
  1
202
 50
358.0773
  7
ROMANS
 11
913989.398683
 21
7279809.684119
 31
0.0
210
0.0
220
0.0
230
1.0
 73
     3
  0
TEXT
  8
10
  6
CONTINUOUS
 62
   134
  5
2B8
 10
913904.102
 20
7279798.54
 30
0.0
 40
13.999
  1
203
 50
358.0773
  7
ROMANS
 11
913904.571683
 21
7279812.531119
 31
0.0
210
0.0
220
0.0
230
1.0
 73
     3
  0
TEXT
  8
10
  6
CONTINUOUS
 62
   134
  5
2B9
 10
913819.276
 20
7279801.388
 30
0.0
 40
13.999
  1
204
 50
358.0773
  7
ROMANS
 11
913819.745683
 21
7279815.379119
 31
0.0
210
0.0
220
0.0
230
1.0
 73
     3
  0
TEXT
  8
10
  6
CONTINUOUS
 62
   134
  5
2BA
 10
913742.161
 20
7279803.977
 30
0.0
 40
13.999
  1
205
 50
358.0773
  7
ROMANS
 11
913742.630683
 21
7279817.968119
 31
0.0
210
0.0
220
0.0
230
1.0
 73
     3
  0
TEXT
  8
10
  6
CONTINUOUS
 62
   134
  5
2BB
 10
915000.948
 20
7279815.798
 30
0.0
 40
13.999
  1
206
 50
358.0773
  7
ROMANS
 11
915001.417683
 21
7279829.789119
 31
0.0
210
0.0
220
0.0
230
1.0
 73
     3
  0
TEXT
  8
10
  6
CONTINUOUS
 62
   134
  5
2BC
 10
914997.32
 20
7279707.762
 30
0.0
 40
13.999
  1
207
 50
358.0773
  7
ROMANS
 11
914997.789683
 21
7279721.753119
 31
0.0
210
0.0
220
0.0
230
1.0
 73
     3
  0
TEXT
  8
10
  6
CONTINUOUS
 62
   134
  5
2BD
 10
915137.941
 20
7279757.121
 30
0.0
 40
13.999
  1
208
 50
358.0773
  7
ROMANS
 11
915138.410683
 21
7279771.112119
 31
0.0
210
0.0
220
0.0
230
1.0
 73
     3
  0
TEXT
  8
10
  6
CONTINUOUS
 62
   134
  5
2BE
 10
915218.911
 20
7279754.403
 30
0.0
 40
13.999
  1
209
 50
358.0773
  7
ROMANS
 11
915219.380683
 21
7279768.394119
 31
0.0
210
0.0
220
0.0
230
1.0
 73
     3
  0
TEXT
  8
10
  6
CONTINUOUS
 62
   134
  5
2BF
 10
915307.593
 20
7279751.426
 30
0.0
 40
13.999
  1
210
 50
358.0773
  7
ROMANS
 11
915308.062683
 21
7279765.417119
 31
0.0
210
0.0
220
0.0
230
1.0
 73
     3
  0
TEXT
  8
10
  6
CONTINUOUS
 62
   134
  5
2C0
 10
915392.42
 20
7279748.578
 30
0.0
 40
13.999
  1
211
 50
358.0773
  7
ROMANS
 11
915392.889683
 21
7279762.569119
 31
0.0
210
0.0
220
0.0
230
1.0
 73
     3
  0
TEXT
  8
10
  6
CONTINUOUS
 62
   134
  5
2C1
 10
915492.669
 20
7279745.212
 30
0.0
 40
13.999
  1
212
 50
358.0773
  7
ROMANS
 11
915493.138683
 21
7279759.203119
 31
0.0
210
0.0
220
0.0
230
1.0
 73
     3
  0
TEXT
  8
10
  6
CONTINUOUS
 62
   134
  5
2C2
 10
915589.063
 20
7279741.976
 30
0.0
 40
13.999
  1
213
 50
358.0773
  7
ROMANS
 11
915589.532683
 21
7279755.967119
 31
0.0
210
0.0
220
0.0
230
1.0
 73
     3
  0
TEXT
  8
10
  6
CONTINUOUS
 62
   134
  5
2C3
 10
915720.029
 20
7279733.716
 30
0.0
 40
13.999
  1
  A-1
 50
358.0773
  7
ROMANS
 11
915720.498683
 21
7279747.707119
 31
0.0
210
0.0
220
0.0
230
1.0
 73
     3
  0
LINE
  8
6
  6
CONTINUOUS
 62
     7
  5
2C4
 10
915941.781
 20
7282167.398
 30
0.0
 11
915871.811
 21
7282169.746
 31
0.0
  0
ARC
  8
6
  6
CONTINUOUS
 62
     7
  5
2C5
 10
915940.774725
 20
7282137.414643
 30
0.0
 40
30.0
 50
358.0773
 51
88.0773
210
0.0
220
0.0
230
1.0
  0
LINE
  8
6
  6
CONTINUOUS
 62
     7
  5
2C6
 10
915871.811
 20
7282169.746
 30
0.0
 11
915722.716
 21
7282182.846
 31
0.0
  0
LINE
  8
6
  6
CONTINUOUS
 62
     7
  5
2C7
 10
910833.454
 20
7284968.661
 30
0.0
 11
916060.03
 21
7284795.41
 31
0.0
  0
LINE
  8
6
  6
CONTINUOUS
 62
     7
  5
2C8
 10
915973.109
 20
7282206.459
 30
0.0
 11
916060.03
 21
7284795.41
 31
0.0
  0
LINE
  8
6
  6
CONTINUOUS
 62
     7
  5
2C9
 10
913301.892
 20
7279704.193
 30
0.0
 11
910671.027
 21
7279787.167
 31
0.0
  0
LINE
  8
6
  6
CONTINUOUS
 62
     7
  5
2CA
 10
910671.027
 20
7279787.167
 30
0.0
 11
910833.454
 21
7284968.661
 31
0.0
  0
TEXT
  8
10
  6
CONTINUOUS
 62
   134
  5
2CB
 10
913079.055
 20
7282708.981
 30
0.0
 40
13.999
  1
UNSUBDIVIDED
 50
358.0773
  7
ROMANS
 11
913079.524683
 21
7282722.972119
 31
0.0
210
0.0
220
0.0
230
1.0
 73
     3
  0
TEXT
  8
10
  6
CONTINUOUS
 62
   134
  5
2CC
 10
913434.91
 20
7279819.48
 30
0.0
 40
13.999
  1
UNSUBDIVIDED
 50
358.0773
  7
ROMANS
 11
913435.379683
 21
7279833.471119
 31
0.0
210
0.0
220
0.0
230
1.0
 73
     3
  0
TEXT
  8
11
  6
CONTINUOUS
 62
     7
  5
2CE
 10
913710.958
 20
7282146.433
 30
0.0
 40
8.0
  1
145.48
 50
88.0773
  7
ROMANS
210
0.0
220
0.0
230
1.0
  0
TEXT
  8
11
  6
CONTINUOUS
 62
     7
  5
2CF
 10
913751.094
 20
7282145.086
 30
0.0
 40
8.0
  1
145.48
 50
88.0773
  7
ROMANS
210
0.0
220
0.0
230
1.0
  0
TEXT
  8
11
  6
CONTINUOUS
 62
     7
  5
2D0
 10
914387.799
 20
7282123.712
 30
0.0
 40
8.0
  1
145.48
 50
88.0773
  7
ROMANS
210
0.0
220
0.0
230
1.0
  0
TEXT
  8
11
  6
CONTINUOUS
 62
     7
  5
2D1
 10
914426.11
 20
7282122.426
 30
0.0
 40
8.0
  1
145.48
 50
88.0773
  7
ROMANS
210
0.0
220
0.0
230
1.0
  0
TEXT
  8
11
  6
CONTINUOUS
 62
     7
  5
2D2
 10
915687.288
 20
7282080.088
 30
0.0
 40
8.0
  1
145.48
 50
88.0773
  7
ROMANS
210
0.0
220
0.0
230
1.0
  0
TEXT
  8
11
  6
CONTINUOUS
 62
     7
  5
2D3
 10
915729.249
 20
7282078.679
 30
0.0
 40
8.0
  1
145.48
 50
88.0773
  7
ROMANS
210
0.0
220
0.0
230
1.0
  0
TEXT
  8
11
  6
CONTINUOUS
 62
     7
  5
2D4
 10
915964.532
 20
7282068.964
 30
0.0
 40
8.0
  1
107.39'
 50
88.0773
  7
ROMANS
210
0.0
220
0.0
230
1.0
  0
TEXT
  8
11
  6
CONTINUOUS
 62
     7
  5
2D5
 10
915455.534
 20
7282086.051
 30
0.0
 40
8.0
  1
130.48'
 50
88.0773
  7
ROMANS
210
0.0
220
0.0
230
1.0
  0
TEXT
  8
11
  6
CONTINUOUS
 62
     7
  5
2D6
 10
914705.718
 20
7282111.222
 30
0.0
 40
8.0
  1
130.48'
 50
88.0773
  7
ROMANS
210
0.0
220
0.0
230
1.0
  0
TEXT
  8
11
  6
CONTINUOUS
 62
     7
  5
2D7
 10
914104.919
 20
7282131.392
 30
0.0
 40
8.0
  1
130.48'
 50
88.0773
  7
ROMANS
210
0.0
220
0.0
230
1.0
  0
TEXT
  8
11
  6
CONTINUOUS
 62
     7
  5
2D8
 10
914033.769
 20
7282133.78
 30
0.0
 40
8.0
  1
130.48'
 50
88.0773
  7
ROMANS
210
0.0
220
0.0
230
1.0
  0
TEXT
  8
11
  6
CONTINUOUS
 62
     7
  5
2D9
 10
913428.078
 20
7282154.113
 30
0.0
 40
8.0
  1
130.48'
 50
88.0773
  7
ROMANS
210
0.0
220
0.0
230
1.0
  0
TEXT
  8
11
  6
CONTINUOUS
 62
     7
  5
2DA
 10
913406.859
 20
7281467.628
 30
0.0
 40
8.0
  1
140'
 50
88.0773
  7
ROMANS
210
0.0
220
0.0
230
1.0
  0
TEXT
  8
11
  6
CONTINUOUS
 62
     7
  5
2DB
 10
913411.456
 20
7281604.551
 30
0.0
 40
8.0
  1
140'
 50
88.0773
  7
ROMANS
210
0.0
220
0.0
230
1.0
  0
TEXT
  8
11
  6
CONTINUOUS
 62
     7
  5
2DC
 10
913416.297
 20
7281748.777
 30
0.0
 40
8.0
  1
140'
 50
88.0773
  7
ROMANS
210
0.0
220
0.0
230
1.0
  0
TEXT
  8
11
  6
CONTINUOUS
 62
     7
  5
2DD
 10
913420.833
 20
7281883.874
 30
0.0
 40
8.0
  1
140'
 50
88.0773
  7
ROMANS
210
0.0
220
0.0
230
1.0
  0
TEXT
  8
11
  6
CONTINUOUS
 62
     7
  5
2DE
 10
913425.613
 20
7282026.274
 30
0.0
 40
8.0
  1
140'
 50
88.0773
  7
ROMANS
210
0.0
220
0.0
230
1.0
  0
TEXT
  8
11
  6
CONTINUOUS
 62
     7
  5
2DF
 10
914025.829
 20
7282006.125
 30
0.0
 40
8.0
  1
140'
 50
88.0773
  7
ROMANS
210
0.0
220
0.0
230
1.0
  0
TEXT
  8
11
  6
CONTINUOUS
 62
     7
  5
2E0
 10
914021.171
 20
7281867.375
 30
0.0
 40
8.0
  1
140'
 50
88.0773
  7
ROMANS
210
0.0
220
0.0
230
1.0
  0
TEXT
  8
11
  6
CONTINUOUS
 62
     7
  5
2E1
 10
914016.391
 20
7281724.976
 30
0.0
 40
8.0
  1
140'
 50
88.0773
  7
ROMANS
210
0.0
220
0.0
230
1.0
  0
TEXT
  8
11
  6
CONTINUOUS
 62
     7
  5
2E2
 10
914011.428
 20
7281577.1
 30
0.0
 40
8.0
  1
140'
 50
88.0773
  7
ROMANS
210
0.0
220
0.0
230
1.0
  0
TEXT
  8
11
  6
CONTINUOUS
 62
     7
  5
2E3
 10
914007.075
 20
7281447.479
 30
0.0
 40
8.0
  1
140'
 50
88.0773
  7
ROMANS
210
0.0
220
0.0
230
1.0
  0
TEXT
  8
11
  6
CONTINUOUS
 62
     7
  5
2E4
 10
914085.524
 20
7281444.845
 30
0.0
 40
8.0
  1
140'
 50
88.0773
  7
ROMANS
210
0.0
220
0.0
230
1.0
  0
TEXT
  8
11
  6
CONTINUOUS
 62
     7
  5
2E5
 10
914090.059
 20
7281579.944
 30
0.0
 40
8.0
  1
140'
 50
88.0773
  7
ROMANS
210
0.0
220
0.0
230
1.0
  0
TEXT
  8
11
  6
CONTINUOUS
 62
     7
  5
2E6
 10
914094.717
 20
7281718.691
 30
0.0
 40
8.0
  1
140'
 50
88.0773
  7
ROMANS
210
0.0
220
0.0
230
1.0
  0
TEXT
  8
11
  6
CONTINUOUS
 62
     7
  5
2E7
 10
914099.62
 20
7281864.742
 30
0.0
 40
8.0
  1
140'
 50
88.0773
  7
ROMANS
210
0.0
220
0.0
230
1.0
  0
TEXT
  8
11
  6
CONTINUOUS
 62
     7
  5
2E8
 10
914104.4
 20
7282007.142
 30
0.0
 40
8.0
  1
140'
 50
88.0773
  7
ROMANS
210
0.0
220
0.0
230
1.0
  0
TEXT
  8
11
  6
CONTINUOUS
 62
     7
  5
2E9
 10
914702.792
 20
7281987.053
 30
0.0
 40
8.0
  1
140'
 50
88.0773
  7
ROMANS
210
0.0
220
0.0
230
1.0
  0
TEXT
  8
11
  6
CONTINUOUS
 62
     7
  5
2EA
 10
914697.768
 20
7281837.352
 30
0.0
 40
8.0
  1
140'
 50
88.0773
  7
ROMANS
210
0.0
220
0.0
230
1.0
  0
TEXT
  8
11
  6
CONTINUOUS
 62
     7
  5
2EB
 10
914692.987
 20
7281694.952
 30
0.0
 40
8.0
  1
140'
 50
88.0773
  7
ROMANS
210
0.0
220
0.0
230
1.0
  0
TEXT
  8
11
  6
CONTINUOUS
 62
     7
  5
2EC
 10
914688.514
 20
7281561.68
 30
0.0
 40
8.0
  1
140'
 50
88.0773
  7
ROMANS
210
0.0
220
0.0
230
1.0
  0
TEXT
  8
11
  6
CONTINUOUS
 62
     7
  5
2ED
 10
914683.856
 20
7281422.932
 30
0.0
 40
8.0
  1
140'
 50
88.0773
  7
ROMANS
210
0.0
220
0.0
230
1.0
  0
TEXT
  8
11
  6
CONTINUOUS
 62
     7
  5
2EE
 10
913687.75
 20
7281456.372
 30
0.0
 40
8.0
  1
130'
 50
88.0773
  7
ROMANS
210
0.0
220
0.0
230
1.0
  0
TEXT
  8
11
  6
CONTINUOUS
 62
     7
  5
2EF
 10
913726.062
 20
7281455.086
 30
0.0
 40
8.0
  1
130'
 50
88.0773
  7
ROMANS
210
0.0
220
0.0
230
1.0
  0
TEXT
  8
11
  6
CONTINUOUS
 62
     7
  5
2F0
 10
914364.591
 20
7281433.65
 30
0.0
 40
8.0
  1
130'
 50
88.0773
  7
ROMANS
210
0.0
220
0.0
230
1.0
  0
TEXT
  8
11
  6
CONTINUOUS
 62
     7
  5
2F1
 10
914406.551
 20
7281432.242
 30
0.0
 40
8.0
  1
130'
 50
88.0773
  7
ROMANS
210
0.0
220
0.0
230
1.0
  0
TEXT
  8
11
  6
CONTINUOUS
 62
     7
  5
2F2
 10
914214.505
 20
7281390.523
 30
0.0
 40
8.0
  1
290'
 50
358.0773
  7
ROMANS
210
0.0
220
0.0
230
1.0
  0
TEXT
  8
11
  6
CONTINUOUS
 62
     7
  5
2F3
 10
914526.471
 20
7281380.05
 30
0.0
 40
8.0
  1
290'
 50
358.0773
  7
ROMANS
210
0.0
220
0.0
230
1.0
  0
TEXT
  8
11
  6
CONTINUOUS
 62
     7
  5
2F4
 10
913836.41
 20
7281403.215
 30
0.0
 40
8.0
  1
290'
 50
358.0773
  7
ROMANS
 72
     1
 11
913849.735494
 21
7281402.767663
 31
0.0
210
0.0
220
0.0
230
1.0
  0
TEXT
  8
11
  6
CONTINUOUS
 62
     7
  5
2F5
 10
913521.666
 20
7281413.782
 30
0.0
 40
8.0
  1
290.14'
 50
358.0773
  7
ROMANS
 72
     1
 11
913546.984738
 21
7281412.932049
 31
0.0
210
0.0
220
0.0
230
1.0
  0
TEXT
  8
11
  6
CONTINUOUS
 62
     7
  5
2F6
 10
913530.011
 20
7281553.58
 30
0.0
 40
8.0
  1
300.14'
 50
358.0773
  7
ROMANS
 72
     1
 11
913555.329738
 21
7281552.730049
 31
0.0
210
0.0
220
0.0
230
1.0
  0
TEXT
  8
11
  6
CONTINUOUS
 62
     7
  5
2F7
 10
913550.155
 20
7282099.211
 30
0.0
 40
8.0
  1
300.14'
 50
358.0773
  7
ROMANS
 72
     1
 11
913575.742147
 21
7282106.356545
 31
0.0
210
0.0
220
0.0
230
1.0
 73
     3
  0
TEXT
  8
11
  6
CONTINUOUS
 62
     7
  5
2F8
 10
913556.86
 20
7282244.548
 30
0.0
 40
8.0
  1
285.14'
 50
358.0773
  7
ROMANS
 72
     1
 11
913582.447147
 21
7282251.693545
 31
0.0
210
0.0
220
0.0
230
1.0
 73
     3
  0
TEXT
  8
11
  6
CONTINUOUS
 62
     7
  5
2F9
 10
913869.781
 20
7282234.043
 30
0.0
 40
8.0
  1
285'
 50
358.0773
  7
ROMANS
 72
     1
 11
913883.374903
 21
7282241.591159
 31
0.0
210
0.0
220
0.0
230
1.0
 73
     3
  0
TEXT
  8
11
  6
CONTINUOUS
 62
     7
  5
2FA
 10
913866.723
 20
7282088.584
 30
0.0
 40
8.0
  1
300'
 50
358.0773
  7
ROMANS
 72
     1
 11
913880.316903
 21
7282096.132159
 31
0.0
210
0.0
220
0.0
230
1.0
 73
     3
  0
TEXT
  8
11
  6
CONTINUOUS
 62
     7
  5
2FB
 10
913846.581
 20
7281542.953
 30
0.0
 40
8.0
  1
300'
 50
358.0773
  7
ROMANS
 72
     1
 11
913859.906494
 21
7281542.505663
 31
0.0
210
0.0
220
0.0
230
1.0
  0
TEXT
  8
11
  6
CONTINUOUS
 62
     7
  5
2FC
 10
914209.629
 20
7281530.765
 30
0.0
 40
8.0
  1
300'
 50
358.0773
  7
ROMANS
 72
     1
 11
914222.954494
 21
7281530.317663
 31
0.0
210
0.0
220
0.0
230
1.0
  0
TEXT
  8
11
  6
CONTINUOUS
 62
     7
  5
2FD
 10
914527.07
 20
7281520.109
 30
0.0
 40
8.0
  1
300'
 50
358.0773
  7
ROMANS
 72
     1
 11
914540.395494
 21
7281519.661663
 31
0.0
210
0.0
220
0.0
230
1.0
  0
TEXT
  8
11
  6
CONTINUOUS
 62
     7
  5
2FE
 10
914224.3
 20
7282076.58
 30
0.0
 40
8.0
  1
300'
 50
358.0773
  7
ROMANS
 72
     1
 11
914237.893903
 21
7282084.128159
 31
0.0
210
0.0
220
0.0
230
1.0
 73
     3
  0
TEXT
  8
11
  6
CONTINUOUS
 62
     7
  5
2FF
 10
914536.266
 20
7282066.108
 30
0.0
 40
8.0
  1
300'
 50
358.0773
  7
ROMANS
 72
     1
 11
914549.859903
 21
7282073.656159
 31
0.0
210
0.0
220
0.0
230
1.0
 73
     3
  0
TEXT
  8
11
  6
CONTINUOUS
 62
     7
  5
300
 10
914220.059
 20
7282222.284
 30
0.0
 40
8.0
  1
285'
 50
358.0773
  7
ROMANS
 72
     1
 11
914233.652903
 21
7282229.832159
 31
0.0
210
0.0
220
0.0
230
1.0
 73
     3
  0
TEXT
  8
11
  6
CONTINUOUS
 62
     7
  5
301
 10
914535.675
 20
7282211.689
 30
0.0
 40
8.0
  1
285'
 50
358.0773
  7
ROMANS
 72
     1
 11
914549.268903
 21
7282219.237159
 31
0.0
210
0.0
220
0.0
230
1.0
 73
     3
  0
TEXT
  8
11
  6
CONTINUOUS
 62
     7
  5
302
 10
915063.418
 20
7282101.032
 30
0.0
 40
8.0
  1
145.48
 50
88.0773
  7
ROMANS
210
0.0
220
0.0
230
1.0
  0
TEXT
  8
11
  6
CONTINUOUS
 62
     7
  5
303
 10
915101.73
 20
7282099.745
 30
0.0
 40
8.0
  1
145.48
 50
88.0773
  7
ROMANS
210
0.0
220
0.0
230
1.0
  0
TEXT
  8
11
  6
CONTINUOUS
 62
     7
  5
304
 10
915381.337
 20
7282088.542
 30
0.0
 40
8.0
  1
130.48'
 50
88.0773
  7
ROMANS
210
0.0
220
0.0
230
1.0
  0
TEXT
  8
11
  6
CONTINUOUS
 62
     7
  5
305
 10
914780.538
 20
7282108.71
 30
0.0
 40
8.0
  1
130.48'
 50
88.0773
  7
ROMANS
210
0.0
220
0.0
230
1.0
  0
TEXT
  8
11
  6
CONTINUOUS
 62
     7
  5
306
 10
914761.143
 20
7281422.165
 30
0.0
 40
8.0
  1
140'
 50
88.0773
  7
ROMANS
210
0.0
220
0.0
230
1.0
  0
TEXT
  8
11
  6
CONTINUOUS
 62
     7
  5
307
 10
914765.678
 20
7281557.263
 30
0.0
 40
8.0
  1
140'
 50
88.0773
  7
ROMANS
210
0.0
220
0.0
230
1.0
  0
TEXT
  8
11
  6
CONTINUOUS
 62
     7
  5
308
 10
914770.336
 20
7281696.011
 30
0.0
 40
8.0
  1
140'
 50
88.0773
  7
ROMANS
210
0.0
220
0.0
230
1.0
  0
TEXT
  8
11
  6
CONTINUOUS
 62
     7
  5
309
 10
914775.239
 20
7281842.061
 30
0.0
 40
8.0
  1
140'
 50
88.0773
  7
ROMANS
210
0.0
220
0.0
230
1.0
  0
TEXT
  8
11
  6
CONTINUOUS
 62
     7
  5
30A
 10
914780.019
 20
7281984.461
 30
0.0
 40
8.0
  1
140'
 50
88.0773
  7
ROMANS
210
0.0
220
0.0
230
1.0
  0
TEXT
  8
11
  6
CONTINUOUS
 62
     7
  5
30B
 10
915378.413
 20
7281964.373
 30
0.0
 40
8.0
  1
140'
 50
88.0773
  7
ROMANS
210
0.0
220
0.0
230
1.0
  0
TEXT
  8
11
  6
CONTINUOUS
 62
     7
  5
30C
 10
915373.387
 20
7281814.671
 30
0.0
 40
8.0
  1
140'
 50
88.0773
  7
ROMANS
210
0.0
220
0.0
230
1.0
  0
TEXT
  8
11
  6
CONTINUOUS
 62
     7
  5
30D
 10
915368.607
 20
7281672.271
 30
0.0
 40
8.0
  1
140'
 50
88.0773
  7
ROMANS
210
0.0
220
0.0
230
1.0
  0
TEXT
  8
11
  6
CONTINUOUS
 62
     7
  5
30E
 10
915364.133
 20
7281539.0
 30
0.0
 40
8.0
  1
140'
 50
88.0773
  7
ROMANS
210
0.0
220
0.0
230
1.0
  0
TEXT
  8
11
  6
CONTINUOUS
 62
     7
  5
30F
 10
915359.475
 20
7281400.252
 30
0.0
 40
8.0
  1
140'
 50
88.0773
  7
ROMANS
210
0.0
220
0.0
230
1.0
  0
TEXT
  8
11
  6
CONTINUOUS
 62
     7
  5
310
 10
915040.21
 20
7281410.969
 30
0.0
 40
8.0
  1
130'
 50
88.0773
  7
ROMANS
210
0.0
220
0.0
230
1.0
  0
TEXT
  8
11
  6
CONTINUOUS
 62
     7
  5
311
 10
915082.172
 20
7281409.561
 30
0.0
 40
8.0
  1
130'
 50
88.0773
  7
ROMANS
210
0.0
220
0.0
230
1.0
  0
TEXT
  8
11
  6
CONTINUOUS
 62
     7
  5
312
 10
914890.124
 20
7281367.842
 30
0.0
 40
8.0
  1
290'
 50
358.0773
  7
ROMANS
210
0.0
220
0.0
230
1.0
  0
TEXT
  8
11
  6
CONTINUOUS
 62
     7
  5
313
 10
915202.09
 20
7281357.369
 30
0.0
 40
8.0
  1
290'
 50
358.0773
  7
ROMANS
210
0.0
220
0.0
230
1.0
  0
TEXT
  8
11
  6
CONTINUOUS
 62
     7
  5
314
 10
914885.248
 20
7281508.084
 30
0.0
 40
8.0
  1
300'
 50
358.0773
  7
ROMANS
 72
     1
 11
914898.573494
 21
7281507.636663
 31
0.0
210
0.0
220
0.0
230
1.0
  0
TEXT
  8
11
  6
CONTINUOUS
 62
     7
  5
315
 10
915202.689
 20
7281497.428
 30
0.0
 40
8.0
  1
300'
 50
358.0773
  7
ROMANS
 72
     1
 11
915216.014494
 21
7281496.980663
 31
0.0
210
0.0
220
0.0
230
1.0
  0
TEXT
  8
11
  6
CONTINUOUS
 62
     7
  5
316
 10
914899.919
 20
7282053.899
 30
0.0
 40
8.0
  1
300'
 50
358.0773
  7
ROMANS
 72
     1
 11
914913.512903
 21
7282061.447159
 31
0.0
210
0.0
220
0.0
230
1.0
 73
     3
  0
TEXT
  8
11
  6
CONTINUOUS
 62
     7
  5
317
 10
915211.886
 20
7282043.426
 30
0.0
 40
8.0
  1
300'
 50
358.0773
  7
ROMANS
 72
     1
 11
915225.479903
 21
7282050.974159
 31
0.0
210
0.0
220
0.0
230
1.0
 73
     3
  0
TEXT
  8
11
  6
CONTINUOUS
 62
     7
  5
318
 10
914895.679
 20
7282199.604
 30
0.0
 40
8.0
  1
285'
 50
358.0773
  7
ROMANS
 72
     1
 11
914909.272903
 21
7282207.152159
 31
0.0
210
0.0
220
0.0
230
1.0
 73
     3
  0
TEXT
  8
11
  6
CONTINUOUS
 62
     7
  5
319
 10
915211.294
 20
7282189.009
 30
0.0
 40
8.0
  1
285'
 50
358.0773
  7
ROMANS
 72
     1
 11
915224.887903
 21
7282196.557159
 31
0.0
210
0.0
220
0.0
230
1.0
 73
     3
  0
TEXT
  8
11
  6
CONTINUOUS
 62
     7
  5
31A
 10
915959.705
 20
7281944.86
 30
0.0
 40
8.0
  1
140'
 50
88.0773
  7
ROMANS
210
0.0
220
0.0
230
1.0
  0
TEXT
  8
11
  6
CONTINUOUS
 62
     7
  5
31B
 10
915954.68
 20
7281795.157
 30
0.0
 40
8.0
  1
140'
 50
88.0773
  7
ROMANS
210
0.0
220
0.0
230
1.0
  0
TEXT
  8
11
  6
CONTINUOUS
 62
     7
  5
31C
 10
915949.899
 20
7281652.757
 30
0.0
 40
8.0
  1
140'
 50
88.0773
  7
ROMANS
210
0.0
220
0.0
230
1.0
  0
TEXT
  8
11
  6
CONTINUOUS
 62
     7
  5
31D
 10
915945.425
 20
7281519.486
 30
0.0
 40
8.0
  1
140'
 50
88.0773
  7
ROMANS
210
0.0
220
0.0
230
1.0
  0
TEXT
  8
11
  6
CONTINUOUS
 62
     7
  5
31E
 10
915940.768
 20
7281380.737
 30
0.0
 40
8.0
  1
140'
 50
88.0773
  7
ROMANS
210
0.0
220
0.0
230
1.0
  0
TEXT
  8
11
  6
CONTINUOUS
 62
     7
  5
31F
 10
915436.762
 20
7281399.484
 30
0.0
 40
8.0
  1
140'
 50
88.0773
  7
ROMANS
210
0.0
220
0.0
230
1.0
  0
TEXT
  8
11
  6
CONTINUOUS
 62
     7
  5
320
 10
915441.297
 20
7281534.582
 30
0.0
 40
8.0
  1
140'
 50
88.0773
  7
ROMANS
210
0.0
220
0.0
230
1.0
  0
TEXT
  8
11
  6
CONTINUOUS
 62
     7
  5
321
 10
915445.955
 20
7281673.33
 30
0.0
 40
8.0
  1
140'
 50
88.0773
  7
ROMANS
210
0.0
220
0.0
230
1.0
  0
TEXT
  8
11
  6
CONTINUOUS
 62
     7
  5
322
 10
915450.858
 20
7281819.381
 30
0.0
 40
8.0
  1
140'
 50
88.0773
  7
ROMANS
210
0.0
220
0.0
230
1.0
  0
TEXT
  8
11
  6
CONTINUOUS
 62
     7
  5
323
 10
915455.639
 20
7281961.781
 30
0.0
 40
8.0
  1
140'
 50
88.0773
  7
ROMANS
210
0.0
220
0.0
230
1.0
  0
TEXT
  8
11
  6
CONTINUOUS
 62
     7
  5
324
 10
915559.516
 20
7282177.319
 30
0.0
 40
8.0
  1
235'
 50
358.0773
  7
ROMANS
 72
     1
 11
915573.109903
 21
7282184.867159
 31
0.0
210
0.0
220
0.0
230
1.0
 73
     3
  0
TEXT
  8
11
  6
CONTINUOUS
 62
     7
  5
325
 10
915558.284
 20
7282031.798
 30
0.0
 40
8.0
  1
250'
 50
358.0773
  7
ROMANS
 72
     1
 11
915571.877903
 21
7282039.346159
 31
0.0
210
0.0
220
0.0
230
1.0
 73
     3
  0
TEXT
  8
11
  6
CONTINUOUS
 62
     7
  5
326
 10
915541.789
 20
7281486.044
 30
0.0
 40
8.0
  1
250'
 50
358.0773
  7
ROMANS
 72
     1
 11
915555.114494
 21
7281485.596663
 31
0.0
210
0.0
220
0.0
230
1.0
  0
TEXT
  8
11
  6
CONTINUOUS
 62
     7
  5
327
 10
915537.092
 20
7281346.123
 30
0.0
 40
8.0
  1
240'
 50
358.0773
  7
ROMANS
 72
     1
 11
915550.417494
 21
7281345.675663
 31
0.0
210
0.0
220
0.0
230
1.0
  0
TEXT
  8
11
  6
CONTINUOUS
 62
     7
  5
328
 10
915793.374
 20
7281337.52
 30
0.0
 40
8.0
  1
246.25'
 50
358.0773
  7
ROMANS
 72
     1
 11
915818.692738
 21
7281336.670049
 31
0.0
210
0.0
220
0.0
230
1.0
  0
TEXT
  8
11
  6
CONTINUOUS
 62
     7
  5
329
 10
915787.126
 20
7281477.808
 30
0.0
 40
8.0
  1
256.25'
 50
358.0773
  7
ROMANS
 72
     1
 11
915812.444738
 21
7281476.958049
 31
0.0
210
0.0
220
0.0
230
1.0
  0
TEXT
  8
11
  6
CONTINUOUS
 62
     7
  5
32A
 10
915811.387
 20
7282037.31
 30
0.0
 40
8.0
  1
256.25'
 50
358.0773
  7
ROMANS
 72
     1
 11
915836.705738
 21
7282036.460049
 31
0.0
210
0.0
220
0.0
230
1.0
  0
TEXT
  8
11
  6
CONTINUOUS
 62
     7
  5
32B
 10
915717.917
 20
7282172.001
 30
0.0
 40
8.0
  1
6.16'
 50
358.0773
  7
ROMANS
 72
     1
 11
915735.508651
 21
7282179.414954
 31
0.0
210
0.0
220
0.0
230
1.0
 73
     3
  0
TEXT
  8
11
  6
CONTINUOUS
 62
     7
  5
32C
 10
915812.857
 20
7282161.483
 30
0.0
 40
8.0
  1
150'
 50
358.0773
  7
ROMANS
 72
     4
 11
915826.316698
 21
7282165.033411
 31
0.0
210
0.0
220
0.0
230
1.0
  0
TEXT
  8
11
  6
CONTINUOUS
 62
     7
  5
32D
 10
915890.67
 20
7282158.87
 30
0.0
 40
8.0
  1
70.01'
 50
358.0773
  7
ROMANS
 72
     4
 11
915912.125194
 21
7282162.152001
 31
0.0
210
0.0
220
0.0
230
1.0
  0
TEXT
  8
11
  6
CONTINUOUS
 62
     7
  5
32E
 10
915985.263
 20
7282226.879
 30
0.0
 40
8.0
  1
55'
 50
358.0773
  7
ROMANS
210
0.0
220
0.0
230
1.0
  0
TEXT
  8
11
  6
CONTINUOUS
 62
     7
  5
32F
 10
915981.454
 20
7282113.405
 30
0.0
 40
8.0
  1
55'
 50
358.0773
  7
ROMANS
210
0.0
220
0.0
230
1.0
  0
TEXT
  8
11
  6
CONTINUOUS
 62
     7
  5
330
 10
915949.146
 20
7281150.979
 30
0.0
 40
8.0
  1
55'
 50
358.0773
  7
ROMANS
210
0.0
220
0.0
230
1.0
  0
TEXT
  8
11
  6
CONTINUOUS
 62
     7
  5
331
 10
915943.537
 20
7280983.918
 30
0.0
 40
8.0
  1
55'
 50
358.0773
  7
ROMANS
210
0.0
220
0.0
230
1.0
  0
TEXT
  8
11
  6
CONTINUOUS
 62
     7
  5
332
 10
915916.872
 20
7280189.6
 30
0.0
 40
8.0
  1
55'
 50
358.0773
  7
ROMANS
210
0.0
220
0.0
230
1.0
  0
TEXT
  8
11
  6
CONTINUOUS
 62
     7
  5
333
 10
915907.261
 20
7279903.328
 30
0.0
 40
8.0
  1
65'
 50
358.0773
  7
ROMANS
210
0.0
220
0.0
230
1.0
  0
TEXT
  8
11
  6
CONTINUOUS
 62
     7
  5
334
 10
915899.749
 20
7279679.532
 30
0.0
 40
8.0
  1
65'
 50
358.0773
  7
ROMANS
210
0.0
220
0.0
230
1.0
  0
TEXT
  8
11
  6
CONTINUOUS
 62
     7
  5
335
 10
915800.561
 20
7279586.787
 30
0.0
 40
8.0
  1
55'
 50
88.0773
  7
ROMANS
210
0.0
220
0.0
230
1.0
  0
TEXT
  8
11
  6
CONTINUOUS
 62
     7
  5
336
 10
915000.554
 20
7279613.644
 30
0.0
 40
8.0
  1
55'
 50
88.0773
  7
ROMANS
210
0.0
220
0.0
230
1.0
  0
TEXT
  8
11
  6
CONTINUOUS
 62
     7
  5
337
 10
914839.91
 20
7279619.036
 30
0.0
 40
8.0
  1
55'
 50
88.0773
  7
ROMANS
210
0.0
220
0.0
230
1.0
  0
TEXT
  8
11
  6
CONTINUOUS
 62
     7
  5
338
 10
913397.269
 20
7279667.465
 30
0.0
 40
8.0
  1
55'
 50
88.0773
  7
ROMANS
210
0.0
220
0.0
230
1.0
  0
TEXT
  8
11
  6
CONTINUOUS
 62
     7
  5
339
 10
913268.124
 20
7279671.801
 30
0.0
 40
8.0
  1
50'
 50
88.0773
  7
ROMANS
210
0.0
220
0.0
230
1.0
  0
TEXT
  8
11
  6
CONTINUOUS
 62
     7
  5
33A
 10
910788.521
 20
7279755.041
 30
0.0
 40
8.0
  1
50'
 50
88.0773
  7
ROMANS
210
0.0
220
0.0
230
1.0
  0
TEXT
  8
11
  6
CONTINUOUS
 62
     7
  5
33B
 10
910676.744
 20
7279858.02
 30
0.0
 40
8.0
  1
40'
 50
358.0773
  7
ROMANS
210
0.0
220
0.0
230
1.0
  0
TEXT
  8
11
  6
CONTINUOUS
 62
     7
  5
33C
 10
910717.111
 20
7281060.507
 30
0.0
 40
8.0
  1
40'
 50
358.0773
  7
ROMANS
210
0.0
220
0.0
230
1.0
  0
TEXT
  8
11
  6
CONTINUOUS
 62
     7
  5
33D
 10
910803.16
 20
7283623.771
 30
0.0
 40
8.0
  1
40'
 50
358.0773
  7
ROMANS
210
0.0
220
0.0
230
1.0
  0
TEXT
  8
11
  6
CONTINUOUS
 62
     7
  5
33E
 10
910844.691
 20
7284860.917
 30
0.0
 40
8.0
  1
40'
 50
358.0773
  7
ROMANS
210
0.0
220
0.0
230
1.0
  0
TEXT
  8
11
  6
CONTINUOUS
 62
     7
  5
33F
 10
910973.435
 20
7284981.298
 30
0.0
 40
8.0
  1
55'
 50
88.0773
  7
ROMANS
210
0.0
220
0.0
230
1.0
  0
TEXT
  8
11
  6
CONTINUOUS
 62
     7
  5
340
 10
913408.232
 20
7284899.562
 30
0.0
 40
8.0
  1
55'
 50
88.0773
  7
ROMANS
210
0.0
220
0.0
230
1.0
  0
TEXT
  8
11
  6
CONTINUOUS
 62
     7
  5
341
 10
913681.892
 20
7284890.375
 30
0.0
 40
8.0
  1
55'
 50
88.0773
  7
ROMANS
210
0.0
220
0.0
230
1.0
  0
TEXT
  8
11
  6
CONTINUOUS
 62
     7
  5
342
 10
915931.579
 20
7284814.853
 30
0.0
 40
8.0
  1
55'
 50
88.0773
  7
ROMANS
210
0.0
220
0.0
230
1.0
  0
TEXT
  8
11
  6
CONTINUOUS
 62
     7
  5
343
 10
916064.974
 20
7284655.626
 30
0.0
 40
8.0
  1
55'
 50
358.0773
  7
ROMANS
210
0.0
220
0.0
230
1.0
  0
TEXT
  8
11
  6
CONTINUOUS
 62
     7
  5
344
 10
916043.398
 20
7284012.926
 30
0.0
 40
8.0
  1
55'
 50
358.0773
  7
ROMANS
210
0.0
220
0.0
230
1.0
  0
TEXT
  8
11
  6
CONTINUOUS
 62
     7
  5
345
 10
913393.669
 20
7282215.007
 30
0.0
 40
8.0
  1
32'
 50
358.0773
  7
ROMANS
210
0.0
220
0.0
230
1.0
  0
TEXT
  8
11
  6
CONTINUOUS
 62
     7
  5
346
 10
913464.879
 20
7282266.062
 30
0.0
 40
8.0
  1
32'
 50
88.0773
  7
ROMANS
210
0.0
220
0.0
230
1.0
  0
TEXT
  8
11
  6
CONTINUOUS
 62
     7
  5
347
 10
913990.277
 20
7282248.425
 30
0.0
 40
8.0
  1
32'
 50
88.0773
  7
ROMANS
210
0.0
220
0.0
230
1.0
  0
TEXT
  8
11
  6
CONTINUOUS
 62
     7
  5
348
 10
914143.36
 20
7282243.285
 30
0.0
 40
8.0
  1
32'
 50
88.0773
  7
ROMANS
210
0.0
220
0.0
230
1.0
  0
TEXT
  8
11
  6
CONTINUOUS
 62
     7
  5
349
 10
914672.536
 20
7282225.521
 30
0.0
 40
8.0
  1
32'
 50
88.0773
  7
ROMANS
210
0.0
220
0.0
230
1.0
  0
TEXT
  8
11
  6
CONTINUOUS
 62
     7
  5
34A
 10
914811.224
 20
7282220.866
 30
0.0
 40
8.0
  1
32'
 50
88.0773
  7
ROMANS
210
0.0
220
0.0
230
1.0
  0
TEXT
  8
11
  6
CONTINUOUS
 62
     7
  5
34B
 10
915340.4
 20
7282203.101
 30
0.0
 40
8.0
  1
32'
 50
88.0773
  7
ROMANS
210
0.0
220
0.0
230
1.0
  0
TEXT
  8
11
  6
CONTINUOUS
 62
     7
  5
34C
 10
915493.483
 20
7282197.962
 30
0.0
 40
8.0
  1
32'
 50
88.0773
  7
ROMANS
210
0.0
220
0.0
230
1.0
  0
TEXT
  8
11
  6
CONTINUOUS
 62
     7
  5
34D
 10
915734.815
 20
7282189.861
 30
0.0
 40
8.0
  1
32'
 50
88.0773
  7
ROMANS
210
0.0
220
0.0
230
1.0
  0
TEXT
  8
11
  6
CONTINUOUS
 62
     7
  5
34E
 10
915863.515
 20
7282172.959
 30
0.0
 40
8.0
  1
39.05'
 50
88.0773
  7
ROMANS
210
0.0
220
0.0
230
1.0
  0
TEXT
  8
11
  6
CONTINUOUS
 62
     7
  5
34F
 10
915940.983
 20
7282169.834
 30
0.0
 40
8.0
  1
39.05'
 50
88.0773
  7
ROMANS
210
0.0
220
0.0
230
1.0
  0
TEXT
  8
11
  6
CONTINUOUS
 62
     7
  5
350
 10
913360.823
 20
7281236.568
 30
0.0
 40
8.0
  1
32'
 50
358.0773
  7
ROMANS
210
0.0
220
0.0
230
1.0
  0
TEXT
  8
11
  6
CONTINUOUS
 62
     7
  5
351
 10
913355.571
 20
7281080.148
 30
0.0
 40
8.0
  1
32'
 50
358.0773
  7
ROMANS
210
0.0
220
0.0
230
1.0
  0
TEXT
  8
11
  6
CONTINUOUS
 62
     7
  5
352
 10
913344.506
 20
7280750.503
 30
0.0
 40
8.0
  1
32'
 50
358.0773
  7
ROMANS
210
0.0
220
0.0
230
1.0
  0
TEXT
  8
11
  6
CONTINUOUS
 62
     7
  5
353
 10
913339.29
 20
7280595.128
 30
0.0
 40
8.0
  1
32'
 50
358.0773
  7
ROMANS
210
0.0
220
0.0
230
1.0
  0
TEXT
  8
11
  6
CONTINUOUS
 62
     7
  5
354
 10
913328.252
 20
7280266.327
 30
0.0
 40
8.0
  1
32'
 50
358.0773
  7
ROMANS
210
0.0
220
0.0
230
1.0
  0
TEXT
  8
11
  6
CONTINUOUS
 62
     7
  5
355
 10
913323.177
 20
7280115.151
 30
0.0
 40
8.0
  1
32'
 50
358.0773
  7
ROMANS
210
0.0
220
0.0
230
1.0
  0
TEXT
  8
11
  6
CONTINUOUS
 62
     7
  5
356
 10
913316.128
 20
7279905.186
 30
0.0
 40
8.0
  1
32'
 50
358.0773
  7
ROMANS
210
0.0
220
0.0
230
1.0
  0
TEXT
  8
11
  6
CONTINUOUS
 62
     7
  5
357
 10
913299.623
 20
7279800.813
 30
0.0
 40
8.0
  1
39.05'
 50
358.0773
  7
ROMANS
210
0.0
220
0.0
230
1.0
  0
TEXT
  8
11
  6
CONTINUOUS
 62
     7
  5
358
 10
913297.79
 20
7279746.222
 30
0.0
 40
8.0
  1
39.05'
 50
358.0773
  7
ROMANS
210
0.0
220
0.0
230
1.0
  0
TEXT
  8
11
  6
CONTINUOUS
 62
     7
  5
359
 10
913720.108
 20
7282207.466
 30
0.0
 40
8.0
  1
20
 50
358.0773
  7
ROMANS
210
0.0
220
0.0
230
1.0
  0
TEXT
  8
11
  6
CONTINUOUS
 62
     7
  5
35A
 10
913694.391
 20
7281441.399
 30
0.0
 40
8.0
  1
20
 50
358.0773
  7
ROMANS
210
0.0
220
0.0
230
1.0
  0
TEXT
  8
11
  6
CONTINUOUS
 62
     7
  5
35B
 10
913431.073
 20
7281395.939
 30
0.0
 40
8.0
  1
20
 50
88.0773
  7
ROMANS
210
0.0
220
0.0
230
1.0
  0
TEXT
  8
11
  6
CONTINUOUS
 62
     7
  5
35C
 10
913968.578
 20
7281377.895
 30
0.0
 40
8.0
  1
20
 50
88.0773
  7
ROMANS
210
0.0
220
0.0
230
1.0
  0
TEXT
  8
11
  6
CONTINUOUS
 62
     7
  5
35D
 10
914125.534
 20
7281372.625
 30
0.0
 40
8.0
  1
20
 50
88.0773
  7
ROMANS
210
0.0
220
0.0
230
1.0
  0
TEXT
  8
11
  6
CONTINUOUS
 62
     7
  5
35E
 10
914641.683
 20
7281355.299
 30
0.0
 40
8.0
  1
20
 50
88.0773
  7
ROMANS
210
0.0
220
0.0
230
1.0
  0
TEXT
  8
11
  6
CONTINUOUS
 62
     7
  5
35F
 10
914396.175
 20
7282184.773
 30
0.0
 40
8.0
  1
20
 50
358.0773
  7
ROMANS
210
0.0
220
0.0
230
1.0
  0
TEXT
  8
11
  6
CONTINUOUS
 62
     7
  5
360
 10
915072.244
 20
7282162.032
 30
0.0
 40
8.0
  1
20
 50
358.0773
  7
ROMANS
210
0.0
220
0.0
230
1.0
  0
TEXT
  8
11
  6
CONTINUOUS
 62
     7
  5
361
 10
914789.133
 20
7281350.306
 30
0.0
 40
8.0
  1
20
 50
88.0773
  7
ROMANS
210
0.0
220
0.0
230
1.0
  0
TEXT
  8
11
  6
CONTINUOUS
 62
     7
  5
362
 10
915311.83
 20
7281332.758
 30
0.0
 40
8.0
  1
20
 50
88.0773
  7
ROMANS
210
0.0
220
0.0
230
1.0
  0
TEXT
  8
11
  6
CONTINUOUS
 62
     7
  5
363
 10
915460.636
 20
7281329.246
 30
0.0
 40
8.0
  1
20
 50
88.0773
  7
ROMANS
210
0.0
220
0.0
230
1.0
  0
TEXT
  8
11
  6
CONTINUOUS
 62
     7
  5
364
 10
915900.361
 20
7281313.001
 30
0.0
 40
8.0
  1
20
 50
88.0773
  7
ROMANS
210
0.0
220
0.0
230
1.0
  0
TEXT
  8
11
  6
CONTINUOUS
 62
     7
  5
365
 10
915696.314
 20
7282141.081
 30
0.0
 40
8.0
  1
20
 50
358.0773
  7
ROMANS
210
0.0
220
0.0
230
1.0
  0
TEXT
  8
11
  6
CONTINUOUS
 62
     7
  5
366
 10
915404.015
 20
7282133.092
 30
0.0
 40
8.0
  1
56'
 50
358.0773
  7
ROMANS
210
0.0
220
0.0
230
1.0
  0
TEXT
  8
11
  6
CONTINUOUS
 62
     7
  5
367
 10
914734.725
 20
7282155.56
 30
0.0
 40
8.0
  1
56'
 50
358.0773
  7
ROMANS
210
0.0
220
0.0
230
1.0
  0
TEXT
  8
11
  6
CONTINUOUS
 62
     7
  5
368
 10
914056.553
 20
7282178.326
 30
0.0
 40
8.0
  1
56'
 50
358.0773
  7
ROMANS
210
0.0
220
0.0
230
1.0
  0
TEXT
  8
11
  6
CONTINUOUS
 62
     7
  5
369
 10
914024.32
 20
7281218.149
 30
0.0
 40
8.0
  1
56'
 50
358.0773
  7
ROMANS
210
0.0
220
0.0
230
1.0
  0
TEXT
  8
11
  6
CONTINUOUS
 62
     7
  5
36A
 10
914697.647
 20
7281195.546
 30
0.0
 40
8.0
  1
56'
 50
358.0773
  7
ROMANS
210
0.0
220
0.0
230
1.0
  0
TEXT
  8
11
  6
CONTINUOUS
 62
     7
  5
36B
 10
915378.782
 20
7281172.68
 30
0.0
 40
8.0
  1
56'
 50
358.0773
  7
ROMANS
210
0.0
220
0.0
230
1.0
  0
TEXT
  8
11
  6
CONTINUOUS
 62
     7
  5
36C
 10
914993.679
 20
7281025.881
 30
0.0
 40
8.0
  1
56'
 50
358.0773
  7
ROMANS
210
0.0
220
0.0
230
1.0
  0
TEXT
  8
11
  6
CONTINUOUS
 62
     7
  5
36D
 10
914979.576
 20
7280694.068
 30
0.0
 40
8.0
  1
56'
 50
358.0773
  7
ROMANS
210
0.0
220
0.0
230
1.0
  0
TEXT
  8
11
  6
CONTINUOUS
 62
     7
  5
36E
 10
915880.623
 20
7281066.415
 30
0.0
 40
8.0
  1
56'
 50
88.0773
  7
ROMANS
210
0.0
220
0.0
230
1.0
  0
TEXT
  8
11
  6
CONTINUOUS
 62
     7
  5
36F
 10
915078.168
 20
7281096.32
 30
0.0
 40
8.0
  1
56'
 50
88.0773
  7
ROMANS
210
0.0
220
0.0
230
1.0
  0
TEXT
  8
11
  6
CONTINUOUS
 62
     7
  5
370
 10
914906.404
 20
7281102.086
 30
0.0
 40
8.0
  1
56'
 50
88.0773
  7
ROMANS
210
0.0
220
0.0
230
1.0
  0
TEXT
  8
11
  6
CONTINUOUS
 62
     7
  5
371
 10
914100.89
 20
7281129.127
 30
0.0
 40
8.0
  1
56'
 50
88.0773
  7
ROMANS
210
0.0
220
0.0
230
1.0
  0
TEXT
  8
11
  6
CONTINUOUS
 62
     7
  5
372
 10
913949.855
 20
7281134.198
 30
0.0
 40
8.0
  1
56'
 50
88.0773
  7
ROMANS
210
0.0
220
0.0
230
1.0
  0
TEXT
  8
11
  6
CONTINUOUS
 62
     7
  5
373
 10
913420.302
 20
7281149.003
 30
0.0
 40
8.0
  1
56'
 50
88.0773
  7
ROMANS
210
0.0
220
0.0
230
1.0
  0
TEXT
  8
11
  6
CONTINUOUS
 62
     7
  5
374
 10
913403.987
 20
7280662.988
 30
0.0
 40
8.0
  1
56'
 50
88.0773
  7
ROMANS
210
0.0
220
0.0
230
1.0
  0
TEXT
  8
11
  6
CONTINUOUS
 62
     7
  5
375
 10
913937.048
 20
7280645.093
 30
0.0
 40
8.0
  1
56'
 50
88.0773
  7
ROMANS
210
0.0
220
0.0
230
1.0
  0
TEXT
  8
11
  6
CONTINUOUS
 62
     7
  5
376
 10
914088.081
 20
7280640.023
 30
0.0
 40
8.0
  1
56'
 50
88.0773
  7
ROMANS
210
0.0
220
0.0
230
1.0
  0
TEXT
  8
11
  6
CONTINUOUS
 62
     7
  5
377
 10
914896.658
 20
7280615.845
 30
0.0
 40
8.0
  1
56'
 50
88.0773
  7
ROMANS
210
0.0
220
0.0
230
1.0
  0
TEXT
  8
11
  6
CONTINUOUS
 62
     7
  5
378
 10
915065.56
 20
7280613.142
 30
0.0
 40
8.0
  1
56'
 50
88.0773
  7
ROMANS
210
0.0
220
0.0
230
1.0
  0
TEXT
  8
11
  6
CONTINUOUS
 62
     7
  5
379
 10
915864.147
 20
7280583.341
 30
0.0
 40
8.0
  1
56'
 50
88.0773
  7
ROMANS
210
0.0
220
0.0
230
1.0
  0
TEXT
  8
11
  6
CONTINUOUS
 62
     7
  5
37A
 10
913997.439
 20
7280573.531
 30
0.0
 40
8.0
  1
56'
 50
358.0773
  7
ROMANS
210
0.0
220
0.0
230
1.0
  0
TEXT
  8
11
  6
CONTINUOUS
 62
     7
  5
37B
 10
915273.825
 20
7280530.683
 30
0.0
 40
8.0
  1
56'
 50
358.0773
  7
ROMANS
210
0.0
220
0.0
230
1.0
  0
TEXT
  8
11
  6
CONTINUOUS
 62
     7
  5
37C
 10
915262.484
 20
7280192.843
 30
0.0
 40
8.0
  1
56'
 50
358.0773
  7
ROMANS
210
0.0
220
0.0
230
1.0
  0
TEXT
  8
11
  6
CONTINUOUS
 62
     7
  5
37D
 10
913986.098
 20
7280235.692
 30
0.0
 40
8.0
  1
56'
 50
358.0773
  7
ROMANS
210
0.0
220
0.0
230
1.0
  0
TEXT
  8
11
  6
CONTINUOUS
 62
     7
  5
37E
 10
913384.379
 20
7280177.856
 30
0.0
 40
8.0
  1
56'
 50
88.0773
  7
ROMANS
210
0.0
220
0.0
230
1.0
  0
TEXT
  8
11
  6
CONTINUOUS
 62
     7
  5
37F
 10
913920.402
 20
7280159.862
 30
0.0
 40
8.0
  1
56'
 50
88.0773
  7
ROMANS
210
0.0
220
0.0
230
1.0
  0
TEXT
  8
11
  6
CONTINUOUS
 62
     7
  5
380
 10
914092.266
 20
7280157.061
 30
0.0
 40
8.0
  1
56'
 50
88.0773
  7
ROMANS
210
0.0
220
0.0
230
1.0
  0
TEXT
  8
11
  6
CONTINUOUS
 62
     7
  5
381
 10
914856.32
 20
7280131.411
 30
0.0
 40
8.0
  1
56'
 50
88.0773
  7
ROMANS
210
0.0
220
0.0
230
1.0
  0
TEXT
  8
11
  6
CONTINUOUS
 62
     7
  5
382
 10
915007.354
 20
7280126.341
 30
0.0
 40
8.0
  1
56'
 50
88.0773
  7
ROMANS
210
0.0
220
0.0
230
1.0
  0
TEXT
  8
11
  6
CONTINUOUS
 62
     7
  5
383
 10
915848.207
 20
7280092.179
 30
0.0
 40
8.0
  1
56'
 50
88.0773
  7
ROMANS
210
0.0
220
0.0
230
1.0
  0
TEXT
  8
11
  6
CONTINUOUS
 62
     7
  5
384
 10
914917.186
 20
7280062.8
 30
0.0
 40
8.0
  1
56'
 50
358.0773
  7
ROMANS
210
0.0
220
0.0
230
1.0
  0
TEXT
  8
11
  6
CONTINUOUS
 62
     7
  5
385
 10
914904.75
 20
7279692.361
 30
0.0
 40
8.0
  1
56'
 50
358.0773
  7
ROMANS
210
0.0
220
0.0
230
1.0
  0
TEXT
  8
11
  6
CONTINUOUS
 62
     7
  5
386
 10
913415.412
 20
7281383.329
 30
0.0
 40
8.0
  1
110.14'
 50
358.0773
  7
ROMANS
 72
     1
 11
913440.999147
 21
7281390.474545
 31
0.0
210
0.0
220
0.0
230
1.0
 73
     3
  0
TEXT
  8
11
  6
CONTINUOUS
 62
     7
  5
387
 10
913936.682
 20
7281365.83
 30
0.0
 40
8.0
  1
110'
 50
358.0773
  7
ROMANS
 72
     1
 11
913950.275903
 21
7281373.378159
 31
0.0
210
0.0
220
0.0
230
1.0
 73
     3
  0
TEXT
  8
11
  6
CONTINUOUS
 62
     7
  5
388
 10
914105.485
 20
7281360.163
 30
0.0
 40
8.0
  1
110'
 50
358.0773
  7
ROMANS
 72
     1
 11
914119.078903
 21
7281367.711159
 31
0.0
210
0.0
220
0.0
230
1.0
 73
     3
  0
TEXT
  8
11
  6
CONTINUOUS
 62
     7
  5
389
 10
914620.777
 20
7281342.865
 30
0.0
 40
8.0
  1
110'
 50
358.0773
  7
ROMANS
 72
     1
 11
914634.370903
 21
7281350.413159
 31
0.0
210
0.0
220
0.0
230
1.0
 73
     3
  0
TEXT
  8
11
  6
CONTINUOUS
 62
     7
  5
38A
 10
914780.695
 20
7281337.496
 30
0.0
 40
8.0
  1
110'
 50
358.0773
  7
ROMANS
 72
     1
 11
914794.288903
 21
7281345.044159
 31
0.0
210
0.0
220
0.0
230
1.0
 73
     3
  0
TEXT
  8
11
  6
CONTINUOUS
 62
     7
  5
38B
 10
915290.066
 20
7281320.396
 30
0.0
 40
8.0
  1
110'
 50
358.0773
  7
ROMANS
 72
     1
 11
915303.659903
 21
7281327.944159
 31
0.0
210
0.0
220
0.0
230
1.0
 73
     3
  0
TEXT
  8
11
  6
CONTINUOUS
 62
     7
  5
38C
 10
915464.791
 20
7281314.531
 30
0.0
 40
8.0
  1
110'
 50
358.0773
  7
ROMANS
 72
     1
 11
915478.384903
 21
7281322.079159
 31
0.0
210
0.0
220
0.0
230
1.0
 73
     3
  0
TEXT
  8
11
  6
CONTINUOUS
 62
     7
  5
38D
 10
913415.932
 20
7281192.204
 30
0.0
 40
8.0
  1
95.17'
 50
358.0773
  7
ROMANS
 72
     1
 11
913437.25299
 21
7281191.488253
 31
0.0
210
0.0
220
0.0
230
1.0
  0
TEXT
  8
11
  6
CONTINUOUS
 62
     7
  5
38E
 10
913937.201
 20
7281174.705
 30
0.0
 40
8.0
  1
95'
 50
358.0773
  7
ROMANS
 72
     1
 11
913946.528746
 21
7281174.391867
 31
0.0
210
0.0
220
0.0
230
1.0
  0
TEXT
  8
11
  6
CONTINUOUS
 62
     7
  5
38F
 10
914108.965
 20
7281168.939
 30
0.0
 40
8.0
  1
95'
 50
358.0773
  7
ROMANS
 72
     1
 11
914118.292746
 21
7281168.625867
 31
0.0
210
0.0
220
0.0
230
1.0
  0
TEXT
  8
11
  6
CONTINUOUS
 62
     7
  5
390
 10
914621.296
 20
7281151.74
 30
0.0
 40
8.0
  1
95'
 50
358.0773
  7
ROMANS
 72
     1
 11
914630.623746
 21
7281151.426867
 31
0.0
210
0.0
220
0.0
230
1.0
  0
TEXT
  8
11
  6
CONTINUOUS
 62
     7
  5
391
 10
914784.176
 20
7281146.272
 30
0.0
 40
8.0
  1
95'
 50
358.0773
  7
ROMANS
 72
     1
 11
914793.503746
 21
7281145.958867
 31
0.0
210
0.0
220
0.0
230
1.0
  0
TEXT
  8
11
  6
CONTINUOUS
 62
     7
  5
392
 10
915293.546
 20
7281129.172
 30
0.0
 40
8.0
  1
95'
 50
358.0773
  7
ROMANS
 72
     1
 11
915302.873746
 21
7281128.858867
 31
0.0
210
0.0
220
0.0
230
1.0
  0
TEXT
  8
11
  6
CONTINUOUS
 62
     7
  5
393
 10
915468.271
 20
7281123.307
 30
0.0
 40
8.0
  1
95'
 50
358.0773
  7
ROMANS
 72
     1
 11
915477.598746
 21
7281122.993867
 31
0.0
210
0.0
220
0.0
230
1.0
  0
TEXT
  8
11
  6
CONTINUOUS
 62
     7
  5
394
 10
913530.477
 20
7281188.359
 30
0.0
 40
8.0
  1
100'
 50
358.0773
  7
ROMANS
 72
     1
 11
913543.802494
 21
7281187.911663
 31
0.0
210
0.0
220
0.0
230
1.0
  0
TEXT
  8
11
  6
CONTINUOUS
 62
     7
  5
395
 10
913631.167
 20
7281184.979
 30
0.0
 40
8.0
  1
100'
 50
358.0773
  7
ROMANS
 72
     1
 11
913644.492494
 21
7281184.531663
 31
0.0
210
0.0
220
0.0
230
1.0
  0
TEXT
  8
11
  6
CONTINUOUS
 62
     7
  5
396
 10
913734.818
 20
7281181.499
 30
0.0
 40
8.0
  1
100'
 50
358.0773
  7
ROMANS
 72
     1
 11
913748.143494
 21
7281181.051663
 31
0.0
210
0.0
220
0.0
230
1.0
  0
TEXT
  8
11
  6
CONTINUOUS
 62
     7
  5
397
 10
913829.584
 20
7281178.318
 30
0.0
 40
8.0
  1
100'
 50
358.0773
  7
ROMANS
 72
     1
 11
913842.909494
 21
7281177.870663
 31
0.0
210
0.0
220
0.0
230
1.0
  0
TEXT
  8
11
  6
CONTINUOUS
 62
     7
  5
398
 10
914214.572
 20
7281165.394
 30
0.0
 40
8.0
  1
100'
 50
358.0773
  7
ROMANS
 72
     1
 11
914227.897494
 21
7281164.946663
 31
0.0
210
0.0
220
0.0
230
1.0
  0
TEXT
  8
11
  6
CONTINUOUS
 62
     7
  5
399
 10
914312.3
 20
7281162.113
 30
0.0
 40
8.0
  1
100'
 50
358.0773
  7
ROMANS
 72
     1
 11
914325.625494
 21
7281161.665663
 31
0.0
210
0.0
220
0.0
230
1.0
  0
TEXT
  8
11
  6
CONTINUOUS
 62
     7
  5
39A
 10
914412.991
 20
7281158.733
 30
0.0
 40
8.0
  1
100'
 50
358.0773
  7
ROMANS
 72
     1
 11
914426.316494
 21
7281158.285663
 31
0.0
210
0.0
220
0.0
230
1.0
  0
TEXT
  8
11
  6
CONTINUOUS
 62
     7
  5
39B
 10
914507.756
 20
7281155.552
 30
0.0
 40
8.0
  1
100'
 50
358.0773
  7
ROMANS
 72
     1
 11
914521.081494
 21
7281155.104663
 31
0.0
210
0.0
220
0.0
230
1.0
  0
TEXT
  8
11
  6
CONTINUOUS
 62
     7
  5
39C
 10
914886.823
 20
7281142.826
 30
0.0
 40
8.0
  1
100'
 50
358.0773
  7
ROMANS
 72
     1
 11
914900.148494
 21
7281142.378663
 31
0.0
210
0.0
220
0.0
230
1.0
  0
TEXT
  8
11
  6
CONTINUOUS
 62
     7
  5
39D
 10
914981.59
 20
7281139.644
 30
0.0
 40
8.0
  1
100'
 50
358.0773
  7
ROMANS
 72
     1
 11
914994.915494
 21
7281139.196663
 31
0.0
210
0.0
220
0.0
230
1.0
  0
TEXT
  8
11
  6
CONTINUOUS
 62
     7
  5
39E
 10
915082.279
 20
7281136.264
 30
0.0
 40
8.0
  1
100'
 50
358.0773
  7
ROMANS
 72
     1
 11
915095.604494
 21
7281135.816663
 31
0.0
210
0.0
220
0.0
230
1.0
  0
TEXT
  8
11
  6
CONTINUOUS
 62
     7
  5
39F
 10
915182.968
 20
7281132.884
 30
0.0
 40
8.0
  1
100'
 50
358.0773
  7
ROMANS
 72
     1
 11
915196.293494
 21
7281132.436663
 31
0.0
210
0.0
220
0.0
230
1.0
  0
TEXT
  8
11
  6
CONTINUOUS
 62
     7
  5
3A0
 10
915562.034
 20
7281120.159
 30
0.0
 40
8.0
  1
110'
 50
358.0773
  7
ROMANS
 72
     1
 11
915575.359494
 21
7281119.711663
 31
0.0
210
0.0
220
0.0
230
1.0
  0
TEXT
  8
11
  6
CONTINUOUS
 62
     7
  5
3A1
 10
915680.491
 20
7281116.182
 30
0.0
 40
8.0
  1
110'
 50
358.0773
  7
ROMANS
 72
     1
 11
915693.816494
 21
7281115.734663
 31
0.0
210
0.0
220
0.0
230
1.0
  0
TEXT
  8
11
  6
CONTINUOUS
 62
     7
  5
3A2
 10
915767.325
 20
7281113.267
 30
0.0
 40
8.0
  1
101.5'
 50
358.0773
  7
ROMANS
 72
     1
 11
915788.64599
 21
7281112.551253
 31
0.0
210
0.0
220
0.0
230
1.0
  0
TEXT
  8
11
  6
CONTINUOUS
 62
     7
  5
3A3
 10
915865.053
 20
7281109.987
 30
0.0
 40
8.0
  1
79.87'
 50
358.0773
  7
ROMANS
 72
     1
 11
915886.37399
 21
7281109.271253
 31
0.0
210
0.0
220
0.0
230
1.0
  0
TEXT
  8
11
  6
CONTINUOUS
 62
     7
  5
3A4
 10
915880.346
 20
7281300.581
 30
0.0
 40
8.0
  1
94.85'
 50
358.0773
  7
ROMANS
 72
     1
 11
915901.935399
 21
7281307.860749
 31
0.0
210
0.0
220
0.0
230
1.0
 73
     3
  0
TEXT
  8
11
  6
CONTINUOUS
 62
     7
  5
3A5
 10
913488.395
 20
7281275.959
 30
0.0
 40
8.0
  1
205'
 50
88.0773
  7
ROMANS
 72
     4
 11
913484.844589
 21
7281289.418698
 31
0.0
210
0.0
220
0.0
230
1.0
  0
TEXT
  8
11
  6
CONTINUOUS
 62
     7
  5
3A6
 10
913911.883
 20
7281261.742
 30
0.0
 40
8.0
  1
205'
 50
88.0773
  7
ROMANS
 72
     4
 11
913908.332589
 21
7281275.201698
 31
0.0
210
0.0
220
0.0
230
1.0
  0
TEXT
  8
11
  6
CONTINUOUS
 62
     7
  5
3A7
 10
914187.299
 20
7281252.496
 30
0.0
 40
8.0
  1
205'
 50
88.0773
  7
ROMANS
 72
     4
 11
914183.748589
 21
7281265.955698
 31
0.0
210
0.0
220
0.0
230
1.0
  0
TEXT
  8
11
  6
CONTINUOUS
 62
     7
  5
3A8
 10
914572.286
 20
7281239.572
 30
0.0
 40
8.0
  1
205'
 50
88.0773
  7
ROMANS
 72
     4
 11
914568.735589
 21
7281253.031698
 31
0.0
210
0.0
220
0.0
230
1.0
  0
TEXT
  8
11
  6
CONTINUOUS
 62
     7
  5
3A9
 10
914862.509
 20
7281229.83
 30
0.0
 40
8.0
  1
205'
 50
88.0773
  7
ROMANS
 72
     4
 11
914858.958589
 21
7281243.289698
 31
0.0
210
0.0
220
0.0
230
1.0
  0
TEXT
  8
11
  6
CONTINUOUS
 62
     7
  5
3AA
 10
915244.537
 20
7281217.005
 30
0.0
 40
8.0
  1
205'
 50
88.0773
  7
ROMANS
 72
     4
 11
915240.986589
 21
7281230.464698
 31
0.0
210
0.0
220
0.0
230
1.0
  0
TEXT
  8
11
  6
CONTINUOUS
 62
     7
  5
3AB
 10
915540.682
 20
7281207.064
 30
0.0
 40
8.0
  1
205'
 50
88.0773
  7
ROMANS
 72
     4
 11
915537.131589
 21
7281220.523698
 31
0.0
210
0.0
220
0.0
230
1.0
  0
TEXT
  8
11
  6
CONTINUOUS
 62
     7
  5
3AC
 10
915836.827
 20
7281197.122
 30
0.0
 40
8.0
  1
205'
 50
88.0773
  7
ROMANS
 72
     4
 11
915833.276589
 21
7281210.581698
 31
0.0
210
0.0
220
0.0
230
1.0
  0
TEXT
  8
11
  6
CONTINUOUS
 62
     7
  5
3AD
 10
915827.675
 20
7280924.478
 30
0.0
 40
8.0
  1
205'
 50
88.0773
  7
ROMANS
 72
     4
 11
915824.124589
 21
7280937.937698
 31
0.0
210
0.0
220
0.0
230
1.0
  0
TEXT
  8
11
  6
CONTINUOUS
 62
     7
  5
3AE
 10
915149.501
 20
7280947.245
 30
0.0
 40
8.0
  1
205'
 50
88.0773
  7
ROMANS
 72
     4
 11
915145.950589
 21
7280960.704698
 31
0.0
210
0.0
220
0.0
230
1.0
  0
TEXT
  8
11
  6
CONTINUOUS
 62
     7
  5
3AF
 10
914856.318
 20
7280957.087
 30
0.0
 40
8.0
  1
205'
 50
88.0773
  7
ROMANS
 72
     4
 11
914852.767589
 21
7280970.546698
 31
0.0
210
0.0
220
0.0
230
1.0
  0
TEXT
  8
11
  6
CONTINUOUS
 62
     7
  5
3B0
 10
913491.089
 20
7281002.918
 30
0.0
 40
8.0
  1
205'
 50
88.0773
  7
ROMANS
 72
     4
 11
913487.538589
 21
7281016.377698
 31
0.0
210
0.0
220
0.0
230
1.0
  0
TEXT
  8
11
  6
CONTINUOUS
 62
     7
  5
3B1
 10
913484.026
 20
7280792.509
 30
0.0
 40
8.0
  1
205'
 50
88.0773
  7
ROMANS
 72
     4
 11
913480.475589
 21
7280805.968698
 31
0.0
210
0.0
220
0.0
230
1.0
  0
TEXT
  8
11
  6
CONTINUOUS
 62
     7
  5
3B2
 10
914846.293
 20
7280746.778
 30
0.0
 40
8.0
  1
205'
 50
88.0773
  7
ROMANS
 72
     4
 11
914842.742589
 21
7280760.237698
 31
0.0
210
0.0
220
0.0
230
1.0
  0
TEXT
  8
11
  6
CONTINUOUS
 62
     7
  5
3B3
 10
915820.612
 20
7280714.07
 30
0.0
 40
8.0
  1
205'
 50
88.0773
  7
ROMANS
 72
     4
 11
915817.061589
 21
7280727.529698
 31
0.0
210
0.0
220
0.0
230
1.0
  0
TEXT
  8
11
  6
CONTINUOUS
 62
     7
  5
3B4
 10
915811.185
 20
7280433.305
 30
0.0
 40
8.0
  1
205'
 50
88.0773
  7
ROMANS
 72
     4
 11
915807.634589
 21
7280446.764698
 31
0.0
210
0.0
220
0.0
230
1.0
  0
TEXT
  8
11
  6
CONTINUOUS
 62
     7
  5
3B5
 10
915429.171
 20
7280446.13
 30
0.0
 40
8.0
  1
205'
 50
88.0773
  7
ROMANS
 72
     4
 11
915425.620589
 21
7280459.589698
 31
0.0
210
0.0
220
0.0
230
1.0
  0
TEXT
  8
11
  6
CONTINUOUS
 62
     7
  5
3B6
 10
915138.949
 20
7280455.872
 30
0.0
 40
8.0
  1
205'
 50
88.0773
  7
ROMANS
 72
     4
 11
915135.398589
 21
7280469.331698
 31
0.0
210
0.0
220
0.0
230
1.0
  0
TEXT
  8
11
  6
CONTINUOUS
 62
     7
  5
3B7
 10
914155.747
 20
7280488.878
 30
0.0
 40
8.0
  1
205'
 50
88.0773
  7
ROMANS
 72
     4
 11
914152.196589
 21
7280502.337698
 31
0.0
210
0.0
220
0.0
230
1.0
  0
TEXT
  8
11
  6
CONTINUOUS
 62
     7
  5
3B8
 10
913862.562
 20
7280498.72
 30
0.0
 40
8.0
  1
205'
 50
88.0773
  7
ROMANS
 72
     4
 11
913859.011589
 21
7280512.179698
 31
0.0
210
0.0
220
0.0
230
1.0
  0
TEXT
  8
11
  6
CONTINUOUS
 62
     7
  5
3B9
 10
913483.496
 20
7280511.445
 30
0.0
 40
8.0
  1
205'
 50
88.0773
  7
ROMANS
 72
     4
 11
913479.945589
 21
7280524.904698
 31
0.0
210
0.0
220
0.0
230
1.0
  0
TEXT
  8
11
  6
CONTINUOUS
 62
     7
  5
3BA
 10
913476.533
 20
7280304.0
 30
0.0
 40
8.0
  1
205'
 50
88.0773
  7
ROMANS
 72
     4
 11
913472.982589
 21
7280317.459698
 31
0.0
210
0.0
220
0.0
230
1.0
  0
TEXT
  8
11
  6
CONTINUOUS
 62
     7
  5
3BB
 10
913855.599
 20
7280291.275
 30
0.0
 40
8.0
  1
205'
 50
88.0773
  7
ROMANS
 72
     4
 11
913852.048589
 21
7280304.734698
 31
0.0
210
0.0
220
0.0
230
1.0
  0
TEXT
  8
11
  6
CONTINUOUS
 62
     7
  5
3BC
 10
914148.783
 20
7280281.433
 30
0.0
 40
8.0
  1
205'
 50
88.0773
  7
ROMANS
 72
     4
 11
914145.232589
 21
7280294.892698
 31
0.0
210
0.0
220
0.0
230
1.0
  0
TEXT
  8
11
  6
CONTINUOUS
 62
     7
  5
3BD
 10
915131.985
 20
7280248.427
 30
0.0
 40
8.0
  1
205'
 50
88.0773
  7
ROMANS
 72
     4
 11
915128.434589
 21
7280261.886698
 31
0.0
210
0.0
220
0.0
230
1.0
  0
TEXT
  8
11
  6
CONTINUOUS
 62
     7
  5
3BE
 10
915422.207
 20
7280238.684
 30
0.0
 40
8.0
  1
205'
 50
88.0773
  7
ROMANS
 72
     4
 11
915418.656589
 21
7280252.143698
 31
0.0
210
0.0
220
0.0
230
1.0
  0
TEXT
  8
11
  6
CONTINUOUS
 62
     7
  5
3BF
 10
915801.272
 20
7280225.959
 30
0.0
 40
8.0
  1
205'
 50
88.0773
  7
ROMANS
 72
     4
 11
915797.721589
 21
7280239.418698
 31
0.0
210
0.0
220
0.0
230
1.0
  0
TEXT
  8
11
  6
CONTINUOUS
 62
     7
  5
3C0
 10
915792.139
 20
7279953.892
 30
0.0
 40
8.0
  1
205'
 50
88.0773
  7
ROMANS
 72
     4
 11
915788.588589
 21
7279967.351698
 31
0.0
210
0.0
220
0.0
230
1.0
  0
TEXT
  8
11
  6
CONTINUOUS
 62
     7
  5
3C1
 10
915078.423
 20
7279977.851
 30
0.0
 40
8.0
  1
205'
 50
88.0773
  7
ROMANS
 72
     4
 11
915074.872589
 21
7279991.310698
 31
0.0
210
0.0
220
0.0
230
1.0
  0
TEXT
  8
11
  6
CONTINUOUS
 62
     7
  5
3C2
 10
914779.317
 20
7279987.892
 30
0.0
 40
8.0
  1
205'
 50
88.0773
  7
ROMANS
 72
     4
 11
914775.766589
 21
7280001.351698
 31
0.0
210
0.0
220
0.0
230
1.0
  0
TEXT
  8
11
  6
CONTINUOUS
 62
     7
  5
3C3
 10
913470.354
 20
7280031.834
 30
0.0
 40
8.0
  1
205'
 50
88.0773
  7
ROMANS
 72
     4
 11
913466.803589
 21
7280045.293698
 31
0.0
210
0.0
220
0.0
230
1.0
  0
TEXT
  8
11
  6
CONTINUOUS
 62
     7
  5
3C4
 10
913360.781
 20
7280035.512
 30
0.0
 40
8.0
  1
190'
 50
88.0773
  7
ROMANS
 72
     4
 11
913357.230589
 21
7280048.971698
 31
0.0
210
0.0
220
0.0
230
1.0
  0
TEXT
  8
11
  6
CONTINUOUS
 62
     7
  5
3C5
 10
914888.89
 20
7279984.213
 30
0.0
 40
8.0
  1
190'
 50
88.0773
  7
ROMANS
 72
     4
 11
914885.339589
 21
7279997.672698
 31
0.0
210
0.0
220
0.0
230
1.0
  0
TEXT
  8
11
  6
CONTINUOUS
 62
     7
  5
3C6
 10
914965.887
 20
7279981.629
 30
0.0
 40
8.0
  1
190'
 50
88.0773
  7
ROMANS
 72
     4
 11
914962.336589
 21
7279995.088698
 31
0.0
210
0.0
220
0.0
230
1.0
  0
TEXT
  8
11
  6
CONTINUOUS
 62
     7
  5
3C7
 10
915901.876
 20
7280220.19
 30
0.0
 40
8.0
  1
190'
 50
88.0773
  7
ROMANS
 72
     4
 11
915898.325589
 21
7280233.649698
 31
0.0
210
0.0
220
0.0
230
1.0
  0
TEXT
  8
11
  6
CONTINUOUS
 62
     7
  5
3C8
 10
915312.547
 20
7280239.974
 30
0.0
 40
8.0
  1
190'
 50
88.0773
  7
ROMANS
 72
     4
 11
915308.996589
 21
7280253.433698
 31
0.0
210
0.0
220
0.0
230
1.0
  0
TEXT
  8
11
  6
CONTINUOUS
 62
     7
  5
3C9
 10
915241.472
 20
7280242.36
 30
0.0
 40
8.0
  1
190'
 50
88.0773
  7
ROMANS
 72
     4
 11
915237.921589
 21
7280255.819698
 31
0.0
210
0.0
220
0.0
230
1.0
  0
TEXT
  8
11
  6
CONTINUOUS
 62
     7
  5
3CA
 10
914039.123
 20
7280282.723
 30
0.0
 40
8.0
  1
190'
 50
88.0773
  7
ROMANS
 72
     4
 11
914035.572589
 21
7280296.182698
 31
0.0
210
0.0
220
0.0
230
1.0
  0
TEXT
  8
11
  6
CONTINUOUS
 62
     7
  5
3CB
 10
913962.124
 20
7280285.308
 30
0.0
 40
8.0
  1
190'
 50
88.0773
  7
ROMANS
 72
     4
 11
913958.573589
 21
7280298.767698
 31
0.0
210
0.0
220
0.0
230
1.0
  0
TEXT
  8
11
  6
CONTINUOUS
 62
     7
  5
3CC
 10
913366.873
 20
7280305.291
 30
0.0
 40
8.0
  1
190'
 50
88.0773
  7
ROMANS
 72
     4
 11
913363.322589
 21
7280318.750698
 31
0.0
210
0.0
220
0.0
230
1.0
  0
TEXT
  8
11
  6
CONTINUOUS
 62
     7
  5
3CD
 10
913373.936
 20
7280515.7
 30
0.0
 40
8.0
  1
190'
 50
88.0773
  7
ROMANS
 72
     4
 11
913370.385589
 21
7280529.159698
 31
0.0
210
0.0
220
0.0
230
1.0
  0
TEXT
  8
11
  6
CONTINUOUS
 62
     7
  5
3CE
 10
913972.149
 20
7280495.618
 30
0.0
 40
8.0
  1
190'
 50
88.0773
  7
ROMANS
 72
     4
 11
913968.598589
 21
7280509.077698
 31
0.0
210
0.0
220
0.0
230
1.0
  0
TEXT
  8
11
  6
CONTINUOUS
 62
     7
  5
3CF
 10
914046.186
 20
7280493.133
 30
0.0
 40
8.0
  1
190'
 50
88.0773
  7
ROMANS
 72
     4
 11
914042.635589
 21
7280506.592698
 31
0.0
210
0.0
220
0.0
230
1.0
  0
TEXT
  8
11
  6
CONTINUOUS
 62
     7
  5
3D0
 10
915248.536
 20
7280452.77
 30
0.0
 40
8.0
  1
190'
 50
88.0773
  7
ROMANS
 72
     4
 11
915244.985589
 21
7280466.229698
 31
0.0
210
0.0
220
0.0
230
1.0
  0
TEXT
  8
11
  6
CONTINUOUS
 62
     7
  5
3D1
 10
915322.571
 20
7280450.285
 30
0.0
 40
8.0
  1
190'
 50
88.0773
  7
ROMANS
 72
     4
 11
915319.020589
 21
7280463.744698
 31
0.0
210
0.0
220
0.0
230
1.0
  0
TEXT
  8
11
  6
CONTINUOUS
 62
     7
  5
3D2
 10
915908.939
 20
7280430.599
 30
0.0
 40
8.0
  1
190'
 50
88.0773
  7
ROMANS
 72
     4
 11
915905.388589
 21
7280444.058698
 31
0.0
210
0.0
220
0.0
230
1.0
  0
TEXT
  8
11
  6
CONTINUOUS
 62
     7
  5
3D3
 10
915918.49
 20
7280715.096
 30
0.0
 40
8.0
  1
190'
 50
88.0773
  7
ROMANS
 72
     4
 11
915914.939589
 21
7280728.555698
 31
0.0
210
0.0
220
0.0
230
1.0
  0
TEXT
  8
11
  6
CONTINUOUS
 62
     7
  5
3D4
 10
915033.016
 20
7280744.822
 30
0.0
 40
8.0
  1
190'
 50
88.0773
  7
ROMANS
 72
     4
 11
915029.465589
 21
7280758.281698
 31
0.0
210
0.0
220
0.0
230
1.0
  0
TEXT
  8
11
  6
CONTINUOUS
 62
     7
  5
3D5
 10
914958.979
 20
7280747.308
 30
0.0
 40
8.0
  1
190'
 50
88.0773
  7
ROMANS
 72
     4
 11
914955.428589
 21
7280760.767698
 31
0.0
210
0.0
220
0.0
230
1.0
  0
TEXT
  8
11
  6
CONTINUOUS
 62
     7
  5
3D6
 10
913380.525
 20
7280800.296
 30
0.0
 40
8.0
  1
190'
 50
88.0773
  7
ROMANS
 72
     4
 11
913376.974589
 21
7280813.755698
 31
0.0
210
0.0
220
0.0
230
1.0
  0
TEXT
  8
11
  6
CONTINUOUS
 62
     7
  5
3D7
 10
913387.39
 20
7281004.779
 30
0.0
 40
8.0
  1
190'
 50
88.0773
  7
ROMANS
 72
     4
 11
913383.839589
 21
7281018.238698
 31
0.0
210
0.0
220
0.0
230
1.0
  0
TEXT
  8
11
  6
CONTINUOUS
 62
     7
  5
3D8
 10
914962.882
 20
7280951.89
 30
0.0
 40
8.0
  1
190'
 50
88.0773
  7
ROMANS
 72
     4
 11
914959.331589
 21
7280965.349698
 31
0.0
210
0.0
220
0.0
230
1.0
  0
TEXT
  8
11
  6
CONTINUOUS
 62
     7
  5
3D9
 10
915039.88
 20
7280949.305
 30
0.0
 40
8.0
  1
190'
 50
88.0773
  7
ROMANS
 72
     4
 11
915036.329589
 21
7280962.764698
 31
0.0
210
0.0
220
0.0
230
1.0
  0
TEXT
  8
11
  6
CONTINUOUS
 62
     7
  5
3DA
 10
915922.393
 20
7280919.678
 30
0.0
 40
8.0
  1
190'
 50
88.0773
  7
ROMANS
 72
     4
 11
915918.842589
 21
7280933.137698
 31
0.0
210
0.0
220
0.0
230
1.0
  0
TEXT
  8
11
  6
CONTINUOUS
 62
     7
  5
3DB
 10
915931.546
 20
7281192.321
 30
0.0
 40
8.0
  1
190'
 50
88.0773
  7
ROMANS
 72
     4
 11
915927.995589
 21
7281205.780698
 31
0.0
210
0.0
220
0.0
230
1.0
  0
TEXT
  8
11
  6
CONTINUOUS
 62
     7
  5
3DC
 10
915428.098
 20
7281209.222
 30
0.0
 40
8.0
  1
190'
 50
88.0773
  7
ROMANS
 72
     4
 11
915424.547589
 21
7281222.681698
 31
0.0
210
0.0
220
0.0
230
1.0
  0
TEXT
  8
11
  6
CONTINUOUS
 62
     7
  5
3DD
 10
915354.062
 20
7281211.707
 30
0.0
 40
8.0
  1
190'
 50
88.0773
  7
ROMANS
 72
     4
 11
915350.511589
 21
7281225.166698
 31
0.0
210
0.0
220
0.0
230
1.0
  0
TEXT
  8
11
  6
CONTINUOUS
 62
     7
  5
3DE
 10
914755.849
 20
7281231.789
 30
0.0
 40
8.0
  1
190'
 50
88.0773
  7
ROMANS
 72
     4
 11
914752.298589
 21
7281245.248698
 31
0.0
210
0.0
220
0.0
230
1.0
  0
TEXT
  8
11
  6
CONTINUOUS
 62
     7
  5
3DF
 10
914678.851
 20
7281234.375
 30
0.0
 40
8.0
  1
190'
 50
88.0773
  7
ROMANS
 72
     4
 11
914675.300589
 21
7281247.834698
 31
0.0
210
0.0
220
0.0
230
1.0
  0
TEXT
  8
11
  6
CONTINUOUS
 62
     7
  5
3E0
 10
914074.715
 20
7281254.655
 30
0.0
 40
8.0
  1
190'
 50
88.0773
  7
ROMANS
 72
     4
 11
914071.164589
 21
7281268.114698
 31
0.0
210
0.0
220
0.0
230
1.0
  0
TEXT
  8
11
  6
CONTINUOUS
 62
     7
  5
3E1
 10
914000.678
 20
7281257.141
 30
0.0
 40
8.0
  1
190'
 50
88.0773
  7
ROMANS
 72
     4
 11
913997.127589
 21
7281270.600698
 31
0.0
210
0.0
220
0.0
230
1.0
  0
TEXT
  8
11
  6
CONTINUOUS
 62
     7
  5
3E2
 10
913399.504
 20
7281277.322
 30
0.0
 40
8.0
  1
190'
 50
88.0773
  7
ROMANS
 72
     4
 11
913395.953589
 21
7281290.781698
 31
0.0
210
0.0
220
0.0
230
1.0
  0
TEXT
  8
11
  6
CONTINUOUS
 62
     7
  5
3E3
 10
913353.716
 20
7279825.057
 30
0.0
 40
8.0
  1
130.17'
 50
88.0773
  7
ROMANS
 72
     4
 11
913350.568203
 21
7279850.509942
 31
0.0
210
0.0
220
0.0
230
1.0
  0
TEXT
  8
11
  6
CONTINUOUS
 62
     7
  5
3E4
 10
913353.726
 20
7279737.056
 30
0.0
 40
8.0
  1
69.99'
 50
88.0773
  7
ROMANS
 72
     4
 11
913350.443999
 21
7279758.511194
 31
0.0
210
0.0
220
0.0
230
1.0
  0
TEXT
  8
11
  6
CONTINUOUS
 62
     7
  5
3E5
 10
915872.916
 20
7279710.819
 30
0.0
 40
8.0
  1
199.99'
 50
88.0773
  7
ROMANS
 72
     4
 11
915869.768203
 21
7279736.271942
 31
0.0
210
0.0
220
0.0
230
1.0
  0
TEXT
  8
11
  6
CONTINUOUS
 62
     7
  5
3E6
 10
915878.423
 20
7279874.86
 30
0.0
 40
8.0
  1
30'
 50
88.0773
  7
ROMANS
 72
     4
 11
915874.738385
 21
7279884.32195
 31
0.0
210
0.0
220
0.0
230
1.0
  0
TEXT
  8
11
  6
CONTINUOUS
 62
     7
  5
3E7
 10
915890.258
 20
7279962.419
 30
0.0
 40
8.0
  1
160.95'
 50
88.0773
  7
ROMANS
 72
     4
 11
915887.110203
 21
7279987.871942
 31
0.0
210
0.0
220
0.0
230
1.0
  0
TEXT
  8
11
  6
CONTINUOUS
 62
     7
  5
3E8
 10
915671.738
 20
7279723.551
 30
0.0
 40
8.0
  1
230'
 50
88.0773
  7
ROMANS
 72
     4
 11
915668.187589
 21
7279737.010698
 31
0.0
210
0.0
220
0.0
230
1.0
  0
TEXT
  8
11
  6
CONTINUOUS
 62
     7
  5
3E9
 10
915203.829
 20
7279739.258
 30
0.0
 40
8.0
  1
230'
 50
88.0773
  7
ROMANS
 72
     4
 11
915200.278589
 21
7279752.717698
 31
0.0
210
0.0
220
0.0
230
1.0
  0
TEXT
  8
11
  6
CONTINUOUS
 62
     7
  5
3EA
 10
914638.191
 20
7279758.248
 30
0.0
 40
8.0
  1
230'
 50
88.0773
  7
ROMANS
 72
     4
 11
914634.640589
 21
7279771.707698
 31
0.0
210
0.0
220
0.0
230
1.0
  0
TEXT
  8
11
  6
CONTINUOUS
 62
     7
  5
3EB
 10
913726.064
 20
7279788.868
 30
0.0
 40
8.0
  1
230'
 50
88.0773
  7
ROMANS
 72
     4
 11
913722.513589
 21
7279802.327698
 31
0.0
210
0.0
220
0.0
230
1.0
  0
TEXT
  8
11
  6
CONTINUOUS
 62
     7
  5
3EC
 10
914729.997
 20
7279755.166
 30
0.0
 40
8.0
  1
220'
 50
88.0773
  7
ROMANS
 72
     4
 11
914726.446589
 21
7279768.625698
 31
0.0
210
0.0
220
0.0
230
1.0
  0
TEXT
  8
11
  6
CONTINUOUS
 62
     7
  5
3ED
 10
915109.062
 20
7279742.44
 30
0.0
 40
8.0
  1
220'
 50
88.0773
  7
ROMANS
 72
     4
 11
915105.511589
 21
7279755.899698
 31
0.0
210
0.0
220
0.0
230
1.0
  0
TEXT
  8
11
  6
CONTINUOUS
 62
     7
  5
3EE
 10
914770.784
 20
7279822.035
 30
0.0
 40
8.0
  1
100'
 50
88.0773
  7
ROMANS
 72
     4
 11
914767.233589
 21
7279835.494698
 31
0.0
210
0.0
220
0.0
230
1.0
  0
TEXT
  8
11
  6
CONTINUOUS
 62
     7
  5
3EF
 10
915069.692
 20
7279806.066
 30
0.0
 40
8.0
  1
100'
 50
88.0773
  7
ROMANS
 72
     4
 11
915066.141589
 21
7279819.525698
 31
0.0
210
0.0
220
0.0
230
1.0
  0
TEXT
  8
11
  6
CONTINUOUS
 62
     7
  5
3F0
 10
914767.003
 20
7279709.421
 30
0.0
 40
8.0
  1
120'
 50
88.0773
  7
ROMANS
 72
     4
 11
914763.452589
 21
7279722.880698
 31
0.0
210
0.0
220
0.0
230
1.0
  0
TEXT
  8
11
  6
CONTINUOUS
 62
     7
  5
3F1
 10
915068.973
 20
7279696.317
 30
0.0
 40
8.0
  1
120'
 50
88.0773
  7
ROMANS
 72
     4
 11
915065.422589
 21
7279709.776698
 31
0.0
210
0.0
220
0.0
230
1.0
  0
TEXT
  8
11
  6
CONTINUOUS
 62
     7
  5
3F2
 10
914959.398
 20
7279699.995
 30
0.0
 40
8.0
  1
105'
 50
88.0773
  7
ROMANS
 72
     4
 11
914955.847589
 21
7279713.454698
 31
0.0
210
0.0
220
0.0
230
1.0
  0
TEXT
  8
11
  6
CONTINUOUS
 62
     7
  5
3F3
 10
914879.439
 20
7279702.68
 30
0.0
 40
8.0
  1
105'
 50
88.0773
  7
ROMANS
 72
     4
 11
914875.888589
 21
7279716.139698
 31
0.0
210
0.0
220
0.0
230
1.0
  0
TEXT
  8
11
  6
CONTINUOUS
 62
     7
  5
3F4
 10
914883.219
 20
7279815.292
 30
0.0
 40
8.0
  1
110'
 50
88.0773
  7
ROMANS
 72
     4
 11
914879.668589
 21
7279828.751698
 31
0.0
210
0.0
220
0.0
230
1.0
  0
TEXT
  8
11
  6
CONTINUOUS
 62
     7
  5
3F5
 10
914963.179
 20
7279812.608
 30
0.0
 40
8.0
  1
110'
 50
88.0773
  7
ROMANS
 72
     4
 11
914959.628589
 21
7279826.067698
 31
0.0
210
0.0
220
0.0
230
1.0
  0
TEXT
  8
11
  6
CONTINUOUS
 62
     7
  5
3F6
 10
913745.302
 20
7279697.312
 30
0.0
 40
8.0
  1
85'
 50
358.0773
  7
ROMANS
 72
     1
 11
913754.629746
 21
7279696.998867
 31
0.0
210
0.0
220
0.0
230
1.0
  0
TEXT
  8
11
  6
CONTINUOUS
 62
     7
  5
3F7
 10
913834.144
 20
7279694.329
 30
0.0
 40
8.0
  1
85'
 50
358.0773
  7
ROMANS
 72
     1
 11
913843.471746
 21
7279694.015867
 31
0.0
210
0.0
220
0.0
230
1.0
  0
TEXT
  8
11
  6
CONTINUOUS
 62
     7
  5
3F8
 10
913925.95
 20
7279691.248
 30
0.0
 40
8.0
  1
85'
 50
358.0773
  7
ROMANS
 72
     1
 11
913935.277746
 21
7279690.934867
 31
0.0
210
0.0
220
0.0
230
1.0
  0
TEXT
  8
11
  6
CONTINUOUS
 62
     7
  5
3F9
 10
914082.906
 20
7279685.978
 30
0.0
 40
8.0
  1
80'
 50
358.0773
  7
ROMANS
 72
     1
 11
914092.233746
 21
7279685.664867
 31
0.0
210
0.0
220
0.0
230
1.0
  0
TEXT
  8
11
  6
CONTINUOUS
 62
     7
  5
3FA
 10
914165.828
 20
7279683.194
 30
0.0
 40
8.0
  1
80'
 50
358.0773
  7
ROMANS
 72
     1
 11
914175.155746
 21
7279682.880867
 31
0.0
210
0.0
220
0.0
230
1.0
  0
TEXT
  8
11
  6
CONTINUOUS
 62
     7
  5
3FB
 10
914248.748
 20
7279680.411
 30
0.0
 40
8.0
  1
80'
 50
358.0773
  7
ROMANS
 72
     1
 11
914258.075746
 21
7279680.097867
 31
0.0
210
0.0
220
0.0
230
1.0
  0
TEXT
  8
11
  6
CONTINUOUS
 62
     7
  5
3FC
 10
914411.628
 20
7279674.942
 30
0.0
 40
8.0
  1
90'
 50
358.0773
  7
ROMANS
 72
     1
 11
914420.955746
 21
7279674.628867
 31
0.0
210
0.0
220
0.0
230
1.0
  0
TEXT
  8
11
  6
CONTINUOUS
 62
     7
  5
3FD
 10
914500.471
 20
7279671.96
 30
0.0
 40
8.0
  1
90'
 50
358.0773
  7
ROMANS
 72
     1
 11
914509.798746
 21
7279671.646867
 31
0.0
210
0.0
220
0.0
230
1.0
  0
TEXT
  8
11
  6
CONTINUOUS
 62
     7
  5
3FE
 10
914589.315
 20
7279668.978
 30
0.0
 40
8.0
  1
90'
 50
358.0773
  7
ROMANS
 72
     1
 11
914598.642746
 21
7279668.664867
 31
0.0
210
0.0
220
0.0
230
1.0
  0
TEXT
  8
11
  6
CONTINUOUS
 62
     7
  5
3FF
 10
914681.121
 20
7279665.896
 30
0.0
 40
8.0
  1
90'
 50
358.0773
  7
ROMANS
 72
     1
 11
914690.448746
 21
7279665.582867
 31
0.0
210
0.0
220
0.0
230
1.0
  0
TEXT
  8
11
  6
CONTINUOUS
 62
     7
  5
400
 10
914804.497
 20
7279661.754
 30
0.0
 40
8.0
  1
115'
 50
358.0773
  7
ROMANS
 72
     1
 11
914817.822494
 21
7279661.306663
 31
0.0
210
0.0
220
0.0
230
1.0
  0
TEXT
  8
11
  6
CONTINUOUS
 62
     7
  5
401
 10
914999.953
 20
7279655.193
 30
0.0
 40
8.0
  1
115'
 50
358.0773
  7
ROMANS
 72
     1
 11
915013.278494
 21
7279654.745663
 31
0.0
210
0.0
220
0.0
230
1.0
  0
TEXT
  8
11
  6
CONTINUOUS
 62
     7
  5
402
 10
914811.485
 20
7279781.587
 30
0.0
 40
8.0
  1
130'
 50
358.0773
  7
ROMANS
 72
     1
 11
914824.810494
 21
7279781.139663
 31
0.0
210
0.0
220
0.0
230
1.0
  0
TEXT
  8
11
  6
CONTINUOUS
 62
     7
  5
403
 10
915009.902
 20
7279774.927
 30
0.0
 40
8.0
  1
130'
 50
358.0773
  7
ROMANS
 72
     1
 11
915023.227494
 21
7279774.479663
 31
0.0
210
0.0
220
0.0
230
1.0
  0
TEXT
  8
11
  6
CONTINUOUS
 62
     7
  5
404
 10
914814.706
 20
7279877.534
 30
0.0
 40
8.0
  1
120'
 50
358.0773
  7
ROMANS
 72
     1
 11
914828.299903
 21
7279885.082159
 31
0.0
210
0.0
220
0.0
230
1.0
 73
     3
  0
TEXT
  8
11
  6
CONTINUOUS
 62
     7
  5
405
 10
915007.2
 20
7279871.072
 30
0.0
 40
8.0
  1
120'
 50
358.0773
  7
ROMANS
 72
     1
 11
915020.793903
 21
7279878.620159
 31
0.0
210
0.0
220
0.0
230
1.0
 73
     3
  0
TEXT
  8
11
  6
CONTINUOUS
 62
     7
  5
406
 10
914682.444
 20
7279881.974
 30
0.0
 40
8.0
  1
80'
 50
358.0773
  7
ROMANS
 72
     1
 11
914692.040155
 21
7279889.656363
 31
0.0
210
0.0
220
0.0
230
1.0
 73
     3
  0
TEXT
  8
11
  6
CONTINUOUS
 62
     7
  5
407
 10
915133.537
 20
7279866.83
 30
0.0
 40
8.0
  1
84.5'
 50
358.0773
  7
ROMANS
 72
     1
 11
915151.128651
 21
7279874.243954
 31
0.0
210
0.0
220
0.0
230
1.0
 73
     3
  0
TEXT
  8
11
  6
CONTINUOUS
 62
     7
  5
408
 10
915759.408
 20
7279845.82
 30
0.0
 40
8.0
  1
220'
 50
358.0773
  7
ROMANS
 72
     1
 11
915773.001903
 21
7279853.368159
 31
0.0
210
0.0
220
0.0
230
1.0
 73
     3
  0
TEXT
  8
11
  6
CONTINUOUS
 62
     7
  5
409
 10
913520.497
 20
7279920.98
 30
0.0
 40
8.0
  1
379.21'
 50
358.0773
  7
ROMANS
 72
     1
 11
913546.084147
 21
7279928.125545
 31
0.0
210
0.0
220
0.0
230
1.0
 73
     3
  0
TEXT
  8
11
  6
CONTINUOUS
 62
     7
  5
40A
 10
913516.212
 20
7279705.002
 30
0.0
 40
8.0
  1
342.16'
 50
358.0773
  7
ROMANS
 72
     1
 11
913541.530738
 21
7279704.152049
 31
0.0
210
0.0
220
0.0
230
1.0
  0
TEXT
  8
11
  6
CONTINUOUS
 62
     7
  5
40B
 10
915129.251
 20
7279650.853
 30
0.0
 40
8.0
  1
94.5'
 50
358.0773
  7
ROMANS
 72
     1
 11
915146.574242
 21
7279650.271458
 31
0.0
210
0.0
220
0.0
230
1.0
  0
TEXT
  8
11
  6
CONTINUOUS
 62
     7
  5
40C
 10
915226.027
 20
7279647.604
 30
0.0
 40
8.0
  1
94'
 50
358.0773
  7
ROMANS
 72
     1
 11
915235.354746
 21
7279647.290867
 31
0.0
210
0.0
220
0.0
230
1.0
  0
TEXT
  8
11
  6
CONTINUOUS
 62
     7
  5
40D
 10
915329.678
 20
7279644.124
 30
0.0
 40
8.0
  1
94'
 50
358.0773
  7
ROMANS
 72
     1
 11
915339.005746
 21
7279643.810867
 31
0.0
210
0.0
220
0.0
230
1.0
  0
TEXT
  8
11
  6
CONTINUOUS
 62
     7
  5
40E
 10
915415.56
 20
7279641.24
 30
0.0
 40
8.0
  1
94'
 50
358.0773
  7
ROMANS
 72
     1
 11
915424.887746
 21
7279640.926867
 31
0.0
210
0.0
220
0.0
230
1.0
  0
TEXT
  8
11
  6
CONTINUOUS
 62
     7
  5
40F
 10
915516.25
 20
7279637.86
 30
0.0
 40
8.0
  1
94'
 50
358.0773
  7
ROMANS
 72
     1
 11
915525.577746
 21
7279637.546867
 31
0.0
210
0.0
220
0.0
230
1.0
  0
TEXT
  8
11
  6
CONTINUOUS
 62
     7
  5
410
 10
915605.092
 20
7279634.878
 30
0.0
 40
8.0
  1
94'
 50
358.0773
  7
ROMANS
 72
     1
 11
915614.419746
 21
7279634.564867
 31
0.0
210
0.0
220
0.0
230
1.0
  0
TEXT
  8
11
  6
CONTINUOUS
 62
     7
  5
411
 10
915755.123
 20
7279629.841
 30
0.0
 40
8.0
  1
190'
 50
358.0773
  7
ROMANS
 72
     1
 11
915768.448494
 21
7279629.393663
 31
0.0
210
0.0
220
0.0
230
1.0
  0
TEXT
  8
11
  6
CONTINUOUS
 62
     7
  5
412
 10
915817.769
 20
7279877.88
 30
0.0
 40
8.0
  1
85.01'
 50
358.0773
  7
ROMANS
 72
     1
 11
915839.08999
 21
7279877.164253
 31
0.0
210
0.0
220
0.0
230
1.0
  0
TEXT
  8
11
  6
CONTINUOUS
 62
     7
  5
413
 10
914996.494
 20
7279905.45
 30
0.0
 40
8.0
  1
110'
 50
358.0773
  7
ROMANS
 72
     1
 11
915009.819494
 21
7279905.002663
 31
0.0
210
0.0
220
0.0
230
1.0
  0
TEXT
  8
11
  6
CONTINUOUS
 62
     7
  5
414
 10
914824.73
 20
7279911.216
 30
0.0
 40
8.0
  1
110'
 50
358.0773
  7
ROMANS
 72
     1
 11
914838.055494
 21
7279910.768663
 31
0.0
210
0.0
220
0.0
230
1.0
  0
TEXT
  8
11
  6
CONTINUOUS
 62
     7
  5
415
 10
913376.526
 20
7279959.832
 30
0.0
 40
8.0
  1
110.24'
 50
358.0773
  7
ROMANS
 72
     1
 11
913401.844738
 21
7279958.982049
 31
0.0
210
0.0
220
0.0
230
1.0
  0
TEXT
  8
11
  6
CONTINUOUS
 62
     7
  5
416
 10
913498.485
 20
7280146.846
 30
0.0
 40
8.0
  1
110'
 50
358.0773
  7
ROMANS
 72
     1
 11
913512.078903
 21
7280154.394159
 31
0.0
210
0.0
220
0.0
230
1.0
 73
     3
  0
TEXT
  8
11
  6
CONTINUOUS
 62
     7
  5
417
 10
913611.021
 20
7280143.068
 30
0.0
 40
8.0
  1
110'
 50
358.0773
  7
ROMANS
 72
     1
 11
913624.614903
 21
7280150.616159
 31
0.0
210
0.0
220
0.0
230
1.0
 73
     3
  0
TEXT
  8
11
  6
CONTINUOUS
 62
     7
  5
418
 10
914715.643
 20
7280105.986
 30
0.0
 40
8.0
  1
110'
 50
358.0773
  7
ROMANS
 72
     1
 11
914729.236903
 21
7280113.534159
 31
0.0
210
0.0
220
0.0
230
1.0
 73
     3
  0
TEXT
  8
11
  6
CONTINUOUS
 62
     7
  5
419
 10
915219.089
 20
7280089.085
 30
0.0
 40
8.0
  1
110'
 50
358.0773
  7
ROMANS
 72
     1
 11
915232.682903
 21
7280096.633159
 31
0.0
210
0.0
220
0.0
230
1.0
 73
     3
  0
TEXT
  8
11
  6
CONTINUOUS
 62
     7
  5
41A
 10
915331.624
 20
7280085.307
 30
0.0
 40
8.0
  1
110'
 50
358.0773
  7
ROMANS
 72
     1
 11
915345.217903
 21
7280092.855159
 31
0.0
210
0.0
220
0.0
230
1.0
 73
     3
  0
TEXT
  8
11
  6
CONTINUOUS
 62
     7
  5
41B
 10
915538.925
 20
7280078.348
 30
0.0
 40
8.0
  1
100'
 50
358.0773
  7
ROMANS
 72
     1
 11
915552.518903
 21
7280085.896159
 31
0.0
210
0.0
220
0.0
230
1.0
 73
     3
  0
TEXT
  8
11
  6
CONTINUOUS
 62
     7
  5
41C
 10
915746.227
 20
7280071.389
 30
0.0
 40
8.0
  1
100'
 50
358.0773
  7
ROMANS
 72
     1
 11
915759.820903
 21
7280078.937159
 31
0.0
210
0.0
220
0.0
230
1.0
 73
     3
  0
TEXT
  8
11
  6
CONTINUOUS
 62
     7
  5
41D
 10
915645.538
 20
7280074.769
 30
0.0
 40
8.0
  1
100'
 50
358.0773
  7
ROMANS
 72
     1
 11
915659.131903
 21
7280082.317159
 31
0.0
210
0.0
220
0.0
230
1.0
 73
     3
  0
TEXT
  8
11
  6
CONTINUOUS
 62
     7
  5
41E
 10
913714.671
 20
7280139.588
 30
0.0
 40
8.0
  1
100'
 50
358.0773
  7
ROMANS
 72
     1
 11
913728.264903
 21
7280147.136159
 31
0.0
210
0.0
220
0.0
230
1.0
 73
     3
  0
TEXT
  8
11
  6
CONTINUOUS
 62
     7
  5
41F
 10
913818.322
 20
7280136.109
 30
0.0
 40
8.0
  1
100'
 50
358.0773
  7
ROMANS
 72
     1
 11
913831.915903
 21
7280143.657159
 31
0.0
210
0.0
220
0.0
230
1.0
 73
     3
  0
TEXT
  8
11
  6
CONTINUOUS
 62
     7
  5
420
 10
913924.933
 20
7280132.53
 30
0.0
 40
8.0
  1
100'
 50
358.0773
  7
ROMANS
 72
     1
 11
913938.526903
 21
7280140.078159
 31
0.0
210
0.0
220
0.0
230
1.0
 73
     3
  0
TEXT
  8
11
  6
CONTINUOUS
 62
     7
  5
421
 10
914019.701
 20
7280129.349
 30
0.0
 40
8.0
  1
100'
 50
358.0773
  7
ROMANS
 72
     1
 11
914033.294903
 21
7280136.897159
 31
0.0
210
0.0
220
0.0
230
1.0
 73
     3
  0
TEXT
  8
11
  6
CONTINUOUS
 62
     7
  5
422
 10
914129.275
 20
7280125.67
 30
0.0
 40
8.0
  1
100'
 50
358.0773
  7
ROMANS
 72
     1
 11
914142.868903
 21
7280133.218159
 31
0.0
210
0.0
220
0.0
230
1.0
 73
     3
  0
TEXT
  8
11
  6
CONTINUOUS
 62
     7
  5
423
 10
914215.156
 20
7280122.787
 30
0.0
 40
8.0
  1
100'
 50
358.0773
  7
ROMANS
 72
     1
 11
914228.749903
 21
7280130.335159
 31
0.0
210
0.0
220
0.0
230
1.0
 73
     3
  0
TEXT
  8
11
  6
CONTINUOUS
 62
     7
  5
424
 10
914312.884
 20
7280119.506
 30
0.0
 40
8.0
  1
100'
 50
358.0773
  7
ROMANS
 72
     1
 11
914326.477903
 21
7280127.054159
 31
0.0
210
0.0
220
0.0
230
1.0
 73
     3
  0
TEXT
  8
11
  6
CONTINUOUS
 62
     7
  5
425
 10
914416.535
 20
7280116.027
 30
0.0
 40
8.0
  1
100'
 50
358.0773
  7
ROMANS
 72
     1
 11
914430.128903
 21
7280123.575159
 31
0.0
210
0.0
220
0.0
230
1.0
 73
     3
  0
TEXT
  8
11
  6
CONTINUOUS
 62
     7
  5
426
 10
914526.109
 20
7280112.348
 30
0.0
 40
8.0
  1
100'
 50
358.0773
  7
ROMANS
 72
     1
 11
914539.702903
 21
7280119.896159
 31
0.0
210
0.0
220
0.0
230
1.0
 73
     3
  0
TEXT
  8
11
  6
CONTINUOUS
 62
     7
  5
427
 10
915003.907
 20
7280096.308
 30
0.0
 40
8.0
  1
95'
 50
358.0773
  7
ROMANS
 72
     1
 11
915013.503155
 21
7280103.990363
 31
0.0
210
0.0
220
0.0
230
1.0
 73
     3
  0
TEXT
  8
11
  6
CONTINUOUS
 62
     7
  5
428
 10
913380.979
 20
7280150.791
 30
0.0
 40
8.0
  1
95.21'
 50
358.0773
  7
ROMANS
 72
     1
 11
913402.568399
 21
7280158.070749
 31
0.0
210
0.0
220
0.0
230
1.0
 73
     3
  0
TEXT
  8
11
  6
CONTINUOUS
 62
     7
  5
429
 10
913904.595
 20
7280203.252
 30
0.0
 40
8.0
  1
95'
 50
358.0773
  7
ROMANS
 72
     1
 11
913913.922746
 21
7280202.938867
 31
0.0
210
0.0
220
0.0
230
1.0
  0
TEXT
  8
11
  6
CONTINUOUS
 62
     7
  5
42A
 10
914076.359
 20
7280197.485
 30
0.0
 40
8.0
  1
95'
 50
358.0773
  7
ROMANS
 72
     1
 11
914085.686746
 21
7280197.171867
 31
0.0
210
0.0
220
0.0
230
1.0
  0
TEXT
  8
11
  6
CONTINUOUS
 62
     7
  5
42B
 10
915178.019
 20
7280160.503
 30
0.0
 40
8.0
  1
95'
 50
358.0773
  7
ROMANS
 72
     1
 11
915187.346746
 21
7280160.189867
 31
0.0
210
0.0
220
0.0
230
1.0
  0
TEXT
  8
11
  6
CONTINUOUS
 62
     7
  5
42C
 10
915748.575
 20
7280141.35
 30
0.0
 40
8.0
  1
100'
 50
358.0773
  7
ROMANS
 72
     1
 11
915761.900494
 21
7280140.902663
 31
0.0
210
0.0
220
0.0
230
1.0
  0
TEXT
  8
11
  6
CONTINUOUS
 62
     7
  5
42D
 10
915650.847
 20
7280144.63
 30
0.0
 40
8.0
  1
100'
 50
358.0773
  7
ROMANS
 72
     1
 11
915664.172494
 21
7280144.182663
 31
0.0
210
0.0
220
0.0
230
1.0
  0
TEXT
  8
11
  6
CONTINUOUS
 62
     7
  5
42E
 10
915544.235
 20
7280148.21
 30
0.0
 40
8.0
  1
100'
 50
358.0773
  7
ROMANS
 72
     1
 11
915557.560494
 21
7280147.762663
 31
0.0
210
0.0
220
0.0
230
1.0
  0
TEXT
  8
11
  6
CONTINUOUS
 62
     7
  5
42F
 10
915443.546
 20
7280151.59
 30
0.0
 40
8.0
  1
100'
 50
358.0773
  7
ROMANS
 72
     1
 11
915456.871494
 21
7280151.142663
 31
0.0
210
0.0
220
0.0
230
1.0
  0
TEXT
  8
11
  6
CONTINUOUS
 62
     7
  5
430
 10
914164.199
 20
7280194.537
 30
0.0
 40
8.0
  1
100'
 50
358.0773
  7
ROMANS
 72
     1
 11
914177.524494
 21
7280194.089663
 31
0.0
210
0.0
220
0.0
230
1.0
  0
TEXT
  8
11
  6
CONTINUOUS
 62
     7
  5
431
 10
913601.523
 20
7280213.426
 30
0.0
 40
8.0
  1
100'
 50
358.0773
  7
ROMANS
 72
     1
 11
913614.848494
 21
7280212.978663
 31
0.0
210
0.0
220
0.0
230
1.0
  0
TEXT
  8
11
  6
CONTINUOUS
 62
     7
  5
432
 10
913699.251
 20
7280210.145
 30
0.0
 40
8.0
  1
100'
 50
358.0773
  7
ROMANS
 72
     1
 11
913712.576494
 21
7280209.697663
 31
0.0
210
0.0
220
0.0
230
1.0
  0
TEXT
  8
11
  6
CONTINUOUS
 62
     7
  5
433
 10
913796.979
 20
7280206.864
 30
0.0
 40
8.0
  1
100'
 50
358.0773
  7
ROMANS
 72
     1
 11
913810.304494
 21
7280206.416663
 31
0.0
210
0.0
220
0.0
230
1.0
  0
TEXT
  8
11
  6
CONTINUOUS
 62
     7
  5
434
 10
914270.81
 20
7280190.958
 30
0.0
 40
8.0
  1
100'
 50
358.0773
  7
ROMANS
 72
     1
 11
914284.135494
 21
7280190.510663
 31
0.0
210
0.0
220
0.0
230
1.0
  0
TEXT
  8
11
  6
CONTINUOUS
 62
     7
  5
435
 10
914374.462
 20
7280187.479
 30
0.0
 40
8.0
  1
100'
 50
358.0773
  7
ROMANS
 72
     1
 11
914387.787494
 21
7280187.031663
 31
0.0
210
0.0
220
0.0
230
1.0
  0
TEXT
  8
11
  6
CONTINUOUS
 62
     7
  5
436
 10
914472.19
 20
7280184.198
 30
0.0
 40
8.0
  1
100'
 50
358.0773
  7
ROMANS
 72
     1
 11
914485.515494
 21
7280183.750663
 31
0.0
210
0.0
220
0.0
230
1.0
  0
TEXT
  8
11
  6
CONTINUOUS
 62
     7
  5
437
 10
914563.995
 20
7280181.116
 30
0.0
 40
8.0
  1
100'
 50
358.0773
  7
ROMANS
 72
     1
 11
914577.320494
 21
7280180.668663
 31
0.0
210
0.0
220
0.0
230
1.0
  0
TEXT
  8
11
  6
CONTINUOUS
 62
     7
  5
438
 10
914673.569
 20
7280177.438
 30
0.0
 40
8.0
  1
100'
 50
358.0773
  7
ROMANS
 72
     1
 11
914686.894494
 21
7280176.990663
 31
0.0
210
0.0
220
0.0
230
1.0
  0
TEXT
  8
11
  6
CONTINUOUS
 62
     7
  5
439
 10
914765.373
 20
7280174.356
 30
0.0
 40
8.0
  1
100'
 50
358.0773
  7
ROMANS
 72
     1
 11
914778.698494
 21
7280173.908663
 31
0.0
210
0.0
220
0.0
230
1.0
  0
TEXT
  8
11
  6
CONTINUOUS
 62
     7
  5
43A
 10
914871.986
 20
7280170.777
 30
0.0
 40
8.0
  1
100'
 50
358.0773
  7
ROMANS
 72
     1
 11
914885.311494
 21
7280170.329663
 31
0.0
210
0.0
220
0.0
230
1.0
  0
TEXT
  8
11
  6
CONTINUOUS
 62
     7
  5
43B
 10
914960.829
 20
7280167.794
 30
0.0
 40
8.0
  1
100'
 50
358.0773
  7
ROMANS
 72
     1
 11
914974.154494
 21
7280167.346663
 31
0.0
210
0.0
220
0.0
230
1.0
  0
TEXT
  8
11
  6
CONTINUOUS
 62
     7
  5
43C
 10
913490.944
 20
7280217.139
 30
0.0
 40
8.0
  1
97.5'
 50
358.0773
  7
ROMANS
 72
     1
 11
913508.267242
 21
7280216.557458
 31
0.0
210
0.0
220
0.0
230
1.0
  0
TEXT
  8
11
  6
CONTINUOUS
 62
     7
  5
43D
 10
913385.769
 20
7280411.777
 30
0.0
 40
8.0
  1
110.16'
 50
358.0773
  7
ROMANS
 72
     1
 11
913411.356147
 21
7280418.922545
 31
0.0
210
0.0
220
0.0
230
1.0
 73
     3
  0
TEXT
  8
11
  6
CONTINUOUS
 62
     7
  5
43E
 10
913907.037
 20
7280394.277
 30
0.0
 40
8.0
  1
110'
 50
358.0773
  7
ROMANS
 72
     1
 11
913920.630903
 21
7280401.825159
 31
0.0
210
0.0
220
0.0
230
1.0
 73
     3
  0
TEXT
  8
11
  6
CONTINUOUS
 62
     7
  5
43F
 10
914069.918
 20
7280388.81
 30
0.0
 40
8.0
  1
110'
 50
358.0773
  7
ROMANS
 72
     1
 11
914083.511903
 21
7280396.358159
 31
0.0
210
0.0
220
0.0
230
1.0
 73
     3
  0
TEXT
  8
11
  6
CONTINUOUS
 62
     7
  5
440
 10
915186.385
 20
7280351.33
 30
0.0
 40
8.0
  1
110'
 50
358.0773
  7
ROMANS
 72
     1
 11
915199.978903
 21
7280358.878159
 31
0.0
210
0.0
220
0.0
230
1.0
 73
     3
  0
TEXT
  8
11
  6
CONTINUOUS
 62
     7
  5
441
 10
915352.227
 20
7280345.763
 30
0.0
 40
8.0
  1
110'
 50
358.0773
  7
ROMANS
 72
     1
 11
915365.820903
 21
7280353.311159
 31
0.0
210
0.0
220
0.0
230
1.0
 73
     3
  0
TEXT
  8
11
  6
CONTINUOUS
 62
     7
  5
442
 10
915356.329
 20
7280379.644
 30
0.0
 40
8.0
  1
110'
 50
358.0773
  7
ROMANS
 72
     1
 11
915369.654494
 21
7280379.196663
 31
0.0
210
0.0
220
0.0
230
1.0
  0
TEXT
  8
11
  6
CONTINUOUS
 62
     7
  5
443
 10
915184.564
 20
7280385.41
 30
0.0
 40
8.0
  1
110'
 50
358.0773
  7
ROMANS
 72
     1
 11
915197.889494
 21
7280384.962663
 31
0.0
210
0.0
220
0.0
230
1.0
  0
TEXT
  8
11
  6
CONTINUOUS
 62
     7
  5
444
 10
914074.02
 20
7280422.691
 30
0.0
 40
8.0
  1
110'
 50
358.0773
  7
ROMANS
 72
     1
 11
914087.345494
 21
7280422.243663
 31
0.0
210
0.0
220
0.0
230
1.0
  0
TEXT
  8
11
  6
CONTINUOUS
 62
     7
  5
445
 10
913383.947
 20
7280445.857
 30
0.0
 40
8.0
  1
110.16'
 50
358.0773
  7
ROMANS
 72
     1
 11
913409.265738
 21
7280445.007049
 31
0.0
210
0.0
220
0.0
230
1.0
  0
TEXT
  8
11
  6
CONTINUOUS
 62
     7
  5
446
 10
915842.958
 20
7280363.308
 30
0.0
 40
8.0
  1
94.97'
 50
358.0773
  7
ROMANS
 72
     1
 11
915864.27899
 21
7280362.592253
 31
0.0
210
0.0
220
0.0
230
1.0
  0
TEXT
  8
11
  6
CONTINUOUS
 62
     7
  5
447
 10
915844.779
 20
7280329.228
 30
0.0
 40
8.0
  1
94.97'
 50
358.0773
  7
ROMANS
 72
     1
 11
915866.368399
 21
7280336.507749
 31
0.0
210
0.0
220
0.0
230
1.0
 73
     3
  0
TEXT
  8
11
  6
CONTINUOUS
 62
     7
  5
448
 10
915861.085
 20
7280814.954
 30
0.0
 40
8.0
  1
94.91'
 50
358.0773
  7
ROMANS
 72
     1
 11
915882.674399
 21
7280822.233749
 31
0.0
210
0.0
220
0.0
230
1.0
 73
     3
  0
TEXT
  8
11
  6
CONTINUOUS
 62
     7
  5
449
 10
915862.225
 20
7280848.935
 30
0.0
 40
8.0
  1
94.91'
 50
358.0773
  7
ROMANS
 72
     1
 11
915883.54599
 21
7280848.219253
 31
0.0
210
0.0
220
0.0
230
1.0
  0
TEXT
  8
11
  6
CONTINUOUS
 62
     7
  5
44A
 10
913609.557
 20
7280629.39
 30
0.0
 40
8.0
  1
100'
 50
358.0773
  7
ROMANS
 72
     1
 11
913623.150903
 21
7280636.938159
 31
0.0
210
0.0
220
0.0
230
1.0
 73
     3
  0
TEXT
  8
11
  6
CONTINUOUS
 62
     7
  5
44B
 10
914181.118
 20
7280610.203
 30
0.0
 40
8.0
  1
100'
 50
358.0773
  7
ROMANS
 72
     1
 11
914194.711903
 21
7280617.751159
 31
0.0
210
0.0
220
0.0
230
1.0
 73
     3
  0
TEXT
  8
11
  6
CONTINUOUS
 62
     7
  5
44C
 10
915466.388
 20
7280567.057
 30
0.0
 40
8.0
  1
100'
 50
358.0773
  7
ROMANS
 72
     1
 11
915479.981903
 21
7280574.605159
 31
0.0
210
0.0
220
0.0
230
1.0
 73
     3
  0
TEXT
  8
11
  6
CONTINUOUS
 62
     7
  5
44D
 10
915566.331
 20
7280563.701
 30
0.0
 40
8.0
  1
100'
 50
358.0773
  7
ROMANS
 72
     1
 11
915579.924903
 21
7280571.249159
 31
0.0
210
0.0
220
0.0
230
1.0
 73
     3
  0
TEXT
  8
11
  6
CONTINUOUS
 62
     7
  5
44E
 10
915666.275
 20
7280560.347
 30
0.0
 40
8.0
  1
100'
 50
358.0773
  7
ROMANS
 72
     1
 11
915679.868903
 21
7280567.895159
 31
0.0
210
0.0
220
0.0
230
1.0
 73
     3
  0
TEXT
  8
11
  6
CONTINUOUS
 62
     7
  5
44F
 10
915766.219
 20
7280556.991
 30
0.0
 40
8.0
  1
100'
 50
358.0773
  7
ROMANS
 72
     1
 11
915779.812903
 21
7280564.539159
 31
0.0
210
0.0
220
0.0
230
1.0
 73
     3
  0
TEXT
  8
11
  6
CONTINUOUS
 62
     7
  5
450
 10
913402.256
 20
7280425.804
 30
0.0
 40
8.0
  1
20
 50
88.0773
  7
ROMANS
 72
     4
 11
913398.481401
 21
7280432.58546
 31
0.0
210
0.0
220
0.0
230
1.0
  0
TEXT
  8
11
  6
CONTINUOUS
 62
     7
  5
451
 10
913385.926
 20
7279939.344
 30
0.0
 40
8.0
  1
20
 50
88.0773
  7
ROMANS
 72
     4
 11
913382.151401
 21
7279946.12546
 31
0.0
210
0.0
220
0.0
230
1.0
  0
TEXT
  8
11
  6
CONTINUOUS
 62
     7
  5
452
 10
913931.912
 20
7280408.023
 30
0.0
 40
8.0
  1
20
 50
88.0773
  7
ROMANS
 72
     4
 11
913928.137401
 21
7280414.80446
 31
0.0
210
0.0
220
0.0
230
1.0
  0
TEXT
  8
11
  6
CONTINUOUS
 62
     7
  5
453
 10
914082.826
 20
7280402.958
 30
0.0
 40
8.0
  1
20
 50
88.0773
  7
ROMANS
 72
     4
 11
914079.051401
 21
7280409.73946
 31
0.0
210
0.0
220
0.0
230
1.0
  0
TEXT
  8
11
  6
CONTINUOUS
 62
     7
  5
454
 10
914685.531
 20
7279894.325
 30
0.0
 40
8.0
  1
20
 50
88.0773
  7
ROMANS
 72
     4
 11
914681.756401
 21
7279901.10646
 31
0.0
210
0.0
220
0.0
230
1.0
  0
TEXT
  8
11
  6
CONTINUOUS
 62
     7
  5
455
 10
914848.104
 20
7279890.321
 30
0.0
 40
8.0
  1
20
 50
88.0773
  7
ROMANS
 72
     4
 11
914844.329401
 21
7279897.10246
 31
0.0
210
0.0
220
0.0
230
1.0
  0
TEXT
  8
11
  6
CONTINUOUS
 62
     7
  5
456
 10
915014.981
 20
7279884.719
 30
0.0
 40
8.0
  1
20
 50
88.0773
  7
ROMANS
 72
     4
 11
915011.206401
 21
7279891.50046
 31
0.0
210
0.0
220
0.0
230
1.0
  0
TEXT
  8
11
  6
CONTINUOUS
 62
     7
  5
457
 10
914736.291
 20
7279688.803
 30
0.0
 40
8.0
  1
20
 50
358.0773
  7
ROMANS
 72
     4
 11
914743.07246
 21
7279692.577599
 31
0.0
210
0.0
220
0.0
230
1.0
  0
TEXT
  8
11
  6
CONTINUOUS
 62
     7
  5
458
 10
915077.301
 20
7279677.355
 30
0.0
 40
8.0
  1
20
 50
358.0773
  7
ROMANS
 72
     4
 11
915084.08246
 21
7279681.129599
 31
0.0
210
0.0
220
0.0
230
1.0
  0
TEXT
  8
11
  6
CONTINUOUS
 62
     7
  5
459
 10
915838.252
 20
7279856.812
 30
0.0
 40
8.0
  1
20
 50
88.0773
  7
ROMANS
 72
     4
 11
915834.477401
 21
7279863.59346
 31
0.0
210
0.0
220
0.0
230
1.0
  0
TEXT
  8
11
  6
CONTINUOUS
 62
     7
  5
45A
 10
915871.995
 20
7280342.688
 30
0.0
 40
8.0
  1
20
 50
88.0773
  7
ROMANS
 72
     4
 11
915868.220401
 21
7280349.46946
 31
0.0
210
0.0
220
0.0
230
1.0
  0
TEXT
  8
11
  6
CONTINUOUS
 62
     7
  5
45B
 10
915369.96
 20
7280360.995
 30
0.0
 40
8.0
  1
20
 50
88.0773
  7
ROMANS
 72
     4
 11
915366.185401
 21
7280367.77646
 31
0.0
210
0.0
220
0.0
230
1.0
  0
TEXT
  8
11
  6
CONTINUOUS
 62
     7
  5
45C
 10
915201.584
 20
7280365.194
 30
0.0
 40
8.0
  1
20
 50
88.0773
  7
ROMANS
 72
     4
 11
915197.809401
 21
7280371.97546
 31
0.0
210
0.0
220
0.0
230
1.0
  0
TEXT
  8
11
  6
CONTINUOUS
 62
     7
  5
45D
 10
913418.656
 20
7280909.973
 30
0.0
 40
8.0
  1
20
 50
88.0773
  7
ROMANS
 72
     4
 11
913414.881401
 21
7280916.75446
 31
0.0
210
0.0
220
0.0
230
1.0
  0
TEXT
  8
11
  6
CONTINUOUS
 62
     7
  5
45E
 10
914915.185
 20
7280861.157
 30
0.0
 40
8.0
  1
20
 50
88.0773
  7
ROMANS
 72
     4
 11
914911.410401
 21
7280867.93846
 31
0.0
210
0.0
220
0.0
230
1.0
  0
TEXT
  8
11
  6
CONTINUOUS
 62
     7
  5
45F
 10
915073.356
 20
7280855.847
 30
0.0
 40
8.0
  1
20
 50
88.0773
  7
ROMANS
 72
     4
 11
915069.581401
 21
7280862.62846
 31
0.0
210
0.0
220
0.0
230
1.0
  0
TEXT
  8
11
  6
CONTINUOUS
 62
     7
  5
460
 10
915882.452
 20
7280828.709
 30
0.0
 40
8.0
  1
20
 50
88.0773
  7
ROMANS
 72
     4
 11
915878.677401
 21
7280835.49046
 31
0.0
210
0.0
220
0.0
230
1.0
  0
TEXT
  8
11
  6
CONTINUOUS
 62
     7
  5
461
 10
913400.862
 20
7280636.397
 30
0.0
 40
8.0
  1
95.13'
 50
358.0773
  7
ROMANS
 72
     1
 11
913422.451399
 21
7280643.676749
 31
0.0
210
0.0
220
0.0
230
1.0
 73
     3
  0
TEXT
  8
11
  6
CONTINUOUS
 62
     7
  5
462
 10
913917.746
 20
7280619.045
 30
0.0
 40
8.0
  1
95'
 50
358.0773
  7
ROMANS
 72
     1
 11
913927.342155
 21
7280626.727363
 31
0.0
210
0.0
220
0.0
230
1.0
 73
     3
  0
TEXT
  8
11
  6
CONTINUOUS
 62
     7
  5
463
 10
914083.174
 20
7280613.492
 30
0.0
 40
8.0
  1
95'
 50
358.0773
  7
ROMANS
 72
     1
 11
914092.770155
 21
7280621.174363
 31
0.0
210
0.0
220
0.0
230
1.0
 73
     3
  0
TEXT
  8
11
  6
CONTINUOUS
 62
     7
  5
464
 10
915188.919
 20
7280576.372
 30
0.0
 40
8.0
  1
95'
 50
358.0773
  7
ROMANS
 72
     1
 11
915198.515155
 21
7280584.054363
 31
0.0
210
0.0
220
0.0
230
1.0
 73
     3
  0
TEXT
  8
11
  6
CONTINUOUS
 62
     7
  5
465
 10
915850.336
 20
7280554.167
 30
0.0
 40
8.0
  1
79.94'
 50
358.0773
  7
ROMANS
 72
     1
 11
915871.925399
 21
7280561.446749
 31
0.0
210
0.0
220
0.0
230
1.0
 73
     3
  0
TEXT
  8
11
  6
CONTINUOUS
 62
     7
  5
466
 10
914281.061
 20
7280606.848
 30
0.0
 40
8.0
  1
100'
 50
358.0773
  7
ROMANS
 72
     1
 11
914294.654903
 21
7280614.396159
 31
0.0
210
0.0
220
0.0
230
1.0
 73
     3
  0
TEXT
  8
11
  6
CONTINUOUS
 62
     7
  5
467
 10
914381.004
 20
7280603.493
 30
0.0
 40
8.0
  1
100'
 50
358.0773
  7
ROMANS
 72
     1
 11
914394.597903
 21
7280611.041159
 31
0.0
210
0.0
220
0.0
230
1.0
 73
     3
  0
TEXT
  8
11
  6
CONTINUOUS
 62
     7
  5
468
 10
914480.948
 20
7280600.138
 30
0.0
 40
8.0
  1
100'
 50
358.0773
  7
ROMANS
 72
     1
 11
914494.541903
 21
7280607.686159
 31
0.0
210
0.0
220
0.0
230
1.0
 73
     3
  0
TEXT
  8
11
  6
CONTINUOUS
 62
     7
  5
469
 10
914580.892
 20
7280596.783
 30
0.0
 40
8.0
  1
100'
 50
358.0773
  7
ROMANS
 72
     1
 11
914594.485903
 21
7280604.331159
 31
0.0
210
0.0
220
0.0
230
1.0
 73
     3
  0
TEXT
  8
11
  6
CONTINUOUS
 62
     7
  5
46A
 10
914680.836
 20
7280593.428
 30
0.0
 40
8.0
  1
100'
 50
358.0773
  7
ROMANS
 72
     1
 11
914694.429903
 21
7280600.976159
 31
0.0
210
0.0
220
0.0
230
1.0
 73
     3
  0
TEXT
  8
11
  6
CONTINUOUS
 62
     7
  5
46B
 10
914780.779
 20
7280590.072
 30
0.0
 40
8.0
  1
100'
 50
358.0773
  7
ROMANS
 72
     1
 11
914794.372903
 21
7280597.620159
 31
0.0
210
0.0
220
0.0
230
1.0
 73
     3
  0
TEXT
  8
11
  6
CONTINUOUS
 62
     7
  5
46C
 10
914880.723
 20
7280586.718
 30
0.0
 40
8.0
  1
100'
 50
358.0773
  7
ROMANS
 72
     1
 11
914894.316903
 21
7280594.266159
 31
0.0
210
0.0
220
0.0
230
1.0
 73
     3
  0
TEXT
  8
11
  6
CONTINUOUS
 62
     7
  5
46D
 10
914980.667
 20
7280583.362
 30
0.0
 40
8.0
  1
100'
 50
358.0773
  7
ROMANS
 72
     1
 11
914994.260903
 21
7280590.910159
 31
0.0
210
0.0
220
0.0
230
1.0
 73
     3
  0
TEXT
  8
11
  6
CONTINUOUS
 62
     7
  5
46E
 10
915080.611
 20
7280580.008
 30
0.0
 40
8.0
  1
100'
 50
358.0773
  7
ROMANS
 72
     1
 11
915094.204903
 21
7280587.556159
 31
0.0
210
0.0
220
0.0
230
1.0
 73
     3
  0
TEXT
  8
11
  6
CONTINUOUS
 62
     7
  5
46F
 10
915363.052
 20
7280570.526
 30
0.0
 40
8.0
  1
95'
 50
358.0773
  7
ROMANS
 72
     1
 11
915372.648155
 21
7280578.208363
 31
0.0
210
0.0
220
0.0
230
1.0
 73
     3
  0
TEXT
  8
11
  6
CONTINUOUS
 62
     7
  5
470
 10
913503.504
 20
7280632.951
 30
0.0
 40
8.0
  1
97.5'
 50
358.0773
  7
ROMANS
 72
     1
 11
913521.095651
 21
7280640.364954
 31
0.0
210
0.0
220
0.0
230
1.0
 73
     3
  0
TEXT
  8
11
  6
CONTINUOUS
 62
     7
  5
471
 10
913704.82
 20
7280626.193
 30
0.0
 40
8.0
  1
100'
 50
358.0773
  7
ROMANS
 72
     1
 11
913718.413903
 21
7280633.741159
 31
0.0
210
0.0
220
0.0
230
1.0
 73
     3
  0
TEXT
  8
11
  6
CONTINUOUS
 62
     7
  5
472
 10
913812.203
 20
7280622.588
 30
0.0
 40
8.0
  1
100'
 50
358.0773
  7
ROMANS
 72
     1
 11
913825.796903
 21
7280630.136159
 31
0.0
210
0.0
220
0.0
230
1.0
 73
     3
  0
TEXT
  8
11
  6
CONTINUOUS
 62
     7
  5
473
 10
913904.47
 20
7280428.383
 30
0.0
 40
8.0
  1
110'
 50
358.0773
  7
ROMANS
 72
     1
 11
913917.795494
 21
7280427.935663
 31
0.0
210
0.0
220
0.0
230
1.0
  0
TEXT
  8
11
  6
CONTINUOUS
 62
     7
  5
474
 10
915069.419
 20
7280164.149
 30
0.0
 40
8.0
  1
100'
 50
358.0773
  7
ROMANS
 72
     1
 11
915082.744494
 21
7280163.701663
 31
0.0
210
0.0
220
0.0
230
1.0
  0
TEXT
  8
11
  6
CONTINUOUS
 62
     7
  5
475
 10
915346.193
 20
7280154.858
 30
0.0
 40
8.0
  1
95'
 50
358.0773
  7
ROMANS
 72
     1
 11
915355.520746
 21
7280154.544867
 31
0.0
210
0.0
220
0.0
230
1.0
  0
TEXT
  8
11
  6
CONTINUOUS
 62
     7
  5
476
 10
915836.379
 20
7280138.402
 30
0.0
 40
8.0
  1
79.99'
 50
358.0773
  7
ROMANS
 72
     1
 11
915857.69999
 21
7280137.686253
 31
0.0
210
0.0
220
0.0
230
1.0
  0
TEXT
  8
11
  6
CONTINUOUS
 62
     7
  5
477
 10
913400.911
 20
7280897.542
 30
0.0
 40
8.0
  1
100.8'
 50
358.0773
  7
ROMANS
 72
     1
 11
913422.500399
 21
7280904.821749
 31
0.0
210
0.0
220
0.0
230
1.0
 73
     3
  0
TEXT
  8
11
  6
CONTINUOUS
 62
     7
  5
478
 10
913504.788
 20
7280702.948
 30
0.0
 40
8.0
  1
113.5'
 50
358.0773
  7
ROMANS
 72
     1
 11
913526.10899
 21
7280702.232253
 31
0.0
210
0.0
220
0.0
230
1.0
  0
TEXT
  8
11
  6
CONTINUOUS
 62
     7
  5
479
 10
913400.308
 20
7280706.455
 30
0.0
 40
8.0
  1
85.12'
 50
358.0773
  7
ROMANS
 72
     1
 11
913421.62899
 21
7280705.739253
 31
0.0
210
0.0
220
0.0
230
1.0
  0
TEXT
  8
11
  6
CONTINUOUS
 62
     7
  5
47A
 10
913617.201
 20
7280699.174
 30
0.0
 40
8.0
  1
100'
 50
358.0773
  7
ROMANS
 72
     1
 11
913630.526494
 21
7280698.726663
 31
0.0
210
0.0
220
0.0
230
1.0
  0
TEXT
  8
11
  6
CONTINUOUS
 62
     7
  5
47B
 10
913718.779
 20
7280695.764
 30
0.0
 40
8.0
  1
100'
 50
358.0773
  7
ROMANS
 72
     1
 11
913732.104494
 21
7280695.316663
 31
0.0
210
0.0
220
0.0
230
1.0
  0
TEXT
  8
11
  6
CONTINUOUS
 62
     7
  5
47C
 10
913814.552
 20
7280692.548
 30
0.0
 40
8.0
  1
100'
 50
358.0773
  7
ROMANS
 72
     1
 11
913827.877494
 21
7280692.100663
 31
0.0
210
0.0
220
0.0
230
1.0
  0
TEXT
  8
11
  6
CONTINUOUS
 62
     7
  5
47D
 10
913916.13
 20
7280689.138
 30
0.0
 40
8.0
  1
100'
 50
358.0773
  7
ROMANS
 72
     1
 11
913929.455494
 21
7280688.690663
 31
0.0
210
0.0
220
0.0
230
1.0
  0
TEXT
  8
11
  6
CONTINUOUS
 62
     7
  5
47E
 10
914119.285
 20
7280682.318
 30
0.0
 40
8.0
  1
110'
 50
358.0773
  7
ROMANS
 72
     1
 11
914132.610494
 21
7280681.870663
 31
0.0
210
0.0
220
0.0
230
1.0
  0
TEXT
  8
11
  6
CONTINUOUS
 62
     7
  5
47F
 10
914238.276
 20
7280678.324
 30
0.0
 40
8.0
  1
110'
 50
358.0773
  7
ROMANS
 72
     1
 11
914251.601494
 21
7280677.876663
 31
0.0
210
0.0
220
0.0
230
1.0
  0
TEXT
  8
11
  6
CONTINUOUS
 62
     7
  5
480
 10
914348.56
 20
7280674.622
 30
0.0
 40
8.0
  1
110'
 50
358.0773
  7
ROMANS
 72
     1
 11
914361.885494
 21
7280674.174663
 31
0.0
210
0.0
220
0.0
230
1.0
  0
TEXT
  8
11
  6
CONTINUOUS
 62
     7
  5
481
 10
914458.844
 20
7280670.919
 30
0.0
 40
8.0
  1
110'
 50
358.0773
  7
ROMANS
 72
     1
 11
914472.169494
 21
7280670.471663
 31
0.0
210
0.0
220
0.0
230
1.0
  0
TEXT
  8
11
  6
CONTINUOUS
 62
     7
  5
482
 10
914560.422
 20
7280667.51
 30
0.0
 40
8.0
  1
110'
 50
358.0773
  7
ROMANS
 72
     1
 11
914573.747494
 21
7280667.062663
 31
0.0
210
0.0
220
0.0
230
1.0
  0
TEXT
  8
11
  6
CONTINUOUS
 62
     7
  5
483
 10
914673.609
 20
7280663.71
 30
0.0
 40
8.0
  1
110'
 50
358.0773
  7
ROMANS
 72
     1
 11
914686.934494
 21
7280663.262663
 31
0.0
210
0.0
220
0.0
230
1.0
  0
TEXT
  8
11
  6
CONTINUOUS
 62
     7
  5
484
 10
914789.698
 20
7280659.813
 30
0.0
 40
8.0
  1
110'
 50
358.0773
  7
ROMANS
 72
     1
 11
914803.023494
 21
7280659.365663
 31
0.0
210
0.0
220
0.0
230
1.0
  0
TEXT
  8
11
  6
CONTINUOUS
 62
     7
  5
485
 10
914897.684
 20
7280847.295
 30
0.0
 40
8.0
  1
110'
 50
358.0773
  7
ROMANS
 72
     1
 11
914911.277903
 21
7280854.843159
 31
0.0
210
0.0
220
0.0
230
1.0
 73
     3
  0
TEXT
  8
11
  6
CONTINUOUS
 62
     7
  5
486
 10
915066.012
 20
7280841.644
 30
0.0
 40
8.0
  1
110'
 50
358.0773
  7
ROMANS
 72
     1
 11
915079.605903
 21
7280849.192159
 31
0.0
210
0.0
220
0.0
230
1.0
 73
     3
  0
TEXT
  8
11
  6
CONTINUOUS
 62
     7
  5
487
 10
915060.668
 20
7280650.716
 30
0.0
 40
8.0
  1
95'
 50
358.0773
  7
ROMANS
 72
     1
 11
915069.995746
 21
7280650.402867
 31
0.0
210
0.0
220
0.0
230
1.0
  0
TEXT
  8
11
  6
CONTINUOUS
 62
     7
  5
488
 10
915169.889
 20
7280647.049
 30
0.0
 40
8.0
  1
100'
 50
358.0773
  7
ROMANS
 72
     1
 11
915183.214494
 21
7280646.601663
 31
0.0
210
0.0
220
0.0
230
1.0
  0
TEXT
  8
11
  6
CONTINUOUS
 62
     7
  5
489
 10
915265.662
 20
7280643.835
 30
0.0
 40
8.0
  1
100'
 50
358.0773
  7
ROMANS
 72
     1
 11
915278.987494
 21
7280643.387663
 31
0.0
210
0.0
220
0.0
230
1.0
  0
TEXT
  8
11
  6
CONTINUOUS
 62
     7
  5
48A
 10
915367.24
 20
7280640.425
 30
0.0
 40
8.0
  1
100'
 50
358.0773
  7
ROMANS
 72
     1
 11
915380.565494
 21
7280639.977663
 31
0.0
210
0.0
220
0.0
230
1.0
  0
TEXT
  8
11
  6
CONTINUOUS
 62
     7
  5
48B
 10
915460.111
 20
7280637.307
 30
0.0
 40
8.0
  1
100'
 50
358.0773
  7
ROMANS
 72
     1
 11
915473.436494
 21
7280636.859663
 31
0.0
210
0.0
220
0.0
230
1.0
  0
TEXT
  8
11
  6
CONTINUOUS
 62
     7
  5
48C
 10
915570.396
 20
7280633.605
 30
0.0
 40
8.0
  1
100'
 50
358.0773
  7
ROMANS
 72
     1
 11
915583.721494
 21
7280633.157663
 31
0.0
210
0.0
220
0.0
230
1.0
  0
TEXT
  8
11
  6
CONTINUOUS
 62
     7
  5
48D
 10
915666.169
 20
7280630.389
 30
0.0
 40
8.0
  1
100'
 50
358.0773
  7
ROMANS
 72
     1
 11
915679.494494
 21
7280629.941663
 31
0.0
210
0.0
220
0.0
230
1.0
  0
TEXT
  8
11
  6
CONTINUOUS
 62
     7
  5
48E
 10
915764.844
 20
7280627.077
 30
0.0
 40
8.0
  1
100'
 50
358.0773
  7
ROMANS
 72
     1
 11
915778.169494
 21
7280626.629663
 31
0.0
210
0.0
220
0.0
230
1.0
  0
TEXT
  8
11
  6
CONTINUOUS
 62
     7
  5
48F
 10
915846.881
 20
7280624.323
 30
0.0
 40
8.0
  1
79.93'
 50
358.0773
  7
ROMANS
 72
     1
 11
915868.20199
 21
7280623.607253
 31
0.0
210
0.0
220
0.0
230
1.0
  0
TEXT
  8
11
  6
CONTINUOUS
 62
     7
  5
490
 10
914892.34
 20
7280656.367
 30
0.0
 40
8.0
  1
95'
 50
358.0773
  7
ROMANS
 72
     1
 11
914901.667746
 21
7280656.053867
 31
0.0
210
0.0
220
0.0
230
1.0
  0
TEXT
  8
11
  6
CONTINUOUS
 62
     7
  5
491
 10
913396.249
 20
7280931.717
 30
0.0
 40
8.0
  1
100.8'
 50
358.0773
  7
ROMANS
 72
     1
 11
913417.56999
 21
7280931.001253
 31
0.0
210
0.0
220
0.0
230
1.0
  0
TEXT
  8
11
  6
CONTINUOUS
 62
     7
  5
492
 10
914904.629
 20
7280881.081
 30
0.0
 40
8.0
  1
110'
 50
358.0773
  7
ROMANS
 72
     1
 11
914917.954494
 21
7280880.633663
 31
0.0
210
0.0
220
0.0
230
1.0
  0
TEXT
  8
11
  6
CONTINUOUS
 62
     7
  5
493
 10
915058.447
 20
7280875.918
 30
0.0
 40
8.0
  1
110'
 50
358.0773
  7
ROMANS
 72
     1
 11
915071.772494
 21
7280875.470663
 31
0.0
210
0.0
220
0.0
230
1.0
  0
TEXT
  8
11
  6
CONTINUOUS
 62
     7
  5
494
 10
913405.559
 20
7281122.513
 30
0.0
 40
8.0
  1
85.04'
 50
358.0773
  7
ROMANS
 72
     1
 11
913427.148399
 21
7281129.792749
 31
0.0
210
0.0
220
0.0
230
1.0
 73
     3
  0
TEXT
  8
11
  6
CONTINUOUS
 62
     7
  5
495
 10
913515.843
 20
7281118.81
 30
0.0
 40
8.0
  1
113.5'
 50
358.0773
  7
ROMANS
 72
     1
 11
913537.432399
 21
7281126.089749
 31
0.0
210
0.0
220
0.0
230
1.0
 73
     3
  0
TEXT
  8
11
  6
CONTINUOUS
 62
     7
  5
496
 10
913634.061
 20
7281114.842
 30
0.0
 40
8.0
  1
100'
 50
358.0773
  7
ROMANS
 72
     1
 11
913647.654903
 21
7281122.390159
 31
0.0
210
0.0
220
0.0
230
1.0
 73
     3
  0
TEXT
  8
11
  6
CONTINUOUS
 62
     7
  5
497
 10
913726.931
 20
7281111.724
 30
0.0
 40
8.0
  1
100'
 50
358.0773
  7
ROMANS
 72
     1
 11
913740.524903
 21
7281119.272159
 31
0.0
210
0.0
220
0.0
230
1.0
 73
     3
  0
TEXT
  8
11
  6
CONTINUOUS
 62
     7
  5
498
 10
913834.313
 20
7281108.119
 30
0.0
 40
8.0
  1
100'
 50
358.0773
  7
ROMANS
 72
     1
 11
913847.906903
 21
7281115.667159
 31
0.0
210
0.0
220
0.0
230
1.0
 73
     3
  0
TEXT
  8
11
  6
CONTINUOUS
 62
     7
  5
499
 10
913930.087
 20
7281104.904
 30
0.0
 40
8.0
  1
100'
 50
358.0773
  7
ROMANS
 72
     1
 11
913943.680903
 21
7281112.452159
 31
0.0
210
0.0
220
0.0
230
1.0
 73
     3
  0
TEXT
  8
11
  6
CONTINUOUS
 62
     7
  5
49A
 10
914031.665
 20
7281101.494
 30
0.0
 40
8.0
  1
100'
 50
358.0773
  7
ROMANS
 72
     1
 11
914045.258903
 21
7281109.042159
 31
0.0
210
0.0
220
0.0
230
1.0
 73
     3
  0
TEXT
  8
11
  6
CONTINUOUS
 62
     7
  5
49B
 10
914139.047
 20
7281097.889
 30
0.0
 40
8.0
  1
110'
 50
358.0773
  7
ROMANS
 72
     1
 11
914152.640903
 21
7281105.437159
 31
0.0
210
0.0
220
0.0
230
1.0
 73
     3
  0
TEXT
  8
11
  6
CONTINUOUS
 62
     7
  5
49C
 10
914246.428
 20
7281094.284
 30
0.0
 40
8.0
  1
110'
 50
358.0773
  7
ROMANS
 72
     1
 11
914260.021903
 21
7281101.832159
 31
0.0
210
0.0
220
0.0
230
1.0
 73
     3
  0
TEXT
  8
11
  6
CONTINUOUS
 62
     7
  5
49D
 10
914353.811
 20
7281090.68
 30
0.0
 40
8.0
  1
110'
 50
358.0773
  7
ROMANS
 72
     1
 11
914367.404903
 21
7281098.228159
 31
0.0
210
0.0
220
0.0
230
1.0
 73
     3
  0
TEXT
  8
11
  6
CONTINUOUS
 62
     7
  5
49E
 10
914475.704
 20
7281086.587
 30
0.0
 40
8.0
  1
110'
 50
358.0773
  7
ROMANS
 72
     1
 11
914489.297903
 21
7281094.135159
 31
0.0
210
0.0
220
0.0
230
1.0
 73
     3
  0
TEXT
  8
11
  6
CONTINUOUS
 62
     7
  5
49F
 10
914580.185
 20
7281083.08
 30
0.0
 40
8.0
  1
110'
 50
358.0773
  7
ROMANS
 72
     1
 11
914593.778903
 21
7281090.628159
 31
0.0
210
0.0
220
0.0
230
1.0
 73
     3
  0
TEXT
  8
11
  6
CONTINUOUS
 62
     7
  5
4A0
 10
914687.566
 20
7281079.475
 30
0.0
 40
8.0
  1
110'
 50
358.0773
  7
ROMANS
 72
     1
 11
914701.159903
 21
7281087.023159
 31
0.0
210
0.0
220
0.0
230
1.0
 73
     3
  0
TEXT
  8
11
  6
CONTINUOUS
 62
     7
  5
4A1
 10
914800.753
 20
7281075.676
 30
0.0
 40
8.0
  1
110'
 50
358.0773
  7
ROMANS
 72
     1
 11
914814.346903
 21
7281083.224159
 31
0.0
210
0.0
220
0.0
230
1.0
 73
     3
  0
TEXT
  8
11
  6
CONTINUOUS
 62
     7
  5
4A2
 10
914909.199
 20
7281072.036
 30
0.0
 40
8.0
  1
95'
 50
358.0773
  7
ROMANS
 72
     1
 11
914918.795155
 21
7281079.718363
 31
0.0
210
0.0
220
0.0
230
1.0
 73
     3
  0
TEXT
  8
11
  6
CONTINUOUS
 62
     7
  5
4A3
 10
915074.625
 20
7281066.482
 30
0.0
 40
8.0
  1
95'
 50
358.0773
  7
ROMANS
 72
     1
 11
915084.221155
 21
7281074.164363
 31
0.0
210
0.0
220
0.0
230
1.0
 73
     3
  0
TEXT
  8
11
  6
CONTINUOUS
 62
     7
  5
4A4
 10
915863.741
 20
7281039.991
 30
0.0
 40
8.0
  1
79.88'
 50
358.0773
  7
ROMANS
 72
     1
 11
915885.330399
 21
7281047.270749
 31
0.0
210
0.0
220
0.0
230
1.0
 73
     3
  0
TEXT
  8
11
  6
CONTINUOUS
 62
     7
  5
4A5
 10
915175.14
 20
7281063.108
 30
0.0
 40
8.0
  1
100'
 50
358.0773
  7
ROMANS
 72
     1
 11
915188.733903
 21
7281070.656159
 31
0.0
210
0.0
220
0.0
230
1.0
 73
     3
  0
TEXT
  8
11
  6
CONTINUOUS
 62
     7
  5
4A6
 10
915273.815
 20
7281059.795
 30
0.0
 40
8.0
  1
100'
 50
358.0773
  7
ROMANS
 72
     1
 11
915287.408903
 21
7281067.343159
 31
0.0
210
0.0
220
0.0
230
1.0
 73
     3
  0
TEXT
  8
11
  6
CONTINUOUS
 62
     7
  5
4A7
 10
915372.491
 20
7281056.482
 30
0.0
 40
8.0
  1
100'
 50
358.0773
  7
ROMANS
 72
     1
 11
915386.084903
 21
7281064.030159
 31
0.0
210
0.0
220
0.0
230
1.0
 73
     3
  0
TEXT
  8
11
  6
CONTINUOUS
 62
     7
  5
4A8
 10
915479.873
 20
7281052.878
 30
0.0
 40
8.0
  1
100'
 50
358.0773
  7
ROMANS
 72
     1
 11
915493.466903
 21
7281060.426159
 31
0.0
210
0.0
220
0.0
230
1.0
 73
     3
  0
TEXT
  8
11
  6
CONTINUOUS
 62
     7
  5
4A9
 10
915578.548
 20
7281049.565
 30
0.0
 40
8.0
  1
100'
 50
358.0773
  7
ROMANS
 72
     1
 11
915592.141903
 21
7281057.113159
 31
0.0
210
0.0
220
0.0
230
1.0
 73
     3
  0
TEXT
  8
11
  6
CONTINUOUS
 62
     7
  5
4AA
 10
915674.321
 20
7281046.351
 30
0.0
 40
8.0
  1
100'
 50
358.0773
  7
ROMANS
 72
     1
 11
915687.914903
 21
7281053.899159
 31
0.0
210
0.0
220
0.0
230
1.0
 73
     3
  0
TEXT
  8
11
  6
CONTINUOUS
 62
     7
  5
4AB
 10
915781.704
 20
7281042.746
 30
0.0
 40
8.0
  1
100'
 50
358.0773
  7
ROMANS
 72
     1
 11
915795.297903
 21
7281050.294159
 31
0.0
210
0.0
220
0.0
230
1.0
 73
     3
  0
TEXT
  8
19
  6
CONTINUOUS
 62
     1
  5
4AE
 10
914480.111
 20
7279639.188
 30
0.0
 40
24.0
  1
4TH ST
 50
358.0773
  7
ROMANC
 72
     4
 11
914557.096473
 21
7279648.610354
 31
0.0
210
0.0
220
0.0
230
1.0
  0
TEXT
  8
19
  6
CONTINUOUS
 62
     1
  5
4AF
 10
911746.752
 20
7279730.947
 30
0.0
 40
24.0
  1
4TH ST
 50
358.0773
  7
ROMANC
 72
     4
 11
911823.737473
 21
7279740.369354
 31
0.0
210
0.0
220
0.0
230
1.0
  0
TEXT
  8
19
  6
CONTINUOUS
 62
     1
  5
4B0
 10
915941.218
 20
7280145.223
 30
0.0
 40
24.0
  1
MILWAUKEE    AVE
 50
88.0773
  7
ROMANC
 72
     4
 11
915936.369943
 21
7280358.469715
 31
0.0
210
0.0
220
0.0
230
1.0
  0
TEXT
  8
19
  6
CONTINUOUS
 62
     1
  5
4B1
 10
916033.387
 20
7282890.796
 30
0.0
 40
24.0
  1
MILWAUKEE    AVE
 50
88.0773
  7
ROMANC
 72
     4
 11
916028.538943
 21
7283104.042715
 31
0.0
210
0.0
220
0.0
230
1.0
  0
TEXT
  8
19
  6
CONTINUOUS
 62
     1
  5
4B2
 10
915406.415
 20
7284842.517
 30
0.0
 40
24.0
  1
ERSKINE ST
 50
358.0773
  7
ROMANC
 72
     4
 11
915529.292622
 21
7284850.398752
 31
0.0
210
0.0
220
0.0
230
1.0
  0
TEXT
  8
19
  6
CONTINUOUS
 62
     1
  5
4B3
 10
913002.495
 20
7284923.217
 30
0.0
 40
24.0
  1
ERSKINE ST
 50
358.0773
  7
ROMANC
 72
     4
 11
913125.372622
 21
7284931.098752
 31
0.0
210
0.0
220
0.0
230
1.0
  0
TEXT
  8
19
  6
CONTINUOUS
 62
     1
  5
4B4
 10
910897.317
 20
7284993.888
 30
0.0
 40
24.0
  1
ERSKINE ST
 50
358.0773
  7
ROMANC
 72
     4
 11
911020.194622
 21
7285001.769752
 31
0.0
210
0.0
220
0.0
230
1.0
  0
TEXT
  8
19
  6
CONTINUOUS
 62
     1
  5
4B5
 10
910690.049
 20
7279816.423
 30
0.0
 40
24.0
  1
UPLAND AVE
 50
88.0773
  7
ROMANC
 72
     4
 11
910682.582477
 21
7279951.669654
 31
0.0
210
0.0
220
0.0
230
1.0
  0
TEXT
  8
19
  6
CONTINUOUS
 62
     1
  5
4B6
 10
910765.717
 20
7282070.454
 30
0.0
 40
24.0
  1
UPLAND AVE
 50
88.0773
  7
ROMANC
 72
     4
 11
910758.250477
 21
7282205.700654
 31
0.0
210
0.0
220
0.0
230
1.0
  0
TEXT
  8
19
  6
CONTINUOUS
 62
     1
  5
4B7
 10
910844.589
 20
7284419.964
 30
0.0
 40
24.0
  1
UPLAND AVE
 50
88.0773
  7
ROMANC
 72
     4
 11
910837.122477
 21
7284555.210654
 31
0.0
210
0.0
220
0.0
230
1.0
  0
TEXT
  8
19
  6
CONTINUOUS
 62
     1
  5
4B8
 10
913327.361
 20
7280191.954
 30
0.0
 40
24.0
  1
QUINCY AVE
 50
88.0773
  7
ROMANC
 72
     4
 11
913319.742356
 21
7280322.669207
 31
0.0
210
0.0
220
0.0
230
1.0
  0
TEXT
  8
19
  6
CONTINUOUS
 62
     1
  5
4B9
 10
913385.42
 20
7281771.099
 30
0.0
 40
24.0
  1
QUINCY AVE
 50
88.0773
  7
ROMANC
 72
     4
 11
913377.801356
 21
7281901.814207
 31
0.0
210
0.0
220
0.0
230
1.0
  0
TEXT
  8
19
  6
CONTINUOUS
 62
     1
  5
4BA
 10
914050.389
 20
7281477.78
 30
0.0
 40
24.0
  1
PONTIAC AVE
 50
88.0773
  7
ROMANC
 72
     4
 11
914043.036618
 21
7281616.426739
 31
0.0
210
0.0
220
0.0
230
1.0
  0
TEXT
  8
19
  6
CONTINUOUS
 62
     1
  5
4BB
 10
914008.551
 20
7280231.477
 30
0.0
 40
24.0
  1
PONTIAC AVE
 50
88.0773
  7
ROMANC
 72
     4
 11
914001.198618
 21
7280370.123739
 31
0.0
210
0.0
220
0.0
230
1.0
  0
TEXT
  8
19
  6
CONTINUOUS
 62
     1
  5
4BC
 10
914729.742
 20
7281565.206
 30
0.0
 40
24.0
  1
OAK RIDGE AVE
 50
88.0773
  7
ROMANC
 72
     4
 11
914723.442117
 21
7281735.205077
 31
0.0
210
0.0
220
0.0
230
1.0
  0
TEXT
  8
19
  6
CONTINUOUS
 62
     1
  5
4BD
 10
914998.099
 20
7280687.354
 30
0.0
 40
24.0
  1
OAK RIDGE AVE
 50
88.0773
  7
ROMANC
 72
     4
 11
914991.799117
 21
7280857.353077
 31
0.0
210
0.0
220
0.0
230
1.0
  0
TEXT
  8
19
  6
CONTINUOUS
 62
     1
  5
4BE
 10
914924.563
 20
7279699.745
 30
0.0
 40
24.0
  1
OAK RIDGE AVE
 50
88.0773
  7
ROMANC
 72
     4
 11
914918.263117
 21
7279869.744077
 31
0.0
210
0.0
220
0.0
230
1.0
  0
TEXT
  8
19
  6
CONTINUOUS
 62
     1
  5
4BF
 10
913468.864
 20
7282280.378
 30
0.0
 40
24.0
  1
AUBURN ST
 50
358.0773
  7
ROMANC
 72
     4
 11
913591.079994
 21
7282288.281963
 31
0.0
210
0.0
220
0.0
230
1.0
  0
TEXT
  8
19
  6
CONTINUOUS
 62
     1
  5
4C0
 10
914815.137
 20
7282235.184
 30
0.0
 40
24.0
  1
AUBURN ST
 50
358.0773
  7
ROMANC
 72
     4
 11
914937.352994
 21
7282243.087963
 31
0.0
210
0.0
220
0.0
230
1.0
  0
TEXT
  8
19
  6
CONTINUOUS
 62
     1
  5
4C1
 10
914293.036
 20
7281116.143
 30
0.0
 40
24.0
  1
1ST ST
 50
358.0773
  7
ROMANC
 72
     4
 11
914359.727272
 21
7281125.910931
 31
0.0
210
0.0
220
0.0
230
1.0
  0
TEXT
  8
19
  6
CONTINUOUS
 62
     1
  5
4C2
 10
915619.141
 20
7281071.626
 30
0.0
 40
24.0
  1
1ST ST
 50
358.0773
  7
ROMANC
 72
     4
 11
915685.832272
 21
7281081.393931
 31
0.0
210
0.0
220
0.0
230
1.0
  0
TEXT
  8
19
  6
CONTINUOUS
 62
     1
  5
4C3
 10
915579.819
 20
7280103.074
 30
0.0
 40
24.0
  1
3RD ST
 50
358.0773
  7
ROMANC
 72
     4
 11
915653.404389
 21
7280112.610495
 31
0.0
210
0.0
220
0.0
230
1.0
  0
TEXT
  8
19
  6
CONTINUOUS
 62
     1
  5
4C4
 10
914258.757
 20
7280147.422
 30
0.0
 40
24.0
  1
3RD ST
 50
358.0773
  7
ROMANC
 72
     4
 11
914332.342389
 21
7280156.958495
 31
0.0
210
0.0
220
0.0
230
1.0
  0
TEXT
  8
19
  6
CONTINUOUS
 62
     1
  5
4C5
 10
913578.058
 20
7280655.209
 30
0.0
 40
24.0
  1
2ND ST
 50
358.0773
  7
ROMANC
 72
     4
 11
913652.77675
 21
7280664.707448
 31
0.0
210
0.0
220
0.0
230
1.0
  0
TEXT
  8
19
  6
CONTINUOUS
 62
     1
  5
4C6
 10
915090.724
 20
7280604.429
 30
0.0
 40
24.0
  1
2ND ST
 50
358.0773
  7
ROMANC
 72
     4
 11
915165.44275
 21
7280613.927448
 31
0.0
210
0.0
220
0.0
230
1.0
  0
TEXT
  8
15
  6
CONTINUOUS
 62
    30
  5
4C8
 10
913533.751
 20
7281775.293
 30
0.0
 40
50.0
  1
TERRA
 50
28.0773
  7
ROMANC
 72
     4
 11
913637.650435
 21
7281859.051846
 31
0.0
210
0.0
220
0.0
230
1.0
  0
TEXT
  8
15
  6
CONTINUOUS
 62
    30
  5
4C9
 10
913499.255
 20
7280747.723
 30
0.0
 40
50.0
  1
TERRA
 50
28.0773
  7
ROMANC
 72
     4
 11
913603.154435
 21
7280831.481846
 31
0.0
210
0.0
220
0.0
230
1.0
  0
TEXT
  8
15
  6
CONTINUOUS
 62
    30
  5
4CA
 10
914157.488
 20
7281440.755
 30
0.0
 40
50.0
  1
ESTATES
 50
28.0773
  7
ROMANC
 72
     4
 11
914302.02679
 21
7281546.192554
 31
0.0
210
0.0
220
0.0
230
1.0
  0
TEXT
  8
15
  6
CONTINUOUS
 62
    30
  5
4CB
 10
914430.217
 20
7280214.401
 30
0.0
 40
50.0
  1
ESTATES
 50
28.0773
  7
ROMANC
 72
     4
 11
914574.75579
 21
7280319.838554
 31
0.0
210
0.0
220
0.0
230
1.0
  0
TEXT
  8
15
  6
CONTINUOUS
 62
    30
  5
4CC
 10
915462.761
 20
7281386.205
 30
0.0
 40
50.0
  1
NORTH
 50
28.0773
  7
ROMANC
 72
     4
 11
915570.828483
 21
7281472.187255
 31
0.0
210
0.0
220
0.0
230
1.0
  0
TEXT
  8
15
  6
CONTINUOUS
 62
    30
  5
4CD
 10
915296.931
 20
7279719.106
 30
0.0
 40
50.0
  1
NORTH
 50
28.0773
  7
ROMANC
 72
     4
 11
915404.998483
 21
7279805.088255
 31
0.0
210
0.0
220
0.0
230
1.0
  0
TEXT
  8
19
  6
CONTINUOUS
 62
     1
  5
4CE
 10
915279.765
 20
7280205.929
 30
0.0
 40
24.0
  1
NORWICH AVE
 50
88.0773
  7
ROMANC
 72
     4
 11
915272.685254
 21
7280352.697164
 31
0.0
210
0.0
220
0.0
230
1.0
  0
TEXT
  8
11
  6
CONTINUOUS
 62
     7
  5
4CF
 10
914008.327
 20
7279687.191
 30
0.0
 40
8.0
  1
85'
 50
358.0773
  7
ROMANS
 72
     1
 11
914017.654746
 21
7279686.877867
 31
0.0
210
0.0
220
0.0
230
1.0
  0
TEXT
  8
11
  6
CONTINUOUS
 62
     7
  5
4D0
 10
914323.442
 20
7279677.903
 30
0.0
 40
8.0
  1
80'
 50
358.0773
  7
ROMANS
 72
     1
 11
914332.769746
 21
7279677.589867
 31
0.0
210
0.0
220
0.0
230
1.0
  0
LINE
  8
21
  6
DASHDOT
 62
     7
  5
4D2
 10
915941.501
 20
7279625.586
 30
0.0
 11
910664.473
 21
7279802.736
 31
0.0
  0
LINE
  8
21
  6
DASHDOT
 62
     7
  5
4D3
 10
915941.165
 20
7279615.591
 30
0.0
 11
910664.137
 21
7279792.742
 31
0.0
  0
TEXT
  8
22
  6
CONTINUOUS
 62
     3
  5
4D5
 10
910974.596
 20
7279798.329
 30
0.0
 40
8.0
  1
10' TELEPHONE LINE EASEMENT
 50
358.0773
  7
ROMANS
 72
     1
 11
911081.201947
 21
7279794.750233
 31
0.0
210
0.0
220
0.0
230
1.0
  0
TEXT
  8
22
  6
CONTINUOUS
 62
     3
  5
4D6
 10
912842.525
 20
7279735.623
 30
0.0
 40
8.0
  1
10' TELEPHONE LINE EASEMENT
 50
358.0773
  7
ROMANS
 72
     1
 11
912949.130947
 21
7279732.044233
 31
0.0
210
0.0
220
0.0
230
1.0
  0
INSERT
  8
22
  6
CONTINUOUS
 62
     3
  5
4E4
  2
*D0
 10
913474.696
 20
7279711.588
 30
0.0
 70
     0
 71
     0
  0
INSERT
  8
22
  6
CONTINUOUS
 62
     3
  5
4F0
  2
*D1
 10
915717.101
 20
7279636.361
 30
0.0
 70
     0
 71
     0
  0
POLYLINE
  8
1
  6
HIDDEN
 62
   253
  5
4F2
 66
     1
 10
0.0
 20
0.0
 30
0.0
 70
     1
  0
VERTEX
  8
1
  6
HIDDEN
 62
   253
  5
4F3
 10
915948.628
 20
7279591.68
 30
0.0
  0
VERTEX
  8
1
  6
HIDDEN
 62
   253
  5
4F4
 10
910657.187
 20
7279748.899
 30
0.0
  0
VERTEX
  8
1
  6
HIDDEN
 62
   253
  5
4F5
 10
910827.848
 20
7285055.38
 30
0.0
  0
VERTEX
  8
1
  6
HIDDEN
 62
   253
  5
4F6
 10
916116.049
 20
7284894.884
 30
0.0
  0
SEQEND
  8
1
  6
HIDDEN
 62
   253
  5
4F7
  0
LINE
  8
58
  6
DIVIDE
 62
   216
  5
4F9
 10
910690.227
 20
7280385.139
 30
0.0
 11
913327.981
 21
7280296.589
 31
0.0
  0
POLYLINE
  8
58
  6
DIVIDE
 62
   216
  5
4FA
 66
     1
 10
0.0
 20
0.0
 30
0.0
  0
VERTEX
  8
58
  6
DIVIDE
 62
   216
  5
4FB
 10
913328.679
 20
7280294.738
 30
0.0
  0
VERTEX
  8
58
  6
DIVIDE
 62
   216
  5
4FC
 10
913316.768
 20
7279939.938
 30
0.0
  0
VERTEX
  8
58
  6
DIVIDE
 62
   216
  5
4FD
 10
915806.076
 20
7279856.372
 30
0.0
  0
VERTEX
  8
58
  6
DIVIDE
 62
   216
  5
4FE
 10
915975.361
 20
7284899.154
 30
0.0
  0
SEQEND
  8
58
  6
DIVIDE
 62
   216
  5
4FF
  0
ENDSEC
  0
EOF
