  0
SECTION
  2
HEADER
  9
$ACADVER
  1
AC1009
  9
$INSBASE
 10
0.0
 20
0.0
 30
0.0
  9
$EXTMIN
 10
910128.541
 20
7263743.983
 30
0.0
  9
$EXTMAX
 10
915615.314
 20
7269205.595
 30
0.0
  9
$LIMMIN
 10
0.0
 20
0.0
  9
$LIMMAX
 10
12.0
 20
9.0
  9
$ORTHOMODE
 70
     0
  9
$REGENMODE
 70
     1
  9
$FILLMODE
 70
     1
  9
$QTEXTMODE
 70
     0
  9
$MIRRTEXT
 70
     1
  9
$DRAGMODE
 70
     2
  9
$LTSCALE
 40
1.0
  9
$OSMODE
 70
     0
  9
$ATTMODE
 70
     1
  9
$TEXTSIZE
 40
0.2
  9
$TRACEWID
 40
0.05
  9
$TEXTSTYLE
  7
STANDARD
  9
$CLAYER
  8
0
  9
$CELTYPE
  6
CONTINUOUS
  9
$CECOLOR
 62
   256
  9
$DIMSCALE
 40
1.0
  9
$DIMASZ
 40
0.18
  9
$DIMEXO
 40
0.0625
  9
$DIMDLI
 40
0.38
  9
$DIMRND
 40
0.0
  9
$DIMDLE
 40
0.0
  9
$DIMEXE
 40
0.18
  9
$DIMTP
 40
0.0
  9
$DIMTM
 40
0.0
  9
$DIMTXT
 40
0.18
  9
$DIMCEN
 40
0.09
  9
$DIMTSZ
 40
0.0
  9
$DIMTOL
 70
     0
  9
$DIMLIM
 70
     0
  9
$DIMTIH
 70
     1
  9
$DIMTOH
 70
     1
  9
$DIMSE1
 70
     0
  9
$DIMSE2
 70
     0
  9
$DIMTAD
 70
     0
  9
$DIMZIN
 70
     0
  9
$DIMBLK
  1

  9
$DIMASO
 70
     1
  9
$DIMSHO
 70
     1
  9
$DIMPOST
  1

  9
$DIMAPOST
  1

  9
$DIMALT
 70
     0
  9
$DIMALTD
 70
     2
  9
$DIMALTF
 40
25.4
  9
$DIMLFAC
 40
1.0
  9
$DIMTOFL
 70
     0
  9
$DIMTVP
 40
0.0
  9
$DIMTIX
 70
     0
  9
$DIMSOXD
 70
     0
  9
$DIMSAH
 70
     0
  9
$DIMBLK1
  1

  9
$DIMBLK2
  1

  9
$DIMSTYLE
  2
STANDARD
  9
$DIMCLRD
 70
     0
  9
$DIMCLRE
 70
     0
  9
$DIMCLRT
 70
     0
  9
$DIMTFAC
 40
1.0
  9
$DIMGAP
 40
0.09
  9
$LUNITS
 70
     2
  9
$LUPREC
 70
     4
  9
$AXISMODE
 70
     0
  9
$AXISUNIT
 10
0.0
 20
0.0
  9
$SKETCHINC
 40
0.1
  9
$FILLETRAD
 40
0.0
  9
$AUNITS
 70
     0
  9
$AUPREC
 70
     0
  9
$MENU
  1
acad
  9
$ELEVATION
 40
0.0
  9
$PELEVATION
 40
0.0
  9
$THICKNESS
 40
0.0
  9
$LIMCHECK
 70
     0
  9
$BLIPMODE
 70
     1
  9
$CHAMFERA
 40
0.0
  9
$CHAMFERB
 40
0.0
  9
$SKPOLY
 70
     0
  9
$TDCREATE
 40
2453013.902881945
  9
$TDUPDATE
 40
2453013.902881945
  9
$TDINDWG
 40
0.0000000000
  9
$TDUSRTIMER
 40
0.0000000000
  9
$USRTIMER
 70
     1
  9
$ANGBASE
 50
0.0
  9
$ANGDIR
 70
     0
  9
$PDMODE
 70
     0
  9
$PDSIZE
 40
0.0
  9
$PLINEWID
 40
0.0
  9
$COORDS
 70
     0
  9
$SPLFRAME
 70
     0
  9
$SPLINETYPE
 70
     6
  9
$SPLINESEGS
 70
    10
  9
$ATTDIA
 70
     0
  9
$ATTREQ
 70
     1
  9
$HANDLING
 70
     1
  9
$HANDSEED
  5
AA
  9
$SURFTAB1
 70
     6
  9
$SURFTAB2
 70
     6
  9
$SURFTYPE
 70
     6
  9
$SURFU
 70
     6
  9
$SURFV
 70
     6
  9
$UCSNAME
  2

  9
$UCSORG
 10
0.0
 20
0.0
 30
0.0
  9
$UCSXDIR
 10
1.0
 20
0.0
 30
0.0
  9
$UCSYDIR
 10
0.0
 20
1.0
 30
0.0
  9
$PUCSNAME
  2

  9
$PUCSORG
 10
0.0
 20
0.0
 30
0.0
  9
$PUCSXDIR
 10
1.0
 20
0.0
 30
0.0
  9
$PUCSYDIR
 10
0.0
 20
1.0
 30
0.0
  9
$USERI1
 70
     0
  9
$USERI2
 70
     0
  9
$USERI3
 70
     0
  9
$USERI4
 70
     0
  9
$USERI5
 70
     0
  9
$USERR1
 40
0.0
  9
$USERR2
 40
0.0
  9
$USERR3
 40
0.0
  9
$USERR4
 40
0.0
  9
$USERR5
 40
0.0
  9
$WORLDVIEW
 70
     1
  9
$SHADEDGE
 70
     3
  9
$SHADEDIF
 70
    70
  9
$TILEMODE
 70
     1
  9
$MAXACTVP
 70
    16
  9
$PINSBASE
 10
0.0
 20
0.0
 30
0.0
  9
$PLIMCHECK
 70
     0
  9
$PEXTMIN
 10
-1.000000E+20
 20
-1.000000E+20
 30
-1.000000E+20
  9
$PEXTMAX
 10
-1.000000E+20
 20
-1.000000E+20
 30
-1.000000E+20
  9
$PLIMMIN
 10
0.0
 20
0.0
  9
$PLIMMAX
 10
12.0
 20
9.0
  9
$UNITMODE
 70
     0
  9
$VISRETAIN
 70
     0
  9
$PLINEGEN
 70
     1
  9
$PSLTSCALE
 70
     0
  9
$TREEDEPTH
 70
  3020
  9
$DWGCODEPAGE
  3
ansi_1252
  0
ENDSEC
  0
SECTION
  2
TABLES
  0
TABLE
  2
VPORT
 70
     1
  0
VPORT
  2
*ACTIVE
 70
     0
 10
0.0
 20
0.0
 11
1.0
 21
1.0
 12
0.0
 22
0.0
 13
0.0
 23
0.0
 14
0.0
 24
0.0
 15
0.0
 25
0.0
 16
0.0
 26
0.0
 36
1.0
 17
912328.926144
 27
7266563.674
 37
0.0
 40
5775.922
 41
1.188011
 42
50.0
 43
0.004
 44
0.0
 50
0.0
 51
0.0
 71
     0
 72
   100
 73
     1
 74
     0
 75
     0
 76
     0
 77
     0
 78
     0
  0
ENDTAB
  0
TABLE
  2
LTYPE
 70
     7
  0
LTYPE
  2
CONTINUOUS
 70
     0
  3
Solid line
 72
    65
 73
     0
 40
0.0
  0
LTYPE
  2
DOT
 70
    64
  3
. . . . . . . . . . . . . . . . . . . . . . . . . . . . . . . . .
 72
    65
 73
     2
 40
0.25
 49
0.0
 49
-0.25
  0
LTYPE
  2
HIDDEN
 70
    64
  3
__ __ __ __ __ __ __ __ __ __ __ __ __ __ __ __ __ __ __ __ __ 
 72
    65
 73
     2
 40
0.375
 49
0.25
 49
-0.125
  0
LTYPE
  2
DASHED
 70
    64
  3
__ __ __ __ __ __ __ __ __ __ __ __ __ __ __ __ __ __ __ __ __
 72
    65
 73
     2
 40
0.75
 49
0.5
 49
-0.25
  0
LTYPE
  2
DASHDOT
 70
    64
  3
__ . __ . __ . __ . __ . __ . __ . __ . __ . __ . __ . __ . _
 72
    65
 73
     4
 40
1.0
 49
0.5
 49
-0.25
 49
0.0
 49
-0.25
  0
LTYPE
  2
DIVIDE
 70
    64
  3
____ . . ____ . . ____ . . ____ . . ____ . . ____ . . ____ . .
 72
    65
 73
     6
 40
1.25
 49
0.5
 49
-0.25
 49
0.0
 49
-0.25
 49
0.0
 49
-0.25
  0
LTYPE
  2
CENTER
 70
    64
  3
____ _ ____ _ ____ _ ____ _ ____ _ ____ _ ____ _ ____ _ ____ _
 72
    65
 73
     4
 40
2.0
 49
1.25
 49
-0.25
 49
0.25
 49
-0.25
  0
ENDTAB
  0
TABLE
  2
LAYER
 70
    14
  0
LAYER
  2
0
 70
     0
 62
     7
  6
CONTINUOUS
  0
LAYER
  2
CONSTRUCTION_CLASS
 70
     1
 62
     7
  6
CONTINUOUS
  0
LAYER
  2
PATTERN_CLASS
 70
     0
 62
     7
  6
CONTINUOUS
  0
LAYER
  2
6
 70
    64
 62
     7
  6
CONTINUOUS
  0
LAYER
  2
27
 70
    64
 62
     7
  6
CONTINUOUS
  0
LAYER
  2
11
 70
    64
 62
     7
  6
CONTINUOUS
  0
LAYER
  2
DEFPOINTS
 70
    64
 62
     7
  6
CONTINUOUS
  0
LAYER
  2
1
 70
    64
 62
     7
  6
CONTINUOUS
  0
LAYER
  2
19
 70
    64
 62
     7
  6
CONTINUOUS
  0
LAYER
  2
22
 70
    64
 62
     7
  6
CONTINUOUS
  0
LAYER
  2
21
 70
    64
 62
     7
  6
CONTINUOUS
  0
LAYER
  2
13
 70
    64
 62
     7
  6
CONTINUOUS
  0
LAYER
  2
10
 70
    64
 62
     7
  6
CONTINUOUS
  0
LAYER
  2
28
 70
    64
 62
     7
  6
CONTINUOUS
  0
ENDTAB
  0
TABLE
  2
STYLE
 70
     4
  0
STYLE
  2
STANDARD
 70
     0
 40
0.0
 41
1.0
 50
0.0
 71
     0
 42
0.0
  3
txt
  4

  0
STYLE
  2
ROMANS
 70
     0
 40
0.2
 41
1.0
 50
0.0
 71
     0
 42
0.2
  3
ROMANS
  4

  0
STYLE
  2
MONOTXT
 70
     0
 40
0.2
 41
1.0
 50
0.0
 71
     0
 42
0.2
  3
MONOTXT
  4

  0
STYLE
  2
ROMANC
 70
     0
 40
0.2
 41
1.0
 50
0.0
 71
     0
 42
0.2
  3
ROMANC
  4

  0
ENDTAB
  0
TABLE
  2
VIEW
 70
     0
  0
ENDTAB
  0
TABLE
  2
UCS
 70
     0
  0
ENDTAB
  0
TABLE
  2
APPID
 70
     1
  0
APPID
  2
ACAD
 70
     0
  0
ENDTAB
  0
TABLE
  2
DIMSTYLE
 70
     2
  0
DIMSTYLE
  2
STANDARD
 70
     0
  3

  4

  5

  6

  7

 40
1.0
 41
0.18
 42
0.0625
 43
0.38
 44
0.18
 45
0.0
 46
0.0
 47
0.0
 48
0.0
140
0.18
141
0.09
142
0.0
143
25.4
144
1.0
145
0.0
146
1.0
147
0.09
 71
     0
 72
     0
 73
     1
 74
     1
 75
     0
 76
     0
 77
     0
 78
     0
170
     0
171
     2
172
     0
173
     0
174
     0
175
     0
176
     0
177
     0
178
     0
  0
DIMSTYLE
  2
MSADIM
 70
     0
  3

  4

  5

  6

  7

 40
1.0
 41
10.0
 42
5.0
 43
0.0
 44
5.0
 45
0.0
 46
0.0
 47
0.0
 48
0.0
140
10.0
141
5.0
142
0.0
143
25.4
144
1.0
145
5.0
146
1.0
147
5.0
 71
     0
 72
     0
 73
     1
 74
     1
 75
     1
 76
     1
 77
     0
 78
     2
170
     0
171
     2
172
     0
173
     0
174
     0
175
     0
176
     0
177
     0
178
     0
  0
ENDTAB
  0
ENDSEC
  0
SECTION
  2
BLOCKS
  0
BLOCK
  8
11
  6
CONTINUOUS
 62
     7
  5
39
  2
*D0
 70
     1
 10
0.0
 20
0.0
 30
0.0
  3
*N0
  0
TEXT
  8
11
  6
CONTINUOUS
 62
     7
  5
3A
 10
912951.832
 20
7266873.063
 30
0.0
 40
10.0
  1
S72%%d06'39"E
 50
340.225211
  7
MONOTXT
 72
     1
 11
913001.293701
 21
7266865.90693
 31
0.0
210
0.0
220
0.0
230
1.0
 73
     3
  0
TEXT
  8
11
  6
CONTINUOUS
 62
     7
  5
3B
 10
912972.409
 20
7266886.918
 30
0.0
 40
10.0
  1
5506.22'
 50
340.225211
  7
MONOTXT
 72
     1
 11
913004.676909
 21
7266875.316874
 31
0.0
210
0.0
220
0.0
230
1.0
  0
ENDBLK
  8
11
  6
CONTINUOUS
 62
     7
  5
3C
  0
ENDSEC
  0
SECTION
  2
ENTITIES
  0
LINE
  8
6
  6
CONTINUOUS
 62
     7
  5
29
 10
910369.536
 20
7269123.034
 30
0.0
 11
915609.711
 21
7268939.514
 31
0.0
  0
LINE
  8
27
  6
CONTINUOUS
 62
    32
  5
2B
 10
915492.712
 20
7265922.722
 30
0.0
 11
910271.499
 21
7267795.368
 31
0.0
  0
LINE
  8
6
  6
CONTINUOUS
 62
     7
  5
2C
 10
910369.536
 20
7269123.034
 30
0.0
 11
910312.782
 21
7267833.689
 31
0.0
  0
LINE
  8
6
  6
CONTINUOUS
 62
     7
  5
2D
 10
910309.325
 20
7267728.674
 30
0.0
 11
910200.125
 21
7263962.858
 31
0.0
  0
TEXT
  8
11
  6
CONTINUOUS
 62
     7
  5
30
 10
910391.427
 20
7269156.754
 30
0.0
 40
8.0
  1
55'
 50
88.1145
  7
ROMANS
210
0.0
220
0.0
230
1.0
  0
TEXT
  8
11
  6
CONTINUOUS
 62
     7
  5
31
 10
910326.333
 20
7269107.198
 30
0.0
 40
8.0
  1
40'
 50
358.1145
  7
ROMANS
210
0.0
220
0.0
230
1.0
  0
TEXT
  8
11
  6
CONTINUOUS
 62
     7
  5
32
 10
910156.337
 20
7263945.409
 30
0.0
 40
8.0
  1
40'
 50
358.1145
  7
ROMANS
210
0.0
220
0.0
230
1.0
  0
TEXT
  8
11
  6
CONTINUOUS
 62
     7
  5
33
 10
910359.494
 20
7268814.41
 30
0.0
 40
8.0
  1
605'
 50
88.1145
  7
ROMANS
210
0.0
220
0.0
230
1.0
  0
TEXT
  8
11
  6
CONTINUOUS
 62
     7
  5
34
 10
915565.905
 20
7268986.146
 30
0.0
 40
8.0
  1
55'
 50
88.1145
  7
ROMANS
210
0.0
220
0.0
230
1.0
  0
INSERT
  8
11
  6
CONTINUOUS
 62
     7
  5
3D
  2
*D0
 10
910320.372
 20
7267835.079
 30
0.0
 70
     0
 71
     0
  0
TEXT
  8
11
  6
CONTINUOUS
 62
     7
  5
3E
 10
912840.715
 20
7269036.071
 30
0.0
 40
10.0
  1
5280'
 50
358.1145
  7
MONOTXT
 11
912841.044022
 21
7269046.065586
 31
0.0
210
0.0
220
0.0
230
1.0
 73
     3
  0
TEXT
  8
11
  6
CONTINUOUS
 62
     7
  5
3F
 10
910341.077
 20
7268187.769
 30
0.0
 40
10.0
  1
711.09'
 50
88.1145
  7
MONOTXT
 11
910331.082414
 21
7268188.098022
 31
0.0
210
0.0
220
0.0
230
1.0
 73
     3
  0
TEXT
  8
11
  6
CONTINUOUS
 62
     7
  5
40
 10
915536.765
 20
7267399.858
 30
0.0
 40
10.0
  1
3009.49'
 50
88.1145
  7
MONOTXT
 11
915526.770414
 21
7267400.187022
 31
0.0
210
0.0
220
0.0
230
1.0
 73
     3
  0
TEXT
  8
11
  6
CONTINUOUS
 62
     7
  5
41
 10
915451.456
 20
7264832.093
 30
0.0
 40
10.0
  1
2215.51'
 50
88.1145
  7
MONOTXT
 11
915441.461414
 21
7264832.422022
 31
0.0
210
0.0
220
0.0
230
1.0
 73
     3
  0
TEXT
  8
11
  6
CONTINUOUS
 62
     7
  5
42
 10
910263.086
 20
7265833.608
 30
0.0
 40
10.0
  1
3906.9'
 50
88.1145
  7
MONOTXT
 11
910253.091414
 21
7265833.937022
 31
0.0
210
0.0
220
0.0
230
1.0
 73
     3
  0
TEXT
  8
11
  6
CONTINUOUS
 62
     7
  5
43
 10
915077.903
 20
7263755.564
 30
0.0
 40
8.0
  1
660'
 50
0.9957
  7
ROMANS
 72
     4
 11
915091.164477
 21
7263759.795088
 31
0.0
210
0.0
220
0.0
230
1.0
  0
TEXT
  8
11
  6
CONTINUOUS
 62
     7
  5
44
 10
910391.156
 20
7267769.422
 30
0.0
 40
8.0
  1
50'
 50
68.1145
  7
ROMANS
 72
     4
 11
910390.923181
 21
7267779.573388
 31
0.0
210
0.0
220
0.0
230
1.0
  0
TEXT
  8
11
  6
CONTINUOUS
 62
     7
  5
45
 10
910376.675
 20
7267717.766
 30
0.0
 40
8.0
  1
50'
 50
68.1145
  7
ROMANS
 72
     4
 11
910376.442181
 21
7267727.917388
 31
0.0
210
0.0
220
0.0
230
1.0
  0
TEXT
  8
11
  6
CONTINUOUS
 62
     7
  5
46
 10
915454.835
 20
7265953.415
 30
0.0
 40
8.0
  1
50'
 50
68.1145
  7
ROMANS
 72
     4
 11
915454.602181
 21
7265963.566388
 31
0.0
210
0.0
220
0.0
230
1.0
  0
TEXT
  8
11
  6
CONTINUOUS
 62
     7
  5
47
 10
915452.958
 20
7265896.427
 30
0.0
 40
8.0
  1
50'
 50
68.1145
  7
ROMANS
 72
     4
 11
915452.725181
 21
7265906.578388
 31
0.0
210
0.0
220
0.0
230
1.0
  0
POLYLINE
  8
1
  6
HIDDEN
 62
   253
  5
49
 66
     1
 10
0.0
 20
0.0
 30
0.0
 70
     1
  0
VERTEX
  8
1
  6
HIDDEN
 62
   253
  5
4A
 10
910317.983
 20
7269201.765
 30
0.0
  0
VERTEX
  8
1
  6
HIDDEN
 62
   253
  5
4B
 10
915615.314
 20
7269033.694
 30
0.0
  0
VERTEX
  8
1
  6
HIDDEN
 62
   253
  5
4C
 10
915448.32
 20
7263743.983
 30
0.0
  0
VERTEX
  8
1
  6
HIDDEN
 62
   253
  5
4D
 10
910147.867
 20
7263912.206
 30
0.0
  0
SEQEND
  8
1
  6
HIDDEN
 62
   253
  5
4E
  0
TEXT
  8
19
  6
CONTINUOUS
 62
     1
  5
51
 10
910164.521
 20
7263902.571
 30
0.0
 40
24.0
  1
UPLAND AVE
 50
88.1145
  7
ROMANC
 72
     4
 11
910156.966668
 21
7264037.812778
 31
0.0
210
0.0
220
0.0
230
1.0
  0
TEXT
  8
19
  6
CONTINUOUS
 62
     1
  5
52
 10
910316.203
 20
7268574.518
 30
0.0
 40
24.0
  1
UPLAND AVE
 50
88.1145
  7
ROMANC
 72
     4
 11
910308.648668
 21
7268709.759778
 31
0.0
210
0.0
220
0.0
230
1.0
  0
TEXT
  8
19
  6
CONTINUOUS
 62
     1
  5
53
 10
910238.277
 20
7266143.037
 30
0.0
 40
24.0
  1
UPLAND AVE
 50
88.1145
  7
ROMANC
 72
     4
 11
910230.722668
 21
7266278.278778
 31
0.0
210
0.0
220
0.0
230
1.0
  0
TEXT
  8
19
  6
CONTINUOUS
 62
     1
  5
54
 10
915564.813
 20
7268472.742
 30
0.0
 40
24.0
  1
MILWAUKEE AVE
 50
88.1145
  7
ROMANC
 72
     4
 11
915558.539519
 21
7268646.891701
 31
0.0
210
0.0
220
0.0
230
1.0
  0
TEXT
  8
19
  6
CONTINUOUS
 62
     1
  5
55
 10
915488.183
 20
7266294.753
 30
0.0
 40
24.0
  1
MILWAUKEE AVE
 50
88.1145
  7
ROMANC
 72
     4
 11
915481.909519
 21
7266468.902701
 31
0.0
210
0.0
220
0.0
230
1.0
  0
TEXT
  8
19
  6
CONTINUOUS
 62
     1
  5
56
 10
915110.869
 20
7269009.464
 30
0.0
 40
24.0
  1
34TH ST
 50
358.1145
  7
ROMANC
 72
     4
 11
915199.841843
 21
7269018.541509
 31
0.0
210
0.0
220
0.0
230
1.0
  0
TEXT
  8
19
  6
CONTINUOUS
 62
     1
  5
57
 10
910334.013
 20
7269169.614
 30
0.0
 40
24.0
  1
34TH ST
 50
358.1145
  7
ROMANC
 72
     4
 11
910422.985843
 21
7269178.691509
 31
0.0
210
0.0
220
0.0
230
1.0
  0
TEXT
  8
19
  6
CONTINUOUS
 62
     1
  5
58
 10
912706.256
 20
7269091.519
 30
0.0
 40
24.0
  1
34TH ST
 50
358.1145
  7
ROMANC
 72
     4
 11
912795.228843
 21
7269100.596509
 31
0.0
210
0.0
220
0.0
230
1.0
  0
TEXT
  8
22
  6
CONTINUOUS
 62
     3
  5
5A
 10
915104.593
 20
7264069.378
 30
0.0
 40
6.0
  1
130'
 50
88.512253
  7
ROMANS
 72
     1
 11
915098.854654
 21
7264079.530408
 31
0.0
210
0.0
220
0.0
230
1.0
 73
     3
  0
TEXT
  8
22
  6
CONTINUOUS
 62
     3
  5
5B
 10
914994.532
 20
7264045.097
 30
0.0
 40
6.0
  1
DRAINAGE EASEMENT
 50
88.512369
  7
ROMANS
 72
     1
 11
914989.832079
 21
7264095.235914
 31
0.0
210
0.0
220
0.0
230
1.0
 73
     3
  0
TEXT
  8
11
  6
CONTINUOUS
 62
     7
  5
5C
 10
915024.443
 20
7265192.461
 30
0.0
 40
8.0
  1
145.16'   R=1095.92'
 50
92.258286
  7
ROMANS
 72
     1
 11
915021.395745
 21
7265269.733939
 31
0.0
210
0.0
220
0.0
230
1.0
  0
TEXT
  8
11
  6
CONTINUOUS
 62
     7
  5
5D
 10
915023.647
 20
7265514.902
 30
0.0
 40
8.0
  1
355.8'
 50
88.507917
  7
ROMANS
 72
     1
 11
915016.205199
 21
7265536.436077
 31
0.0
210
0.0
220
0.0
230
1.0
 73
     3
  0
TEXT
  8
11
  6
CONTINUOUS
 62
     7
  5
5E
 10
915090.272
 20
7265553.216
 30
0.0
 40
8.0
  1
512.17'     R=1195.92'
 50
280.806697
  7
ROMANS
 72
     1
 11
915114.12973
 21
7265470.896321
 31
0.0
210
0.0
220
0.0
230
1.0
 73
     3
  0
SOLID
  8
6
  6
CONTINUOUS
 62
     7
  5
5F
 10
911740.015
 20
7267278.033
 30
0.0
 11
911348.182
 21
7267393.493
 31
0.0
 12
911736.807
 22
7267235.414
 32
0.0
 13
911736.807
 23
7267235.414
 33
0.0
  0
TEXT
  8
11
  6
CONTINUOUS
 62
     7
  5
60
 10
911551.584
 20
7267335.512
 30
0.0
 40
8.0
  1
408.49'
 50
343.581442
  7
ROMANS
 72
     1
 11
911578.1452
 21
7267336.025352
 31
0.0
210
0.0
220
0.0
230
1.0
 73
     3
  0
TEXT
  8
11
  6
CONTINUOUS
 62
     7
  5
61
 10
911545.372
 20
7267301.724
 30
0.0
 40
8.0
  1
419.54'
 50
337.864758
  7
ROMANS
 72
     1
 11
911568.837883
 21
7267292.178675
 31
0.0
210
0.0
220
0.0
230
1.0
  0
TEXT
  8
11
  6
CONTINUOUS
 62
     7
  5
62
 10
911747.272
 20
7267235.513
 30
0.0
 40
8.0
  1
42.74'
 50
85.694067
  7
ROMANS
 72
     1
 11
911748.873724
 21
7267256.785785
 31
0.0
210
0.0
220
0.0
230
1.0
  0
LINE
  8
6
  6
CONTINUOUS
 62
     7
  5
63
 10
910273.228
 20
7267847.876
 30
0.0
 11
915494.441
 21
7265975.229
 31
0.0
  0
LINE
  8
6
  6
CONTINUOUS
 62
     7
  5
64
 10
910269.771
 20
7267742.86
 30
0.0
 11
915490.983
 21
7265870.214
 31
0.0
  0
POLYLINE
  8
21
  6
DASHDOT
 62
     7
  5
66
 66
     1
 10
0.0
 20
0.0
 30
0.0
  0
VERTEX
  8
21
  6
DASHDOT
 62
     7
  5
67
 10
914979.437
 20
7263753.956
 30
0.0
  0
VERTEX
  8
21
  6
DASHDOT
 62
     7
  5
68
 10
915021.377
 20
7265364.077
 30
0.0
  0
VERTEX
  8
21
  6
DASHDOT
 62
     7
  5
69
 10
915021.376824
 20
7265364.077303
 30
0.0
 42
-0.03315
  0
VERTEX
  8
21
  6
DASHDOT
 62
     7
  5
6A
 10
915027.227159
 20
7265219.035086
 30
0.0
  0
VERTEX
  8
21
  6
DASHDOT
 62
     7
  5
6B
 10
915027.228
 20
7265219.036
 30
0.0
  0
VERTEX
  8
21
  6
DASHDOT
 62
     7
  5
6C
 10
914989.185
 20
7263754.125
 30
0.0
  0
VERTEX
  8
21
  6
DASHDOT
 62
     7
  5
6D
 10
914979.437
 20
7263753.956
 30
0.0
  0
SEQEND
  8
21
  6
DASHDOT
 62
     7
  5
6E
  0
TEXT
  8
13
  6
CONTINUOUS
 62
    14
  5
70
 10
915275.834
 20
7264072.968
 30
0.0
 40
8.0
  1
V6422 P130
 50
358.512369
  7
ROMANS
 72
     1
 11
915314.679662
 21
7264079.96188
 31
0.0
210
0.0
220
0.0
230
1.0
 73
     3
  0
POLYLINE
  8
21
  6
DASHDOT
 62
     7
  5
71
 66
     1
 10
0.0
 20
0.0
 30
0.0
 70
     1
  0
VERTEX
  8
21
  6
DASHDOT
 62
     7
  5
72
 10
915407.026
 20
7264133.984
 30
0.0
  0
VERTEX
  8
21
  6
DASHDOT
 62
     7
  5
73
 10
915098.656
 20
7264141.992
 30
0.0
  0
VERTEX
  8
21
  6
DASHDOT
 62
     7
  5
74
 10
915095.281
 20
7264012.036
 30
0.0
  0
VERTEX
  8
21
  6
DASHDOT
 62
     7
  5
75
 10
915409.287
 20
7264003.881
 30
0.0
  0
VERTEX
  8
21
  6
DASHDOT
 62
     7
  5
76
 10
915407.026
 20
7264133.984
 30
0.0
  0
SEQEND
  8
21
  6
DASHDOT
 62
     7
  5
77
  0
POLYLINE
  8
21
  6
DASHDOT
 62
     7
  5
78
 66
     1
 10
0.0
 20
0.0
 30
0.0
  0
VERTEX
  8
21
  6
DASHDOT
 62
     7
  5
79
 10
915089.226
 20
7263751.016
 30
0.0
  0
VERTEX
  8
21
  6
DASHDOT
 62
     7
  5
7A
 10
915126.548
 20
7265216.79
 30
0.0
  0
VERTEX
  8
21
  6
DASHDOT
 62
     7
  5
7B
 10
915126.547301
 20
7265216.789811
 30
0.0
 42
0.108322
  0
VERTEX
  8
21
  6
DASHDOT
 62
     7
  5
7C
 10
915029.899445
 20
7265719.758279
 30
0.0
  0
VERTEX
  8
21
  6
DASHDOT
 62
     7
  5
7D
 10
915029.9
 20
7265719.759
 30
0.0
  0
VERTEX
  8
21
  6
DASHDOT
 62
     7
  5
7E
 10
915020.634
 20
7265364.079
 30
0.0
  0
VERTEX
  8
21
  6
DASHDOT
 62
     7
  5
7F
 10
914989.185
 20
7263754.125
 30
0.0
  0
VERTEX
  8
21
  6
DASHDOT
 62
     7
  5
80
 10
915089.226
 20
7263751.016
 30
0.0
  0
SEQEND
  8
21
  6
DASHDOT
 62
     7
  5
81
  0
TEXT
  8
10
  6
CONTINUOUS
 62
   134
  5
83
 10
913008.654
 20
7267755.474
 30
0.0
 40
13.999
  1
UNSUBDIVIDED
 50
358.1145
  7
ROMANS
 11
913009.114599
 21
7267769.465421
 31
0.0
210
0.0
220
0.0
230
1.0
 73
     3
  0
TEXT
  8
10
  6
CONTINUOUS
 62
   134
  5
84
 10
912177.339
 20
7265050.356
 30
0.0
 40
13.999
  1
UNSUBDIVIDED
 50
358.1145
  7
ROMANS
 11
912177.799599
 21
7265064.347421
 31
0.0
210
0.0
220
0.0
230
1.0
 73
     3
  0
TEXT
  8
28
  6
CONTINUOUS
 62
    32
  5
86
 10
910649.627
 20
7267672.497
 30
0.0
 40
24.0
  1
A
 50
340.269058
  7
ROMANC
 72
     1
 11
910659.231906
 21
7267669.052093
 31
0.0
210
0.0
220
0.0
230
1.0
  0
TEXT
  8
28
  6
CONTINUOUS
 62
    32
  5
87
 10
910676.309
 20
7267662.927
 30
0.0
 40
24.0
  1
C
 50
340.269058
  7
ROMANC
 72
     1
 11
910684.312775
 21
7267660.056356
 31
0.0
210
0.0
220
0.0
230
1.0
  0
TEXT
  8
28
  6
CONTINUOUS
 62
    32
  5
88
 10
910699.789
 20
7267654.505
 30
0.0
 40
24.0
  1
I
 50
340.269058
  7
ROMANC
 72
     1
 11
910703.524032
 21
7267653.165389
 31
0.0
210
0.0
220
0.0
230
1.0
  0
TEXT
  8
28
  6
CONTINUOUS
 62
    32
  5
89
 10
910714.732
 20
7267649.146
 30
0.0
 40
24.0
  1
F
 50
340.269058
  7
ROMANC
 72
     1
 11
910723.269485
 21
7267646.083935
 31
0.0
210
0.0
220
0.0
230
1.0
  0
TEXT
  8
28
  6
CONTINUOUS
 62
    32
  5
8A
 10
910739.28
 20
7267640.343
 30
0.0
 40
24.0
  1
I
 50
340.269058
  7
ROMANC
 72
     1
 11
910743.015032
 21
7267639.003389
 31
0.0
210
0.0
220
0.0
230
1.0
  0
TEXT
  8
28
  6
CONTINUOUS
 62
    32
  5
8B
 10
910754.221
 20
7267634.983
 30
0.0
 40
24.0
  1
C
 50
340.269058
  7
ROMANC
 72
     1
 11
910762.224775
 21
7267632.112356
 31
0.0
210
0.0
220
0.0
230
1.0
  0
TEXT
  8
28
  6
CONTINUOUS
 62
    32
  5
8C
 10
910801.181
 20
7267618.14
 30
0.0
 40
24.0
  1
&
 50
340.269058
  7
ROMANC
 72
     1
 11
910808.829909
 21
7267615.396633
 31
0.0
210
0.0
220
0.0
230
1.0
  0
TEXT
  8
28
  6
CONTINUOUS
 62
    32
  5
8D
 10
910624.013
 20
7267681.684
 30
0.0
 40
24.0
  1
P
 50
340.269058
  7
ROMANC
 72
     1
 11
910633.084196
 21
7267678.430514
 31
0.0
210
0.0
220
0.0
230
1.0
  0
TEXT
  8
28
  6
CONTINUOUS
 62
    32
  5
8E
 10
910846.72
 20
7267601.808
 30
0.0
 40
24.0
  1
S
 50
340.269058
  7
ROMANC
 72
     1
 11
910854.190064
 21
7267599.128778
 31
0.0
210
0.0
220
0.0
230
1.0
  0
TEXT
  8
28
  6
CONTINUOUS
 62
    32
  5
8F
 10
910869.133
 20
7267593.769
 30
0.0
 40
24.0
  1
A
 50
340.269058
  7
ROMANC
 72
     1
 11
910878.737906
 21
7267590.324093
 31
0.0
210
0.0
220
0.0
230
1.0
  0
TEXT
  8
28
  6
CONTINUOUS
 62
    32
  5
90
 10
910895.814
 20
7267584.199
 30
0.0
 40
24.0
  1
N
 50
340.269058
  7
ROMANC
 72
     1
 11
910905.952617
 21
7267580.562671
 31
0.0
210
0.0
220
0.0
230
1.0
  0
TEXT
  8
28
  6
CONTINUOUS
 62
    32
  5
91
 10
910923.564
 20
7267574.246
 30
0.0
 40
24.0
  1
T
 50
340.269058
  7
ROMANC
 72
     1
 11
910931.567775
 21
7267571.375356
 31
0.0
210
0.0
220
0.0
230
1.0
  0
TEXT
  8
28
  6
CONTINUOUS
 62
    32
  5
92
 10
910947.045
 20
7267565.825
 30
0.0
 40
24.0
  1
A
 50
340.269058
  7
ROMANC
 72
     1
 11
910956.649906
 21
7267562.380093
 31
0.0
210
0.0
220
0.0
230
1.0
  0
TEXT
  8
28
  6
CONTINUOUS
 62
    32
  5
93
 10
911000.409
 20
7267546.686
 30
0.0
 40
24.0
  1
F
 50
340.269058
  7
ROMANC
 72
     1
 11
911008.946485
 21
7267543.623935
 31
0.0
210
0.0
220
0.0
230
1.0
  0
TEXT
  8
28
  6
CONTINUOUS
 62
    32
  5
94
 10
911024.957
 20
7267537.882
 30
0.0
 40
24.0
  1
E
 50
340.269058
  7
ROMANC
 72
     1
 11
911033.494485
 21
7267534.819935
 31
0.0
210
0.0
220
0.0
230
1.0
  0
TEXT
  8
28
  6
CONTINUOUS
 62
    32
  5
95
 10
914889.175
 20
7266100.941
 30
0.0
 40
24.0
  1
P
 50
340.269058
  7
ROMANC
 72
     1
 11
914906.348683
 21
7266120.278435
 31
0.0
210
0.0
220
0.0
230
1.0
 73
     3
  0
TEXT
  8
28
  6
CONTINUOUS
 62
    32
  5
96
 10
914914.791
 20
7266091.754
 30
0.0
 40
24.0
  1
A
 50
340.269058
  7
ROMANC
 72
     1
 11
914932.498394
 21
7266110.900013
 31
0.0
210
0.0
220
0.0
230
1.0
 73
     3
  0
TEXT
  8
28
  6
CONTINUOUS
 62
    32
  5
97
 10
914941.472
 20
7266082.186
 30
0.0
 40
24.0
  1
C
 50
340.269058
  7
ROMANC
 72
     1
 11
914957.578262
 21
7266101.906277
 31
0.0
210
0.0
220
0.0
230
1.0
 73
     3
  0
TEXT
  8
28
  6
CONTINUOUS
 62
    32
  5
98
 10
914964.953
 20
7266073.763
 30
0.0
 40
24.0
  1
I
 50
340.269058
  7
ROMANC
 72
     1
 11
914976.790519
 21
7266095.01431
 31
0.0
210
0.0
220
0.0
230
1.0
 73
     3
  0
TEXT
  8
28
  6
CONTINUOUS
 62
    32
  5
99
 10
914979.895
 20
7266068.404
 30
0.0
 40
24.0
  1
F
 50
340.269058
  7
ROMANC
 72
     1
 11
914996.534973
 21
7266087.932856
 31
0.0
210
0.0
220
0.0
230
1.0
 73
     3
  0
TEXT
  8
28
  6
CONTINUOUS
 62
    32
  5
9A
 10
915004.442
 20
7266059.6
 30
0.0
 40
24.0
  1
I
 50
340.269058
  7
ROMANC
 72
     1
 11
915016.279519
 21
7266080.85131
 31
0.0
210
0.0
220
0.0
230
1.0
 73
     3
  0
TEXT
  8
28
  6
CONTINUOUS
 62
    32
  5
9B
 10
915019.384
 20
7266054.24
 30
0.0
 40
24.0
  1
C
 50
340.269058
  7
ROMANC
 72
     1
 11
915035.490262
 21
7266073.960277
 31
0.0
210
0.0
220
0.0
230
1.0
 73
     3
  0
TEXT
  8
28
  6
CONTINUOUS
 62
    32
  5
9C
 10
915066.344
 20
7266037.399
 30
0.0
 40
24.0
  1
&
 50
340.269058
  7
ROMANC
 72
     1
 11
915082.095396
 21
7266057.246554
 31
0.0
210
0.0
220
0.0
230
1.0
 73
     3
  0
TEXT
  8
28
  6
CONTINUOUS
 62
    32
  5
9D
 10
915111.882
 20
7266021.065
 30
0.0
 40
24.0
  1
S
 50
340.269058
  7
ROMANC
 72
     1
 11
915127.454552
 21
7266040.976698
 31
0.0
210
0.0
220
0.0
230
1.0
 73
     3
  0
TEXT
  8
28
  6
CONTINUOUS
 62
    32
  5
9E
 10
915134.296
 20
7266013.026
 30
0.0
 40
24.0
  1
A
 50
340.269058
  7
ROMANC
 72
     1
 11
915152.003394
 21
7266032.172013
 31
0.0
210
0.0
220
0.0
230
1.0
 73
     3
  0
TEXT
  8
28
  6
CONTINUOUS
 62
    32
  5
9F
 10
915160.977
 20
7266003.456
 30
0.0
 40
24.0
  1
N
 50
340.269058
  7
ROMANC
 72
     1
 11
915179.218104
 21
7266022.410592
 31
0.0
210
0.0
220
0.0
230
1.0
 73
     3
  0
TEXT
  8
28
  6
CONTINUOUS
 62
    32
  5
A0
 10
915188.727
 20
7265993.503
 30
0.0
 40
24.0
  1
T
 50
340.269058
  7
ROMANC
 72
     1
 11
915204.833262
 21
7266013.223277
 31
0.0
210
0.0
220
0.0
230
1.0
 73
     3
  0
TEXT
  8
28
  6
CONTINUOUS
 62
    32
  5
A1
 10
915212.207
 20
7265985.082
 30
0.0
 40
24.0
  1
A
 50
340.269058
  7
ROMANC
 72
     1
 11
915229.914394
 21
7266004.228013
 31
0.0
210
0.0
220
0.0
230
1.0
 73
     3
  0
TEXT
  8
28
  6
CONTINUOUS
 62
    32
  5
A2
 10
915265.572
 20
7265965.943
 30
0.0
 40
24.0
  1
F
 50
340.269058
  7
ROMANC
 72
     1
 11
915282.211973
 21
7265985.471856
 31
0.0
210
0.0
220
0.0
230
1.0
 73
     3
  0
TEXT
  8
28
  6
CONTINUOUS
 62
    32
  5
A3
 10
915290.12
 20
7265957.139
 30
0.0
 40
24.0
  1
E
 50
340.269058
  7
ROMANC
 72
     1
 11
915306.759973
 21
7265976.667856
 31
0.0
210
0.0
220
0.0
230
1.0
 73
     3
  0
TEXT
  8
11
  6
CONTINUOUS
 62
     7
  5
A4
 10
914999.696
 20
7264608.498
 30
0.0
 40
6.0
  1
1878.52'
 50
88.507908
  7
ROMANS
 72
     1
 11
915000.268857
 21
7264630.49054
 31
0.0
210
0.0
220
0.0
230
1.0
  0
TEXT
  8
13
  6
CONTINUOUS
 62
    14
  5
A5
 10
914986.509
 20
7264112.075
 30
0.0
 40
8.0
  1
V6422 P130
 50
88.512369
  7
ROMANS
 72
     1
 11
914979.51512
 21
7264150.920662
 31
0.0
210
0.0
220
0.0
230
1.0
 73
     3
  0
TEXT
  8
13
  6
CONTINUOUS
 62
    14
  5
A6
 10
911650.081
 20
7267269.23
 30
0.0
 40
8.0
  1
V6299 P022
 50
358.1145
  7
ROMANS
 72
     4
 11
911688.524855
 21
7267271.966593
 31
0.0
210
0.0
220
0.0
230
1.0
  0
ENDSEC
  0
EOF
