  0
SECTION
  2
HEADER
  9
$ACADVER
  1
AC1009
  9
$INSBASE
 10
0.0
 20
0.0
 30
0.0
  9
$EXTMIN
 10
909978.354
 20
7258474.947
 30
0.0
  9
$EXTMAX
 10
915448.32
 20
7263912.206
 30
0.0
  9
$LIMMIN
 10
0.0
 20
0.0
  9
$LIMMAX
 10
12.0
 20
9.0
  9
$ORTHOMODE
 70
     0
  9
$REGENMODE
 70
     1
  9
$FILLMODE
 70
     1
  9
$QTEXTMODE
 70
     0
  9
$MIRRTEXT
 70
     1
  9
$DRAGMODE
 70
     2
  9
$LTSCALE
 40
1.0
  9
$OSMODE
 70
     0
  9
$ATTMODE
 70
     1
  9
$TEXTSIZE
 40
0.2
  9
$TRACEWID
 40
0.05
  9
$TEXTSTYLE
  7
STANDARD
  9
$CLAYER
  8
0
  9
$CELTYPE
  6
CONTINUOUS
  9
$CECOLOR
 62
   256
  9
$DIMSCALE
 40
1.0
  9
$DIMASZ
 40
0.18
  9
$DIMEXO
 40
0.0625
  9
$DIMDLI
 40
0.38
  9
$DIMRND
 40
0.0
  9
$DIMDLE
 40
0.0
  9
$DIMEXE
 40
0.18
  9
$DIMTP
 40
0.0
  9
$DIMTM
 40
0.0
  9
$DIMTXT
 40
0.18
  9
$DIMCEN
 40
0.09
  9
$DIMTSZ
 40
0.0
  9
$DIMTOL
 70
     0
  9
$DIMLIM
 70
     0
  9
$DIMTIH
 70
     1
  9
$DIMTOH
 70
     1
  9
$DIMSE1
 70
     0
  9
$DIMSE2
 70
     0
  9
$DIMTAD
 70
     0
  9
$DIMZIN
 70
     0
  9
$DIMBLK
  1

  9
$DIMASO
 70
     1
  9
$DIMSHO
 70
     1
  9
$DIMPOST
  1

  9
$DIMAPOST
  1

  9
$DIMALT
 70
     0
  9
$DIMALTD
 70
     2
  9
$DIMALTF
 40
25.4
  9
$DIMLFAC
 40
1.0
  9
$DIMTOFL
 70
     0
  9
$DIMTVP
 40
0.0
  9
$DIMTIX
 70
     0
  9
$DIMSOXD
 70
     0
  9
$DIMSAH
 70
     0
  9
$DIMBLK1
  1

  9
$DIMBLK2
  1

  9
$DIMSTYLE
  2
STANDARD
  9
$DIMCLRD
 70
     0
  9
$DIMCLRE
 70
     0
  9
$DIMCLRT
 70
     0
  9
$DIMTFAC
 40
1.0
  9
$DIMGAP
 40
0.09
  9
$LUNITS
 70
     2
  9
$LUPREC
 70
     4
  9
$AXISMODE
 70
     0
  9
$AXISUNIT
 10
0.0
 20
0.0
  9
$SKETCHINC
 40
0.1
  9
$FILLETRAD
 40
0.0
  9
$AUNITS
 70
     0
  9
$AUPREC
 70
     0
  9
$MENU
  1
acad
  9
$ELEVATION
 40
0.0
  9
$PELEVATION
 40
0.0
  9
$THICKNESS
 40
0.0
  9
$LIMCHECK
 70
     0
  9
$BLIPMODE
 70
     1
  9
$CHAMFERA
 40
0.0
  9
$CHAMFERB
 40
0.0
  9
$SKPOLY
 70
     0
  9
$TDCREATE
 40
2453013.902858796
  9
$TDUPDATE
 40
2453013.902858796
  9
$TDINDWG
 40
0.0000000000
  9
$TDUSRTIMER
 40
0.0000000000
  9
$USRTIMER
 70
     1
  9
$ANGBASE
 50
0.0
  9
$ANGDIR
 70
     0
  9
$PDMODE
 70
     0
  9
$PDSIZE
 40
0.0
  9
$PLINEWID
 40
0.0
  9
$COORDS
 70
     0
  9
$SPLFRAME
 70
     0
  9
$SPLINETYPE
 70
     6
  9
$SPLINESEGS
 70
    10
  9
$ATTDIA
 70
     0
  9
$ATTREQ
 70
     1
  9
$HANDLING
 70
     1
  9
$HANDSEED
  5
5DE
  9
$SURFTAB1
 70
     6
  9
$SURFTAB2
 70
     6
  9
$SURFTYPE
 70
     6
  9
$SURFU
 70
     6
  9
$SURFV
 70
     6
  9
$UCSNAME
  2

  9
$UCSORG
 10
0.0
 20
0.0
 30
0.0
  9
$UCSXDIR
 10
1.0
 20
0.0
 30
0.0
  9
$UCSYDIR
 10
0.0
 20
1.0
 30
0.0
  9
$PUCSNAME
  2

  9
$PUCSORG
 10
0.0
 20
0.0
 30
0.0
  9
$PUCSXDIR
 10
1.0
 20
0.0
 30
0.0
  9
$PUCSYDIR
 10
0.0
 20
1.0
 30
0.0
  9
$USERI1
 70
     0
  9
$USERI2
 70
     0
  9
$USERI3
 70
     0
  9
$USERI4
 70
     0
  9
$USERI5
 70
     0
  9
$USERR1
 40
0.0
  9
$USERR2
 40
0.0
  9
$USERR3
 40
0.0
  9
$USERR4
 40
0.0
  9
$USERR5
 40
0.0
  9
$WORLDVIEW
 70
     1
  9
$SHADEDGE
 70
     3
  9
$SHADEDIF
 70
    70
  9
$TILEMODE
 70
     1
  9
$MAXACTVP
 70
    16
  9
$PINSBASE
 10
0.0
 20
0.0
 30
0.0
  9
$PLIMCHECK
 70
     0
  9
$PEXTMIN
 10
-1.000000E+20
 20
-1.000000E+20
 30
-1.000000E+20
  9
$PEXTMAX
 10
-1.000000E+20
 20
-1.000000E+20
 30
-1.000000E+20
  9
$PLIMMIN
 10
0.0
 20
0.0
  9
$PLIMMAX
 10
12.0
 20
9.0
  9
$UNITMODE
 70
     0
  9
$VISRETAIN
 70
     0
  9
$PLINEGEN
 70
     1
  9
$PSLTSCALE
 70
     0
  9
$TREEDEPTH
 70
  3020
  9
$DWGCODEPAGE
  3
ansi_1252
  0
ENDSEC
  0
SECTION
  2
TABLES
  0
TABLE
  2
VPORT
 70
     1
  0
VPORT
  2
*ACTIVE
 70
     0
 10
0.0
 20
0.0
 11
1.0
 21
1.0
 12
0.0
 22
0.0
 13
0.0
 23
0.0
 14
0.0
 24
0.0
 15
0.0
 25
0.0
 16
0.0
 26
0.0
 36
1.0
 17
912713.3375
 27
7261339.871834
 37
0.0
 40
6040.069668
 41
1.548611
 42
50.0
 43
0.004
 44
0.0
 50
0.0
 51
0.0
 71
     0
 72
   100
 73
     1
 74
     0
 75
     0
 76
     0
 77
     0
 78
     0
  0
ENDTAB
  0
TABLE
  2
LTYPE
 70
     7
  0
LTYPE
  2
CONTINUOUS
 70
     0
  3
Solid line
 72
    65
 73
     0
 40
0.0
  0
LTYPE
  2
DOT
 70
    64
  3
. . . . . . . . . . . . . . . . . . . . . . . . . . . . . . . . .
 72
    65
 73
     2
 40
0.25
 49
0.0
 49
-0.25
  0
LTYPE
  2
HIDDEN
 70
    64
  3
__ __ __ __ __ __ __ __ __ __ __ __ __ __ __ __ __ __ __ __ __ 
 72
    65
 73
     2
 40
0.375
 49
0.25
 49
-0.125
  0
LTYPE
  2
DASHED
 70
    64
  3
__ __ __ __ __ __ __ __ __ __ __ __ __ __ __ __ __ __ __ __ __
 72
    65
 73
     2
 40
0.75
 49
0.5
 49
-0.25
  0
LTYPE
  2
DASHDOT
 70
    64
  3
__ . __ . __ . __ . __ . __ . __ . __ . __ . __ . __ . __ . _
 72
    65
 73
     4
 40
1.0
 49
0.5
 49
-0.25
 49
0.0
 49
-0.25
  0
LTYPE
  2
DIVIDE
 70
    64
  3
____ . . ____ . . ____ . . ____ . . ____ . . ____ . . ____ . .
 72
    65
 73
     6
 40
1.25
 49
0.5
 49
-0.25
 49
0.0
 49
-0.25
 49
0.0
 49
-0.25
  0
LTYPE
  2
CENTER
 70
    64
  3
____ _ ____ _ ____ _ ____ _ ____ _ ____ _ ____ _ ____ _ ____ _
 72
    65
 73
     4
 40
2.0
 49
1.25
 49
-0.25
 49
0.25
 49
-0.25
  0
ENDTAB
  0
TABLE
  2
LAYER
 70
    16
  0
LAYER
  2
0
 70
     0
 62
     7
  6
CONTINUOUS
  0
LAYER
  2
CONSTRUCTION_CLASS
 70
     1
 62
     7
  6
CONTINUOUS
  0
LAYER
  2
PATTERN_CLASS
 70
     0
 62
     7
  6
CONTINUOUS
  0
LAYER
  2
6
 70
    64
 62
     7
  6
CONTINUOUS
  0
LAYER
  2
10
 70
    64
 62
     7
  6
CONTINUOUS
  0
LAYER
  2
7
 70
    64
 62
     7
  6
CONTINUOUS
  0
LAYER
  2
27
 70
    64
 62
     7
  6
CONTINUOUS
  0
LAYER
  2
11
 70
    64
 62
     7
  6
CONTINUOUS
  0
LAYER
  2
DEFPOINTS
 70
    64
 62
     7
  6
CONTINUOUS
  0
LAYER
  2
19
 70
    64
 62
     7
  6
CONTINUOUS
  0
LAYER
  2
15
 70
    64
 62
     7
  6
CONTINUOUS
  0
LAYER
  2
21
 70
    64
 62
     7
  6
CONTINUOUS
  0
LAYER
  2
22
 70
    64
 62
     7
  6
CONTINUOUS
  0
LAYER
  2
13
 70
    64
 62
     7
  6
CONTINUOUS
  0
LAYER
  2
1
 70
    64
 62
     7
  6
CONTINUOUS
  0
LAYER
  2
28
 70
    64
 62
     7
  6
CONTINUOUS
  0
ENDTAB
  0
TABLE
  2
STYLE
 70
     4
  0
STYLE
  2
STANDARD
 70
     0
 40
0.0
 41
1.0
 50
0.0
 71
     0
 42
0.0
  3
txt
  4

  0
STYLE
  2
ROMANS
 70
     0
 40
0.2
 41
1.0
 50
0.0
 71
     0
 42
0.2
  3
ROMANS
  4

  0
STYLE
  2
ROMANC
 70
     0
 40
0.2
 41
1.0
 50
0.0
 71
     0
 42
0.2
  3
ROMANC
  4

  0
STYLE
  2
txt
 70
     0
 40
0.2
 41
1.0
 50
0.0
 71
     0
 42
0.2
  3
TXT
  4

  0
ENDTAB
  0
TABLE
  2
VIEW
 70
     0
  0
ENDTAB
  0
TABLE
  2
UCS
 70
     0
  0
ENDTAB
  0
TABLE
  2
APPID
 70
     1
  0
APPID
  2
ACAD
 70
     0
  0
ENDTAB
  0
TABLE
  2
DIMSTYLE
 70
     2
  0
DIMSTYLE
  2
STANDARD
 70
     0
  3

  4

  5

  6

  7

 40
1.0
 41
0.18
 42
0.0625
 43
0.38
 44
0.18
 45
0.0
 46
0.0
 47
0.0
 48
0.0
140
0.18
141
0.09
142
0.0
143
25.4
144
1.0
145
0.0
146
1.0
147
0.09
 71
     0
 72
     0
 73
     1
 74
     1
 75
     0
 76
     0
 77
     0
 78
     0
170
     0
171
     2
172
     0
173
     0
174
     0
175
     0
176
     0
177
     0
178
     0
  0
DIMSTYLE
  2
MSADIM
 70
     0
  3

  4

  5

  6

  7

 40
1.0
 41
8.0
 42
4.0
 43
0.0
 44
4.0
 45
0.0
 46
0.0
 47
0.0
 48
0.0
140
8.0
141
4.0
142
0.0
143
25.4
144
1.0
145
4.0
146
1.0
147
4.0
 71
     0
 72
     0
 73
     1
 74
     1
 75
     1
 76
     1
 77
     0
 78
     2
170
     0
171
     2
172
     0
173
     1
174
     0
175
     0
176
     0
177
     0
178
     0
  0
ENDTAB
  0
ENDSEC
  0
SECTION
  2
BLOCKS
  0
BLOCK
  8
11
  6
CONTINUOUS
 62
     7
  5
1AD
  2
*D0
 70
     1
 10
0.0
 20
0.0
 30
0.0
  3
*N0
  0
POLYLINE
  8
11
  6
CONTINUOUS
 62
     7
  5
1AE
 66
     1
 10
0.0
 20
0.0
 30
0.0
  0
VERTEX
  8
11
  6
CONTINUOUS
 62
     7
  5
1AF
 10
911446.637
 20
7259877.71
 30
0.0
  0
VERTEX
  8
11
  6
CONTINUOUS
 62
     7
  5
1B0
 10
911441.504
 20
7259871.256
 30
0.0
  0
VERTEX
  8
11
  6
CONTINUOUS
 62
     7
  5
1B1
 10
911442.996
 20
7259879.366
 30
0.0
  0
SEQEND
  8
11
  6
CONTINUOUS
 62
     7
  5
1B2
  0
LINE
  8
11
  6
CONTINUOUS
 62
     7
  5
1B3
 10
911441.504
 20
7259871.256
 30
0.0
 11
911460.113
 21
7259912.17
 31
0.0
  0
ENDBLK
  8
11
  6
CONTINUOUS
 62
     7
  5
1B4
  0
BLOCK
  8
11
  6
CONTINUOUS
 62
     7
  5
1C9
  2
*D1
 70
     1
 10
0.0
 20
0.0
 30
0.0
  3
*N1
  0
TEXT
  8
11
  6
CONTINUOUS
 62
     7
  5
1CA
 10
910158.528
 20
7258651.178
 30
0.0
 40
8.0
  1
S84%%d58'37"E
 50
354.976808
  7
ROMANS
 72
     1
 11
910201.565244
 21
7258655.426019
 31
0.0
210
0.0
220
0.0
230
1.0
 73
     3
  0
TEXT
  8
11
  6
CONTINUOUS
 62
     7
  5
1CB
 10
910180.007
 20
7258665.351
 30
0.0
 40
8.0
  1
100.15
 50
354.976808
  7
ROMANS
 72
     1
 11
910202.265184
 21
7258663.394582
 31
0.0
210
0.0
220
0.0
230
1.0
  0
ENDBLK
  8
11
  6
CONTINUOUS
 62
     7
  5
1CC
  0
BLOCK
  8
11
  6
CONTINUOUS
 62
     7
  5
1E3
  2
*D2
 70
     1
 10
0.0
 20
0.0
 30
0.0
  3
*N2
  0
POLYLINE
  8
11
  6
CONTINUOUS
 62
     7
  5
1E4
 66
     1
 10
0.0
 20
0.0
 30
0.0
  0
VERTEX
  8
11
  6
CONTINUOUS
 62
     7
  5
1E5
 10
910944.069
 20
7259492.964
 30
0.0
  0
VERTEX
  8
11
  6
CONTINUOUS
 62
     7
  5
1E6
 10
910940.245
 20
7259500.27
 30
0.0
  0
VERTEX
  8
11
  6
CONTINUOUS
 62
     7
  5
1E7
 10
910947.057
 20
7259495.623
 30
0.0
  0
SEQEND
  8
11
  6
CONTINUOUS
 62
     7
  5
1E8
  0
LINE
  8
11
  6
CONTINUOUS
 62
     7
  5
1E9
 10
910940.245
 20
7259500.27
 30
0.0
 11
910954.698
 21
7259484.028
 31
0.0
  0
ENDBLK
  8
11
  6
CONTINUOUS
 62
     7
  5
1EA
  0
BLOCK
  8
11
  6
CONTINUOUS
 62
     7
  5
25C
  2
*D3
 70
     1
 10
0.0
 20
0.0
 30
0.0
  3
*N3
  0
POLYLINE
  8
11
  6
CONTINUOUS
 62
     7
  5
25D
 66
     1
 10
0.0
 20
0.0
 30
0.0
  0
VERTEX
  8
11
  6
CONTINUOUS
 62
     7
  5
25E
 10
912575.028
 20
7259865.812
 30
0.0
  0
VERTEX
  8
11
  6
CONTINUOUS
 62
     7
  5
25F
 10
912574.182
 20
7259857.609
 30
0.0
  0
VERTEX
  8
11
  6
CONTINUOUS
 62
     7
  5
260
 10
912571.068
 20
7259865.245
 30
0.0
  0
SEQEND
  8
11
  6
CONTINUOUS
 62
     7
  5
261
  0
LINE
  8
11
  6
CONTINUOUS
 62
     7
  5
262
 10
912574.182
 20
7259857.609
 30
0.0
 11
912571.83
 21
7259874.031
 31
0.0
  0
ENDBLK
  8
11
  6
CONTINUOUS
 62
     7
  5
263
  0
BLOCK
  8
11
  6
CONTINUOUS
 62
     7
  5
29F
  2
*D4
 70
     1
 10
0.0
 20
0.0
 30
0.0
  3
*N4
  0
TEXT
  8
11
  6
CONTINUOUS
 62
     7
  5
2A0
 10
911329.722
 20
7259626.458
 30
0.0
 40
8.0
  1
S34%%d16'05"E
 50
304.268164
  7
ROMANS
 72
     1
 11
911360.263635
 21
7259595.840056
 31
0.0
210
0.0
220
0.0
230
1.0
 73
     3
  0
TEXT
  8
11
  6
CONTINUOUS
 62
     7
  5
2A1
 10
911360.951
 20
7259609.038
 30
0.0
 40
8.0
  1
296
 50
304.268164
  7
ROMANS
 72
     1
 11
911366.874464
 21
7259600.344153
 31
0.0
210
0.0
220
0.0
230
1.0
  0
ENDBLK
  8
11
  6
CONTINUOUS
 62
     7
  5
2A2
  0
BLOCK
  8
11
  6
CONTINUOUS
 62
     7
  5
2A5
  2
*D5
 70
     1
 10
0.0
 20
0.0
 30
0.0
  3
*N5
  0
TEXT
  8
11
  6
CONTINUOUS
 62
     7
  5
2A6
 10
910600.044
 20
7258823.08
 30
0.0
 40
8.0
  1
S55%%d43'53"W
 50
34.268556
  7
ROMANS
 72
     1
 11
910630.962548
 21
7258853.826803
 31
0.0
210
0.0
220
0.0
230
1.0
 73
     3
  0
TEXT
  8
11
  6
CONTINUOUS
 62
     7
  5
2A7
 10
910608.828
 20
7258848.426
 30
0.0
 40
8.0
  1
193.31
 50
34.268556
  7
ROMANS
 72
     1
 11
910626.45775
 21
7258860.438028
 31
0.0
210
0.0
220
0.0
230
1.0
  0
ENDBLK
  8
11
  6
CONTINUOUS
 62
     7
  5
2A8
  0
BLOCK
  8
11
  6
CONTINUOUS
 62
     7
  5
2AB
  2
*D6
 70
     1
 10
0.0
 20
0.0
 30
0.0
  3
*N6
  0
TEXT
  8
11
  6
CONTINUOUS
 62
     7
  5
2AC
 10
910772.884
 20
7258834.629
 30
0.0
 40
8.0
  1
N34%%d16'06"W
 50
304.268264
  7
ROMANS
 72
     1
 11
910803.630646
 21
7258803.710296
 31
0.0
210
0.0
220
0.0
230
1.0
 73
     3
  0
TEXT
  8
11
  6
CONTINUOUS
 62
     7
  5
2AD
 10
910804.245
 20
7258817.017
 30
0.0
 40
8.0
  1
260
 50
304.268264
  7
ROMANS
 72
     1
 11
910810.242241
 21
7258808.214904
 31
0.0
210
0.0
220
0.0
230
1.0
  0
ENDBLK
  8
11
  6
CONTINUOUS
 62
     7
  5
2AE
  0
BLOCK
  8
11
  6
CONTINUOUS
 62
     7
  5
2B1
  2
*D7
 70
     1
 10
0.0
 20
0.0
 30
0.0
  3
*N7
  0
TEXT
  8
11
  6
CONTINUOUS
 62
     7
  5
2B2
 10
910579.104
 20
7259119.039
 30
0.0
 40
8.0
  1
N34%%d16'05"W
 50
304.268044
  7
ROMANS
 72
     1
 11
910609.850527
 21
7259088.120178
 31
0.0
210
0.0
220
0.0
230
1.0
 73
     3
  0
TEXT
  8
11
  6
CONTINUOUS
 62
     7
  5
2B3
 10
910610.538
 20
7259101.319
 30
0.0
 40
8.0
  1
286
 50
304.268044
  7
ROMANS
 72
     1
 11
910616.461446
 21
7259092.625141
 31
0.0
210
0.0
220
0.0
230
1.0
  0
ENDBLK
  8
11
  6
CONTINUOUS
 62
     7
  5
2B4
  0
BLOCK
  8
11
  6
CONTINUOUS
 62
     7
  5
2B7
  2
*D8
 70
     1
 10
0.0
 20
0.0
 30
0.0
  3
*N8
  0
TEXT
  8
11
  6
CONTINUOUS
 62
     7
  5
2B8
 10
911235.101
 20
7259463.36
 30
0.0
 40
8.0
  1
N34%%d16'06"W
 50
304.268306
  7
ROMANS
 72
     1
 11
911265.847668
 21
7259432.441318
 31
0.0
210
0.0
220
0.0
230
1.0
 73
     3
  0
TEXT
  8
11
  6
CONTINUOUS
 62
     7
  5
2B9
 10
911260.447
 20
7259454.576
 30
0.0
 40
8.0
  1
86.32'
 50
304.268306
  7
ROMANS
 72
     1
 11
911272.458951
 21
7259436.946198
 31
0.0
210
0.0
220
0.0
230
1.0
  0
ENDBLK
  8
11
  6
CONTINUOUS
 62
     7
  5
2BA
  0
BLOCK
  8
11
  6
CONTINUOUS
 62
     7
  5
2BD
  2
*D9
 70
     1
 10
0.0
 20
0.0
 30
0.0
  3
*N9
  0
TEXT
  8
11
  6
CONTINUOUS
 62
     7
  5
2BE
 10
911188.087
 20
7259432.91
 30
0.0
 40
8.0
  1
N36%%d07'10"W
 50
304.267758
  7
ROMANS
 72
     1
 11
911218.833373
 21
7259401.991025
 31
0.0
210
0.0
220
0.0
230
1.0
 73
     3
  0
TEXT
  8
11
  6
CONTINUOUS
 62
     7
  5
2BF
 10
911213.433
 20
7259424.125
 30
0.0
 40
8.0
  1
86.32'
 50
304.267758
  7
ROMANS
 72
     1
 11
911225.444782
 21
7259406.495083
 31
0.0
210
0.0
220
0.0
230
1.0
  0
ENDBLK
  8
11
  6
CONTINUOUS
 62
     7
  5
2C0
  0
BLOCK
  8
11
  6
CONTINUOUS
 62
     7
  5
2C3
  2
*D10
 70
     1
 10
0.0
 20
0.0
 30
0.0
  3
*N10
  0
TEXT
  8
11
  6
CONTINUOUS
 62
     7
  5
2C4
 10
911170.505
 20
7259666.861
 30
0.0
 40
8.0
  1
N55%%d43'54"E
 50
34.268275
  7
ROMANS
 72
     1
 11
911201.122885
 21
7259697.402695
 31
0.0
210
0.0
220
0.0
230
1.0
 73
     3
  0
TEXT
  8
11
  6
CONTINUOUS
 62
     7
  5
2C5
 10
911175.683
 20
7259689.75
 30
0.0
 40
8.0
  1
498.69'
 50
34.268275
  7
ROMANS
 72
     1
 11
911196.618449
 21
7259704.014216
 31
0.0
210
0.0
220
0.0
230
1.0
  0
ENDBLK
  8
11
  6
CONTINUOUS
 62
     7
  5
2C6
  0
BLOCK
  8
11
  6
CONTINUOUS
 62
     7
  5
2C9
  2
*D11
 70
     1
 10
0.0
 20
0.0
 30
0.0
  3
*N11
  0
TEXT
  8
11
  6
CONTINUOUS
 62
     7
  5
2CA
 10
910955.313
 20
7259671.587
 30
0.0
 40
8.0
  1
S19%%d25'22"W
 50
70.577317
  7
ROMANS
 72
     1
 11
910962.022031
 21
7259714.671932
 31
0.0
210
0.0
220
0.0
230
1.0
 73
     3
  0
TEXT
  8
11
  6
CONTINUOUS
 62
     7
  5
2CB
 10
910946.054
 20
7259693.441
 30
0.0
 40
8.0
  1
314.68'
 50
70.577317
  7
ROMANS
 72
     1
 11
910954.478097
 21
7259717.332326
 31
0.0
210
0.0
220
0.0
230
1.0
  0
ENDBLK
  8
11
  6
CONTINUOUS
 62
     7
  5
2CC
  0
BLOCK
  8
11
  6
CONTINUOUS
 62
     7
  5
2CF
  2
*D12
 70
     1
 10
0.0
 20
0.0
 30
0.0
  3
*N12
  0
TEXT
  8
11
  6
CONTINUOUS
 62
     7
  5
2D0
 10
912020.59
 20
7260050.97
 30
0.0
 40
8.0
  1
N34%%d16'07"W
 50
304.268508
  7
ROMANS
 72
     1
 11
912051.336778
 21
7260020.051427
 31
0.0
210
0.0
220
0.0
230
1.0
 73
     3
  0
TEXT
  8
11
  6
CONTINUOUS
 62
     7
  5
2D1
 10
912043.684
 20
7260045.491
 30
0.0
 40
8.0
  1
167.17'
 50
304.268508
  7
ROMANS
 72
     1
 11
912057.948301
 21
7260024.555609
 31
0.0
210
0.0
220
0.0
230
1.0
  0
ENDBLK
  8
11
  6
CONTINUOUS
 62
     7
  5
2D2
  0
BLOCK
  8
11
  6
CONTINUOUS
 62
     7
  5
2D5
  2
*D13
 70
     1
 10
0.0
 20
0.0
 30
0.0
  3
*N13
  0
TEXT
  8
11
  6
CONTINUOUS
 62
     7
  5
2D6
 10
912069.189
 20
7260077.351
 30
0.0
 40
8.0
  1
S36%%d07'10"E
 50
304.267697
  7
ROMANS
 72
     1
 11
912099.730386
 21
7260046.732807
 31
0.0
210
0.0
220
0.0
230
1.0
 73
     3
  0
TEXT
  8
11
  6
CONTINUOUS
 62
     7
  5
2D7
 10
912092.078
 20
7260072.173
 30
0.0
 40
8.0
  1
167.17'
 50
304.267697
  7
ROMANS
 72
     1
 11
912106.342004
 21
7260051.237407
 31
0.0
210
0.0
220
0.0
230
1.0
  0
ENDBLK
  8
11
  6
CONTINUOUS
 62
     7
  5
2D8
  0
BLOCK
  8
11
  6
CONTINUOUS
 62
     7
  5
2DB
  2
*D14
 70
     1
 10
0.0
 20
0.0
 30
0.0
  3
*N14
  0
TEXT
  8
11
  6
CONTINUOUS
 62
     7
  5
2DC
 10
912457.545
 20
7259985.065
 30
0.0
 40
8.0
  1
N34%%d16'05"W
 50
304.2681
  7
ROMANS
 72
     1
 11
912488.291557
 21
7259954.146208
 31
0.0
210
0.0
220
0.0
230
1.0
 73
     3
  0
TEXT
  8
11
  6
CONTINUOUS
 62
     7
  5
2DD
 10
912488.906
 20
7259967.453
 30
0.0
 40
8.0
  1
270
 50
304.2681
  7
ROMANS
 72
     1
 11
912494.903216
 21
7259958.650887
 31
0.0
210
0.0
220
0.0
230
1.0
  0
ENDBLK
  8
11
  6
CONTINUOUS
 62
     7
  5
2DE
  0
BLOCK
  8
11
  6
CONTINUOUS
 62
     7
  5
2E1
  2
*D15
 70
     1
 10
0.0
 20
0.0
 30
0.0
  3
*N15
  0
TEXT
  8
11
  6
CONTINUOUS
 62
     7
  5
2E2
 10
913695.653
 20
7260829.677
 30
0.0
 40
8.0
  1
N34%%d16'05"W
 50
304.267981
  7
ROMANS
 72
     1
 11
913726.399493
 21
7260798.758144
 31
0.0
210
0.0
220
0.0
230
1.0
 73
     3
  0
TEXT
  8
11
  6
CONTINUOUS
 62
     7
  5
2E3
 10
913725.503
 20
7260814.281
 30
0.0
 40
8.0
  1
270'
 50
304.267981
  7
ROMANS
 72
     1
 11
913733.010336
 21
7260803.262434
 31
0.0
210
0.0
220
0.0
230
1.0
  0
ENDBLK
  8
11
  6
CONTINUOUS
 62
     7
  5
2E4
  0
BLOCK
  8
11
  6
CONTINUOUS
 62
     7
  5
2E7
  2
*D16
 70
     1
 10
0.0
 20
0.0
 30
0.0
  3
*N16
  0
TEXT
  8
11
  6
CONTINUOUS
 62
     7
  5
2E8
 10
913902.062
 20
7260955.586
 30
0.0
 40
8.0
  1
N72%%d12'43"W
 50
342.212072
  7
ROMANS
 72
     1
 11
913945.320792
 21
7260950.108826
 31
0.0
210
0.0
220
0.0
230
1.0
 73
     3
  0
TEXT
  8
11
  6
CONTINUOUS
 62
     7
  5
2E9
 10
913923.643
 20
7260965.466
 30
0.0
 40
8.0
  1
370.60'
 50
342.212072
  7
ROMANS
 72
     1
 11
913947.764925
 21
7260957.726903
 31
0.0
210
0.0
220
0.0
230
1.0
  0
ENDBLK
  8
11
  6
CONTINUOUS
 62
     7
  5
2EA
  0
BLOCK
  8
11
  6
CONTINUOUS
 62
     7
  5
2ED
  2
*D17
 70
     1
 10
0.0
 20
0.0
 30
0.0
  3
*N17
  0
TEXT
  8
11
  6
CONTINUOUS
 62
     7
  5
2EE
 10
912831.932
 20
7260232.571
 30
0.0
 40
8.0
  1
N34%%d16'06"W
 50
304.26845
  7
ROMANS
 72
     1
 11
912862.678746
 21
7260201.652396
 31
0.0
210
0.0
220
0.0
230
1.0
 73
     3
  0
TEXT
  8
11
  6
CONTINUOUS
 62
     7
  5
2EF
 10
912861.782
 20
7260217.175
 30
0.0
 40
8.0
  1
270'
 50
304.26845
  7
ROMANS
 72
     1
 11
912869.289427
 21
7260206.156496
 31
0.0
210
0.0
220
0.0
230
1.0
  0
ENDBLK
  8
11
  6
CONTINUOUS
 62
     7
  5
2F0
  0
BLOCK
  8
11
  6
CONTINUOUS
 62
     7
  5
2F3
  2
*D18
 70
     1
 10
0.0
 20
0.0
 30
0.0
  3
*N18
  0
TEXT
  8
11
  6
CONTINUOUS
 62
     7
  5
2F4
 10
912682.607
 20
7260087.013
 30
0.0
 40
8.0
  1
N-S
 50
88.149053
  7
ROMANS
 72
     1
 11
912674.950771
 21
7260097.77991
 31
0.0
210
0.0
220
0.0
230
1.0
 73
     3
  0
TEXT
  8
11
  6
CONTINUOUS
 62
     7
  5
2F5
 10
912666.137
 20
7260072.718
 30
0.0
 40
8.0
  1
315.67'
 50
88.149053
  7
ROMANS
 72
     1
 11
912666.955243
 21
7260098.037782
 31
0.0
210
0.0
220
0.0
230
1.0
  0
ENDBLK
  8
11
  6
CONTINUOUS
 62
     7
  5
2F6
  0
BLOCK
  8
11
  6
CONTINUOUS
 62
     7
  5
2F9
  2
*D19
 70
     1
 10
0.0
 20
0.0
 30
0.0
  3
*N19
  0
TEXT
  8
11
  6
CONTINUOUS
 62
     7
  5
2FA
 10
912695.02
 20
7260495.831
 30
0.0
 40
8.0
  1
N-S
 50
88.148658
  7
ROMANS
 72
     1
 11
912687.363845
 21
7260506.597963
 31
0.0
210
0.0
220
0.0
230
1.0
 73
     3
  0
TEXT
  8
11
  6
CONTINUOUS
 62
     7
  5
2FB
 10
912678.55
 20
7260481.537
 30
0.0
 40
8.0
  1
366.43'
 50
88.148658
  7
ROMANS
 72
     1
 11
912679.368418
 21
7260506.856776
 31
0.0
210
0.0
220
0.0
230
1.0
  0
ENDBLK
  8
11
  6
CONTINUOUS
 62
     7
  5
2FC
  0
BLOCK
  8
11
  6
CONTINUOUS
 62
     7
  5
2FF
  2
*D20
 70
     1
 10
0.0
 20
0.0
 30
0.0
  3
*N20
  0
TEXT
  8
11
  6
CONTINUOUS
 62
     7
  5
300
 10
912440.118
 20
7260385.411
 30
0.0
 40
8.0
  1
N34%%d16'05"W
 50
304.268006
  7
ROMANS
 72
     1
 11
912470.864506
 21
7260354.492157
 31
0.0
210
0.0
220
0.0
230
1.0
 73
     3
  0
TEXT
  8
11
  6
CONTINUOUS
 62
     7
  5
301
 10
912469.968
 20
7260370.015
 30
0.0
 40
8.0
  1
296'
 50
304.268006
  7
ROMANS
 72
     1
 11
912477.475341
 21
7260358.996438
 31
0.0
210
0.0
220
0.0
230
1.0
  0
ENDBLK
  8
11
  6
CONTINUOUS
 62
     7
  5
302
  0
BLOCK
  8
11
  6
CONTINUOUS
 62
     7
  5
305
  2
*D21
 70
     1
 10
0.0
 20
0.0
 30
0.0
  3
*N21
  0
TEXT
  8
11
  6
CONTINUOUS
 62
     7
  5
306
 10
913199.654
 20
7260904.37
 30
0.0
 40
8.0
  1
N34%%d16'06"W
 50
304.268433
  7
ROMANS
 72
     1
 11
913230.400737
 21
7260873.451387
 31
0.0
210
0.0
220
0.0
230
1.0
 73
     3
  0
TEXT
  8
11
  6
CONTINUOUS
 62
     7
  5
307
 10
913229.505
 20
7260888.975
 30
0.0
 40
8.0
  1
296'
 50
304.268433
  7
ROMANS
 72
     1
 11
913237.012423
 21
7260877.956494
 31
0.0
210
0.0
220
0.0
230
1.0
  0
ENDBLK
  8
11
  6
CONTINUOUS
 62
     7
  5
308
  0
BLOCK
  8
11
  6
CONTINUOUS
 62
     7
  5
30B
  2
*D22
 70
     1
 10
0.0
 20
0.0
 30
0.0
  3
*N22
  0
TEXT
  8
11
  6
CONTINUOUS
 62
     7
  5
30C
 10
913354.247
 20
7260999.333
 30
0.0
 40
8.0
  1
N58%%d06'53"W
 50
328.114739
  7
ROMANS
 72
     1
 11
913394.868907
 21
7260983.484242
 31
0.0
210
0.0
220
0.0
230
1.0
 73
     3
  0
TEXT
  8
11
  6
CONTINUOUS
 62
     7
  5
30D
 10
913377.584
 20
7261003.658
 30
0.0
 40
8.0
  1
323.63'
 50
328.114739
  7
ROMANS
 72
     1
 11
913399.094443
 21
7260990.276605
 31
0.0
210
0.0
220
0.0
230
1.0
  0
ENDBLK
  8
11
  6
CONTINUOUS
 62
     7
  5
30E
  0
BLOCK
  8
11
  6
CONTINUOUS
 62
     7
  5
311
  2
*D23
 70
     1
 10
0.0
 20
0.0
 30
0.0
  3
*N23
  0
TEXT
  8
11
  6
CONTINUOUS
 62
     7
  5
312
 10
912596.61
 20
7259867.539
 30
0.0
 40
3.0
  1
N13%%d36'27"E
 50
76.392575
  7
ROMANS
 72
     1
 11
912597.443911
 21
7259883.735433
 31
0.0
210
0.0
220
0.0
230
1.0
 73
     3
  0
TEXT
  8
11
  6
CONTINUOUS
 62
     7
  5
313
 10
912592.911
 20
7259877.759
 30
0.0
 40
3.0
  1
33.54
 50
76.392575
  7
ROMANS
 72
     1
 11
912594.528468
 21
7259884.441022
 31
0.0
210
0.0
220
0.0
230
1.0
  0
ENDBLK
  8
11
  6
CONTINUOUS
 62
     7
  5
314
  0
BLOCK
  8
11
  6
CONTINUOUS
 62
     7
  5
317
  2
*D24
 70
     1
 10
0.0
 20
0.0
 30
0.0
  3
*N24
  0
TEXT
  8
11
  6
CONTINUOUS
 62
     7
  5
318
 10
912609.876
 20
7259895.889
 30
0.0
 40
6.0
  1
N61%%d29'07"E
 50
28.514761
  7
ROMANS
 72
     1
 11
912635.020065
 21
7259916.377817
 31
0.0
210
0.0
220
0.0
230
1.0
 73
     3
  0
TEXT
  8
11
  6
CONTINUOUS
 62
     7
  5
319
 10
912620.074
 20
7259915.086
 30
0.0
 40
6.0
  1
74.78
 50
28.514761
  7
ROMANS
 72
     1
 11
912632.156045
 21
7259921.650046
 31
0.0
210
0.0
220
0.0
230
1.0
  0
ENDBLK
  8
11
  6
CONTINUOUS
 62
     7
  5
31A
  0
BLOCK
  8
11
  6
CONTINUOUS
 62
     7
  5
31D
  2
*D25
 70
     1
 10
0.0
 20
0.0
 30
0.0
  3
*N25
  0
TEXT
  8
11
  6
CONTINUOUS
 62
     7
  5
31E
 10
912668.889
 20
7259934.846
 30
0.0
 40
3.0
  1
S79%%d16'03"E
 50
349.267508
  7
ROMANS
 72
     1
 11
912685.106874
 21
7259934.825487
 31
0.0
210
0.0
220
0.0
230
1.0
 73
     3
  0
TEXT
  8
11
  6
CONTINUOUS
 62
     7
  5
31F
 10
912679.28
 20
7259938.984
 30
0.0
 40
3.0
  1
21.21
 50
349.267508
  7
ROMANS
 72
     1
 11
912685.666298
 21
7259937.773545
 31
0.0
210
0.0
220
0.0
230
1.0
  0
ENDBLK
  8
11
  6
CONTINUOUS
 62
     7
  5
320
  0
BLOCK
  8
11
  6
CONTINUOUS
 62
     7
  5
323
  2
*D26
 70
     1
 10
0.0
 20
0.0
 30
0.0
  3
*N26
  0
TEXT
  8
11
  6
CONTINUOUS
 62
     7
  5
324
 10
910702.38
 20
7259347.879
 30
0.0
 40
8.0
  1
S55%%d43'54"W
 50
34.268319
  7
ROMANS
 72
     1
 11
910733.298674
 21
7259378.625676
 31
0.0
210
0.0
220
0.0
230
1.0
 73
     3
  0
TEXT
  8
11
  6
CONTINUOUS
 62
     7
  5
325
 10
910707.858
 20
7259370.973
 30
0.0
 40
8.0
  1
451.79'
 50
34.268319
  7
ROMANS
 72
     1
 11
910728.793438
 21
7259385.237232
 31
0.0
210
0.0
220
0.0
230
1.0
  0
ENDBLK
  8
11
  6
CONTINUOUS
 62
     7
  5
326
  0
BLOCK
  8
11
  6
CONTINUOUS
 62
     7
  5
335
  2
*D27
 70
     1
 10
0.0
 20
0.0
 30
0.0
  3
*N27
  0
TEXT
  8
11
  6
CONTINUOUS
 62
     7
  5
336
 10
911940.951
 20
7260333.127
 30
0.0
 40
8.0
  1
N30%%d23'35"E
 50
59.607033
  7
ROMANS
 72
     1
 11
911955.552329
 21
7260373.833894
 31
0.0
210
0.0
220
0.0
230
1.0
 73
     3
  0
TEXT
  8
11
  6
CONTINUOUS
 62
     7
  5
337
 10
911935.835
 20
7260356.03
 30
0.0
 40
8.0
  1
341.50'
 50
59.607033
  7
ROMANS
 72
     1
 11
911948.651671
 21
7260377.881632
 31
0.0
210
0.0
220
0.0
230
1.0
  0
ENDBLK
  8
11
  6
CONTINUOUS
 62
     7
  5
338
  0
BLOCK
  8
11
  6
CONTINUOUS
 62
     7
  5
33B
  2
*D28
 70
     1
 10
0.0
 20
0.0
 30
0.0
  3
*N28
  0
TEXT
  8
11
  6
CONTINUOUS
 62
     7
  5
33C
 10
912101.871
 20
7260301.271
 30
0.0
 40
8.0
  1
S55%%d43'54"W
 50
34.268261
  7
ROMANS
 72
     1
 11
912132.789706
 21
7260332.017644
 31
0.0
210
0.0
220
0.0
230
1.0
 73
     3
  0
TEXT
  8
11
  6
CONTINUOUS
 62
     7
  5
33D
 10
912107.35
 20
7260324.364
 30
0.0
 40
8.0
  1
491.35'
 50
34.268261
  7
ROMANS
 72
     1
 11
912128.285453
 21
7260338.62821
 31
0.0
210
0.0
220
0.0
230
1.0
  0
ENDBLK
  8
11
  6
CONTINUOUS
 62
     7
  5
33E
  0
BLOCK
  8
11
  6
CONTINUOUS
 62
     7
  5
34D
  2
*D29
 70
     1
 10
0.0
 20
0.0
 30
0.0
  3
*N29
  0
POLYLINE
  8
11
  6
CONTINUOUS
 62
     7
  5
34E
 66
     1
 10
0.0
 20
0.0
 30
0.0
  0
VERTEX
  8
11
  6
CONTINUOUS
 62
     7
  5
34F
 10
912338.445
 20
7260492.926
 30
0.0
  0
VERTEX
  8
11
  6
CONTINUOUS
 62
     7
  5
350
 10
912343.062
 20
7260490.636
 30
0.0
  0
VERTEX
  8
11
  6
CONTINUOUS
 62
     7
  5
351
 10
912337.91
 20
7260490.484
 30
0.0
  0
SEQEND
  8
11
  6
CONTINUOUS
 62
     7
  5
352
  0
POLYLINE
  8
11
  6
CONTINUOUS
 62
     7
  5
353
 66
     1
 10
0.0
 20
0.0
 30
0.0
  0
VERTEX
  8
11
  6
CONTINUOUS
 62
     7
  5
354
 10
912343.062
 20
7260490.636
 30
0.0
  0
VERTEX
  8
11
  6
CONTINUOUS
 62
     7
  5
355
 10
912337.202
 20
7260491.919
 30
0.0
  0
VERTEX
  8
11
  6
CONTINUOUS
 62
     7
  5
356
 10
912319.527
 20
7260479.366
 30
0.0
  0
SEQEND
  8
11
  6
CONTINUOUS
 62
     7
  5
357
  0
ENDBLK
  8
11
  6
CONTINUOUS
 62
     7
  5
358
  0
BLOCK
  8
11
  6
CONTINUOUS
 62
     7
  5
44F
  2
*D30
 70
     1
 10
0.0
 20
0.0
 30
0.0
  3
*N30
  0
TEXT
  8
11
  6
CONTINUOUS
 62
     7
  5
450
 10
911564.618
 20
7258736.01
 30
0.0
 40
8.0
  1
N34%%d34'10"W
 50
304.569492
  7
ROMANS
 72
     1
 11
911595.526773
 21
7258705.25337
 31
0.0
210
0.0
220
0.0
230
1.0
 73
     3
  0
TEXT
  8
11
  6
CONTINUOUS
 62
     7
  5
451
 10
911596.819
 20
7258717.478
 30
0.0
 40
8.0
  1
62'
 50
304.569492
  7
ROMANS
 72
     1
 11
911602.114594
 21
7258709.792847
 31
0.0
210
0.0
220
0.0
230
1.0
  0
ENDBLK
  8
11
  6
CONTINUOUS
 62
     7
  5
452
  0
BLOCK
  8
11
  6
CONTINUOUS
 62
     7
  5
455
  2
*D31
 70
     1
 10
0.0
 20
0.0
 30
0.0
  3
*N31
  0
TEXT
  8
11
  6
CONTINUOUS
 62
     7
  5
456
 10
913887.318
 20
7259721.729
 30
0.0
 40
8.0
  1
S69%%d09'35"W
 50
20.840247
  7
ROMANS
 72
     1
 11
913924.531557
 21
7259744.455056
 31
0.0
210
0.0
220
0.0
230
1.0
 73
     3
  0
TEXT
  8
11
  6
CONTINUOUS
 62
     7
  5
457
 10
913898.009
 20
7259742.919
 30
0.0
 40
8.0
  1
790.51'
 50
20.840247
  7
ROMANS
 72
     1
 11
913921.684614
 21
7259751.931558
 31
0.0
210
0.0
220
0.0
230
1.0
  0
ENDBLK
  8
11
  6
CONTINUOUS
 62
     7
  5
458
  0
BLOCK
  8
11
  6
CONTINUOUS
 62
     7
  5
45B
  2
*D32
 70
     1
 10
0.0
 20
0.0
 30
0.0
  3
*N32
  0
TEXT
  8
11
  6
CONTINUOUS
 62
     7
  5
45C
 10
914816.37
 20
7261002.293
 30
0.0
 40
8.0
  1
S40%%d31'20"W
 50
49.477811
  7
ROMANS
 72
     1
 11
914838.139327
 21
7261040.074198
 31
0.0
210
0.0
220
0.0
230
1.0
 73
     3
  0
TEXT
  8
11
  6
CONTINUOUS
 62
     7
  5
45D
 10
914818.197
 20
7261029.055
 30
0.0
 40
8.0
  1
303.4'
 50
49.477811
  7
ROMANS
 72
     1
 11
914832.057956
 21
7261045.271374
 31
0.0
210
0.0
220
0.0
230
1.0
  0
ENDBLK
  8
11
  6
CONTINUOUS
 62
     7
  5
45E
  0
BLOCK
  8
11
  6
CONTINUOUS
 62
     7
  5
461
  2
*D33
 70
     1
 10
0.0
 20
0.0
 30
0.0
  3
*N33
  0
TEXT
  8
11
  6
CONTINUOUS
 62
     7
  5
462
 10
915129.535
 20
7261283.066
 30
0.0
 40
8.0
  1
N55%%d48'39"E
 50
34.189144
  7
ROMANS
 72
     1
 11
915160.195037
 21
7261313.56538
 31
0.0
210
0.0
220
0.0
230
1.0
 73
     3
  0
TEXT
  8
11
  6
CONTINUOUS
 62
     7
  5
463
 10
915144.671
 20
7261312.691
 30
0.0
 40
8.0
  1
510'
 50
34.189144
  7
ROMANS
 72
     1
 11
915155.699885
 21
7261320.183168
 31
0.0
210
0.0
220
0.0
230
1.0
  0
ENDBLK
  8
11
  6
CONTINUOUS
 62
     7
  5
464
  0
BLOCK
  8
11
  6
CONTINUOUS
 62
     7
  5
467
  2
*D34
 70
     1
 10
0.0
 20
0.0
 30
0.0
  3
*N34
  0
TEXT
  8
11
  6
CONTINUOUS
 62
     7
  5
468
 10
913259.752
 20
7260157.949
 30
0.0
 40
8.0
  1
N55%%d48'39"E
 50
34.189164
  7
ROMANS
 72
     1
 11
913290.412026
 21
7260188.44839
 31
0.0
210
0.0
220
0.0
230
1.0
 73
     3
  0
TEXT
  8
11
  6
CONTINUOUS
 62
     7
  5
469
 10
913261.653
 20
7260178.583
 30
0.0
 40
8.0
  1
5352.83'
 50
34.189164
  7
ROMANS
 72
     1
 11
913285.916872
 21
7260195.066003
 31
0.0
210
0.0
220
0.0
230
1.0
  0
ENDBLK
  8
11
  6
CONTINUOUS
 62
     7
  5
46A
  0
BLOCK
  8
11
  6
CONTINUOUS
 62
     7
  5
4E0
  2
*D35
 70
     1
 10
0.0
 20
0.0
 30
0.0
  3
*N35
  0
TEXT
  8
11
  6
CONTINUOUS
 62
     7
  5
4E1
 10
913379.813
 20
7260789.656
 30
0.0
 40
8.0
  1
N55%%d43'54"E
 50
34.268236
  7
ROMANS
 72
     1
 11
913410.430906
 21
7260820.197674
 31
0.0
210
0.0
220
0.0
230
1.0
 73
     3
  0
TEXT
  8
11
  6
CONTINUOUS
 62
     7
  5
4E2
 10
913403.723
 20
7260825.308
 30
0.0
 40
8.0
  1
 
 50
34.268236
  7
ROMANS
 72
     1
 11
913405.926211
 21
7260826.809139
 31
0.0
210
0.0
220
0.0
230
1.0
  0
ENDBLK
  8
11
  6
CONTINUOUS
 62
     7
  5
4E3
  0
BLOCK
  8
11
  6
CONTINUOUS
 62
     7
  5
4E6
  2
*D36
 70
     1
 10
0.0
 20
0.0
 30
0.0
  3
*N36
  0
TEXT
  8
11
  6
CONTINUOUS
 62
     7
  5
4E7
 10
914576.871
 20
7261173.59
 30
0.0
 40
8.0
  1
N55%%d48'39"E
 50
34.189156
  7
ROMANS
 72
     1
 11
914607.531031
 21
7261204.089386
 31
0.0
210
0.0
220
0.0
230
1.0
 73
     3
  0
TEXT
  8
11
  6
CONTINUOUS
 62
     7
  5
4E8
 10
914578.772
 20
7261194.224
 30
0.0
 40
8.0
  1
1085.12'
 50
34.189156
  7
ROMANS
 72
     1
 11
914603.035875
 21
7261210.707
 31
0.0
210
0.0
220
0.0
230
1.0
  0
ENDBLK
  8
11
  6
CONTINUOUS
 62
     7
  5
4E9
  0
BLOCK
  8
11
  6
CONTINUOUS
 62
     7
  5
4EC
  2
*D37
 70
     1
 10
0.0
 20
0.0
 30
0.0
  3
*N37
  0
TEXT
  8
11
  6
CONTINUOUS
 62
     7
  5
4ED
 10
912373.51
 20
7261183.668
 30
0.0
 40
8.0
  1
 
 50
358.148808
  7
ROMANS
 72
     1
 11
912376.433039
 21
7261191.577703
 31
0.0
210
0.0
220
0.0
230
1.0
 73
     3
  0
TEXT
  8
11
  6
CONTINUOUS
 62
     7
  5
4EE
 10
912347.374
 20
7261200.521
 30
0.0
 40
8.0
  1
4403.45'
 50
358.148808
  7
ROMANS
 72
     1
 11
912376.691691
 21
7261199.573434
 31
0.0
210
0.0
220
0.0
230
1.0
  0
ENDBLK
  8
11
  6
CONTINUOUS
 62
     7
  5
4EF
  0
BLOCK
  8
22
  6
CONTINUOUS
 62
     3
  5
531
  2
*D38
 70
     1
 10
0.0
 20
0.0
 30
0.0
  3
*N38
  0
POLYLINE
  8
22
  6
CONTINUOUS
 62
     3
  5
532
 66
     1
 10
0.0
 20
0.0
 30
0.0
  0
VERTEX
  8
22
  6
CONTINUOUS
 62
     3
  5
533
 10
911370.664
 20
7259351.351
 30
0.0
  0
VERTEX
  8
22
  6
CONTINUOUS
 62
     3
  5
534
 10
911373.887
 20
7259358.941
 30
0.0
  0
VERTEX
  8
22
  6
CONTINUOUS
 62
     3
  5
535
 10
911374.615
 20
7259350.727
 30
0.0
  0
SEQEND
  8
22
  6
CONTINUOUS
 62
     3
  5
536
  0
LINE
  8
22
  6
CONTINUOUS
 62
     3
  5
537
 10
911373.887
 20
7259358.941
 30
0.0
 11
911370.507
 21
7259337.53
 31
0.0
  0
ENDBLK
  8
22
  6
CONTINUOUS
 62
     3
  5
538
  0
BLOCK
  8
22
  6
CONTINUOUS
 62
     3
  5
53B
  2
*D39
 70
     1
 10
0.0
 20
0.0
 30
0.0
  3
*N39
  0
POLYLINE
  8
22
  6
CONTINUOUS
 62
     3
  5
53C
 66
     1
 10
0.0
 20
0.0
 30
0.0
  0
VERTEX
  8
22
  6
CONTINUOUS
 62
     3
  5
53D
 10
911474.317
 20
7259201.386
 30
0.0
  0
VERTEX
  8
22
  6
CONTINUOUS
 62
     3
  5
53E
 10
911482.324
 20
7259199.414
 30
0.0
  0
VERTEX
  8
22
  6
CONTINUOUS
 62
     3
  5
53F
 10
911474.331
 20
7259197.386
 30
0.0
  0
SEQEND
  8
22
  6
CONTINUOUS
 62
     3
  5
540
  0
LINE
  8
22
  6
CONTINUOUS
 62
     3
  5
541
 10
911482.324
 20
7259199.414
 30
0.0
 11
911463.502
 21
7259199.349
 31
0.0
  0
ENDBLK
  8
22
  6
CONTINUOUS
 62
     3
  5
542
  0
BLOCK
  8
22
  6
CONTINUOUS
 62
     3
  5
546
  2
*D40
 70
     1
 10
0.0
 20
0.0
 30
0.0
  3
*N40
  0
POLYLINE
  8
22
  6
CONTINUOUS
 62
     3
  5
547
 66
     1
 10
0.0
 20
0.0
 30
0.0
  0
VERTEX
  8
22
  6
CONTINUOUS
 62
     3
  5
548
 10
912145.242
 20
7259882.525
 30
0.0
  0
VERTEX
  8
22
  6
CONTINUOUS
 62
     3
  5
549
 10
912149.355
 20
7259889.672
 30
0.0
  0
VERTEX
  8
22
  6
CONTINUOUS
 62
     3
  5
54A
 10
912149.089
 20
7259881.43
 30
0.0
  0
SEQEND
  8
22
  6
CONTINUOUS
 62
     3
  5
54B
  0
LINE
  8
22
  6
CONTINUOUS
 62
     3
  5
54C
 10
912149.355
 20
7259889.672
 30
0.0
 11
912144.86
 21
7259873.873
 31
0.0
  0
ENDBLK
  8
22
  6
CONTINUOUS
 62
     3
  5
54D
  0
BLOCK
  8
22
  6
CONTINUOUS
 62
     3
  5
550
  2
*D41
 70
     1
 10
0.0
 20
0.0
 30
0.0
  3
*N41
  0
POLYLINE
  8
22
  6
CONTINUOUS
 62
     3
  5
551
 66
     1
 10
0.0
 20
0.0
 30
0.0
  0
VERTEX
  8
22
  6
CONTINUOUS
 62
     3
  5
552
 10
912246.517
 20
7259737.647
 30
0.0
  0
VERTEX
  8
22
  6
CONTINUOUS
 62
     3
  5
553
 10
912254.62
 20
7259736.118
 30
0.0
  0
VERTEX
  8
22
  6
CONTINUOUS
 62
     3
  5
554
 10
912246.75
 20
7259733.654
 30
0.0
  0
SEQEND
  8
22
  6
CONTINUOUS
 62
     3
  5
555
  0
LINE
  8
22
  6
CONTINUOUS
 62
     3
  5
556
 10
912254.62
 20
7259736.118
 30
0.0
 11
912239.984
 21
7259735.262
 31
0.0
  0
ENDBLK
  8
22
  6
CONTINUOUS
 62
     3
  5
557
  0
BLOCK
  8
22
  6
CONTINUOUS
 62
     3
  5
560
  2
*D42
 70
     1
 10
0.0
 20
0.0
 30
0.0
  3
*N42
  0
POLYLINE
  8
22
  6
CONTINUOUS
 62
     3
  5
561
 66
     1
 10
0.0
 20
0.0
 30
0.0
  0
VERTEX
  8
22
  6
CONTINUOUS
 62
     3
  5
562
 10
912610.104
 20
7259927.142
 30
0.0
  0
VERTEX
  8
22
  6
CONTINUOUS
 62
     3
  5
563
 10
912604.636
 20
7259920.97
 30
0.0
  0
VERTEX
  8
22
  6
CONTINUOUS
 62
     3
  5
564
 10
912606.556
 20
7259928.99
 30
0.0
  0
SEQEND
  8
22
  6
CONTINUOUS
 62
     3
  5
565
  0
LINE
  8
22
  6
CONTINUOUS
 62
     3
  5
566
 10
912604.636
 20
7259920.97
 30
0.0
 11
912634.963
 21
7259979.224
 31
0.0
  0
ENDBLK
  8
22
  6
CONTINUOUS
 62
     3
  5
567
  0
ENDSEC
  0
SECTION
  2
ENTITIES
  0
LINE
  8
6
  6
CONTINUOUS
 62
     7
  5
29
 10
910046.989
 20
7258697.542
 30
0.0
 11
910063.913
 21
7259221.189
 31
0.0
  0
LINE
  8
6
  6
CONTINUOUS
 62
     7
  5
2A
 10
910063.913
 20
7259221.189
 30
0.0
 11
910509.64
 21
7259206.782
 31
0.0
  0
LINE
  8
6
  6
CONTINUOUS
 62
     7
  5
2B
 10
910509.64
 20
7259206.782
 30
0.0
 11
910676.308
 21
7258962.165
 31
0.0
  0
LINE
  8
6
  6
CONTINUOUS
 62
     7
  5
2C
 10
910676.308
 20
7258962.165
 30
0.0
 11
910516.554
 21
7258853.318
 31
0.0
  0
ARC
  8
6
  6
CONTINUOUS
 62
     7
  5
2D
 10
910654.892359
 20
7258660.549772
 30
0.0
 40
237.2
 50
124.268089
 51
178.877047
210
0.0
220
0.0
230
1.0
  0
LINE
  8
6
  6
CONTINUOUS
 62
     7
  5
2E
 10
910076.002
 20
7258666.589
 30
0.0
 11
910145.968
 21
7258664.328
 31
0.0
  0
LINE
  8
6
  6
CONTINUOUS
 62
     7
  5
2F
 10
910145.968
 20
7258664.328
 30
0.0
 11
910245.733
 21
7258655.559
 31
0.0
  0
LINE
  8
6
  6
CONTINUOUS
 62
     7
  5
30
 10
910245.733
 20
7258655.559
 30
0.0
 11
910402.256
 21
7258650.5
 31
0.0
  0
ARC
  8
6
  6
CONTINUOUS
 62
     7
  5
31
 10
910402.740796
 20
7258665.492376
 30
0.0
 40
15.0
 50
268.1488
 51
358.877047
210
0.0
220
0.0
230
1.0
  0
ARC
  8
6
  6
CONTINUOUS
 62
     7
  5
32
 10
910076.972496
 20
7258696.573189
 30
0.0
 40
30.0
 50
178.1488
 51
268.1488
210
0.0
220
0.0
230
1.0
  0
TEXT
  8
10
  6
CONTINUOUS
 62
   134
  5
35
 10
910278.293
 20
7258954.266
 30
0.0
 40
13.999
  1
A
 50
358.1488
  7
ROMANS
 11
910278.745222
 21
7258968.257694
 31
0.0
210
0.0
220
0.0
230
1.0
 73
     3
  0
LINE
  8
6
  6
CONTINUOUS
 62
     7
  5
36
 10
910064.559
 20
7259241.179
 30
0.0
 11
910073.766
 21
7259526.04
 31
0.0
  0
LINE
  8
6
  6
CONTINUOUS
 62
     7
  5
37
 10
910089.243
 20
7259540.548
 30
0.0
 11
910924.236
 21
7259513.56
 31
0.0
  0
LINE
  8
6
  6
CONTINUOUS
 62
     7
  5
38
 10
910924.236
 20
7259513.56
 30
0.0
 11
910503.651
 21
7259226.997
 31
0.0
  0
LINE
  8
6
  6
CONTINUOUS
 62
     7
  5
39
 10
910503.651
 20
7259226.997
 30
0.0
 11
910064.45
 21
7259241.193
 31
0.0
  0
ARC
  8
6
  6
CONTINUOUS
 62
     7
  5
3A
 10
910088.758008
 20
7259525.555123
 30
0.0
 40
15.0
 50
88.1488
 51
178.1488
210
0.0
220
0.0
230
1.0
  0
LINE
  8
6
  6
CONTINUOUS
 62
     7
  5
3B
 10
910692.836
 20
7258973.426
 30
0.0
 11
911242.399
 21
7259347.866
 31
0.0
  0
LINE
  8
6
  6
CONTINUOUS
 62
     7
  5
3C
 10
911246.35
 20
7259368.708
 30
0.0
 11
911197.746
 21
7259440.045
 31
0.0
  0
LINE
  8
6
  6
CONTINUOUS
 62
     7
  5
3D
 10
910958.282
 20
7259512.459
 30
0.0
 11
911072.619
 21
7259508.765
 31
0.0
  0
LINE
  8
6
  6
CONTINUOUS
 62
     7
  5
3E
 10
910692.836
 20
7258973.426
 30
0.0
 11
910531.8
 21
7259209.779
 31
0.0
  0
ARC
  8
6
  6
CONTINUOUS
 62
     7
  5
3F
 10
911067.65972
 20
7259351.413019
 30
0.0
 40
157.41
 50
34.267931
 51
88.194761
210
0.0
220
0.0
230
1.0
  0
ARC
  8
6
  6
CONTINUOUS
 62
     7
  5
40
 10
911233.953465
 20
7259360.262525
 30
0.0
 40
15.0
 50
304.268322
 51
34.267
210
0.0
220
0.0
230
1.0
  0
LINE
  8
6
  6
CONTINUOUS
 62
     7
  5
41
 10
910534.433
 20
7259223.675
 30
0.0
 11
910531.8
 21
7259209.779
 31
0.0
  0
LINE
  8
6
  6
CONTINUOUS
 62
     7
  5
42
 10
910710.091
 20
7258912.581
 30
0.0
 11
910550.339
 21
7258803.734
 31
0.0
  0
LINE
  8
6
  6
CONTINUOUS
 62
     7
  5
43
 10
910710.091
 20
7258912.581
 30
0.0
 11
910856.489
 21
7258697.713
 31
0.0
  0
LINE
  8
6
  6
CONTINUOUS
 62
     7
  5
44
 10
910853.855
 20
7258683.819
 30
0.0
 11
910786.717
 21
7258638.074
 31
0.0
  0
LINE
  8
6
  6
CONTINUOUS
 62
     7
  5
45
 10
910492.221
 20
7258647.593
 30
0.0
 11
910786.717
 21
7258638.074
 31
0.0
  0
ARC
  8
6
  6
CONTINUOUS
 62
     7
  5
46
 10
910654.892359
 20
7258660.549772
 30
0.0
 40
177.2
 50
124.268089
 51
179.281175
210
0.0
220
0.0
230
1.0
  0
ARC
  8
6
  6
CONTINUOUS
 62
     7
  5
47
 10
910492.705124
 20
7258662.584659
 30
0.0
 40
15.0
 50
179.281175
 51
268.1488
210
0.0
220
0.0
230
1.0
  0
LINE
  8
6
  6
CONTINUOUS
 62
     7
  5
48
 10
910726.62
 20
7258923.842
 30
0.0
 11
912015.82
 21
7259802.228
 31
0.0
  0
LINE
  8
6
  6
CONTINUOUS
 62
     7
  5
49
 10
912167.849
 20
7259579.098
 30
0.0
 11
910886.912
 21
7258706.341
 31
0.0
  0
LINE
  8
6
  6
CONTINUOUS
 62
     7
  5
4A
 10
910873.018
 20
7258708.975
 30
0.0
 11
910726.62
 21
7258923.842
 31
0.0
  0
LINE
  8
6
  6
CONTINUOUS
 62
     7
  5
4B
 10
910856.489
 20
7258697.713
 30
0.0
 11
910853.855
 21
7258683.819
 31
0.0
  0
LINE
  8
6
  6
CONTINUOUS
 62
     7
  5
4C
 10
910873.018
 20
7258708.975
 30
0.0
 11
910886.912
 21
7258706.341
 31
0.0
  0
LINE
  8
6
  6
CONTINUOUS
 62
     7
  5
4D
 10
910129.407
 20
7261247.59
 30
0.0
 11
910773.842
 21
7261226.763
 31
0.0
  0
LINE
  8
6
  6
CONTINUOUS
 62
     7
  5
4E
 10
910773.842
 20
7261226.763
 30
0.0
 11
910764.635
 21
7260941.911
 31
0.0
  0
LINE
  8
6
  6
CONTINUOUS
 62
     7
  5
4F
 10
910749.158
 20
7260927.403
 30
0.0
 11
910134.599
 21
7260947.266
 31
0.0
  0
LINE
  8
6
  6
CONTINUOUS
 62
     7
  5
50
 10
910120.091
 20
7260962.743
 30
0.0
 11
910129.297
 21
7261247.594
 31
0.0
  0
LINE
  8
6
  6
CONTINUOUS
 62
     7
  5
51
 10
910829.812
 20
7261224.953
 30
0.0
 11
912109.144
 21
7261183.604
 31
0.0
  0
LINE
  8
6
  6
CONTINUOUS
 62
     7
  5
52
 10
912099.452
 20
7260883.761
 30
0.0
 11
910835.114
 21
7260924.625
 31
0.0
  0
LINE
  8
6
  6
CONTINUOUS
 62
     7
  5
53
 10
910820.605
 20
7260940.102
 30
0.0
 11
910829.812
 21
7261224.953
 31
0.0
  0
LINE
  8
6
  6
CONTINUOUS
 62
     7
  5
54
 10
910132.789
 20
7260891.295
 30
0.0
 11
911067.333
 21
7260861.091
 31
0.0
  0
LINE
  8
6
  6
CONTINUOUS
 62
     7
  5
55
 10
911081.839
 20
7260845.614
 30
0.0
 11
911072.632
 21
7260560.762
 31
0.0
  0
LINE
  8
6
  6
CONTINUOUS
 62
     7
  5
56
 10
911072.632
 20
7260560.762
 30
0.0
 11
910108.106
 21
7260591.937
 31
0.0
  0
LINE
  8
6
  6
CONTINUOUS
 62
     7
  5
57
 10
910108.106
 20
7260591.937
 30
0.0
 11
910117.313
 21
7260876.788
 31
0.0
  0
LINE
  8
6
  6
CONTINUOUS
 62
     7
  5
58
 10
911128.603
 20
7260558.954
 30
0.0
 11
912088.103
 21
7260527.942
 31
0.0
  0
LINE
  8
6
  6
CONTINUOUS
 62
     7
  5
59
 10
912097.794
 20
7260827.785
 30
0.0
 11
911153.287
 21
7260858.312
 31
0.0
  0
LINE
  8
6
  6
CONTINUOUS
 62
     7
  5
5A
 10
911137.81
 20
7260843.805
 30
0.0
 11
911128.603
 21
7260558.954
 31
0.0
  0
LINE
  8
6
  6
CONTINUOUS
 62
     7
  5
5B
 10
910107.46
 20
7260571.947
 30
0.0
 11
911071.987
 21
7260540.773
 31
0.0
  0
LINE
  8
6
  6
CONTINUOUS
 62
     7
  5
5C
 10
911071.987
 20
7260540.773
 30
0.0
 11
911062.78
 21
7260255.922
 31
0.0
  0
LINE
  8
6
  6
CONTINUOUS
 62
     7
  5
5D
 10
911127.957
 20
7260538.963
 30
0.0
 11
912030.656
 21
7260509.787
 31
0.0
  0
LINE
  8
6
  6
CONTINUOUS
 62
     7
  5
5E
 10
911857.882
 20
7260215.218
 30
0.0
 11
911133.261
 21
7260238.639
 31
0.0
  0
LINE
  8
6
  6
CONTINUOUS
 62
     7
  5
5F
 10
911118.753
 20
7260254.115
 30
0.0
 11
911127.959
 21
7260538.966
 31
0.0
  0
LINE
  8
6
  6
CONTINUOUS
 62
     7
  5
60
 10
910107.46
 20
7260571.947
 30
0.0
 11
910086.269
 21
7259916.289
 31
0.0
  0
LINE
  8
6
  6
CONTINUOUS
 62
     7
  5
61
 10
910086.269
 20
7259916.289
 30
0.0
 11
910731.243
 21
7259895.443
 31
0.0
  0
LINE
  8
6
  6
CONTINUOUS
 62
     7
  5
62
 10
910731.243
 20
7259895.443
 30
0.0
 11
910740.449
 21
7260180.295
 31
0.0
  0
LINE
  8
6
  6
CONTINUOUS
 62
     7
  5
63
 10
910787.211
 20
7259893.635
 30
0.0
 11
911451.076
 21
7259872.178
 31
0.0
  0
LINE
  8
6
  6
CONTINUOUS
 62
     7
  5
64
 10
911451.076
 20
7259872.178
 30
0.0
 11
911871.661
 21
7260158.739
 31
0.0
  0
LINE
  8
6
  6
CONTINUOUS
 62
     7
  5
65
 10
911871.661
 20
7260158.739
 30
0.0
 11
910811.895
 21
7260192.992
 31
0.0
  0
LINE
  8
6
  6
CONTINUOUS
 62
     7
  5
66
 10
912102.511
 20
7259952.048
 30
0.0
 11
912008.382
 21
7260090.199
 31
0.0
  0
ARC
  8
6
  6
CONTINUOUS
 62
     7
  5
67
 10
911878.296872
 20
7260001.56577
 30
0.0
 40
157.41
 50
34.2683
 51
80.580506
210
0.0
220
0.0
230
1.0
  0
LINE
  8
6
  6
CONTINUOUS
 62
     7
  5
68
 10
911292.628
 20
7259400.24
 30
0.0
 11
911239.845
 21
7259477.709
 31
0.0
  0
LINE
  8
6
  6
CONTINUOUS
 62
     7
  5
69
 10
910091.052
 20
7259596.518
 30
0.0
 11
910706.171
 21
7259576.637
 31
0.0
  0
LINE
  8
6
  6
CONTINUOUS
 62
     7
  5
6A
 10
910721.647
 20
7259591.144
 30
0.0
 11
910730.853
 21
7259875.995
 31
0.0
  0
LINE
  8
6
  6
CONTINUOUS
 62
     7
  5
6B
 10
910085.751
 20
7259896.846
 30
0.0
 11
910076.544
 21
7259611.995
 31
0.0
  0
LINE
  8
6
  6
CONTINUOUS
 62
     7
  5
6C
 10
910791.885
 20
7259573.867
 30
0.0
 11
911002.706
 21
7259567.053
 31
0.0
  0
LINE
  8
6
  6
CONTINUOUS
 62
     7
  5
6D
 10
910796.418
 20
7260178.485
 30
0.0
 11
910787.211
 21
7259893.635
 31
0.0
  0
LINE
  8
6
  6
CONTINUOUS
 62
     7
  5
6E
 10
910786.584
 20
7259874.194
 30
0.0
 11
910777.377
 21
7259589.343
 31
0.0
  0
LINE
  8
6
  6
CONTINUOUS
 62
     7
  5
6F
 10
910730.853
 20
7259875.995
 30
0.0
 11
910085.751
 21
7259896.846
 31
0.0
  0
LINE
  8
6
  6
CONTINUOUS
 62
     7
  5
70
 10
911413.056
 20
7259853.946
 30
0.0
 11
911414.829
 21
7259847.85
 31
0.0
  0
LINE
  8
6
  6
CONTINUOUS
 62
     7
  5
71
 10
911413.056
 20
7259853.946
 30
0.0
 11
910786.584
 21
7259874.194
 31
0.0
  0
LINE
  8
6
  6
CONTINUOUS
 62
     7
  5
72
 10
911002.706
 20
7259567.053
 30
0.0
 11
911414.829
 21
7259847.85
 31
0.0
  0
LINE
  8
6
  6
CONTINUOUS
 62
     7
  5
73
 10
911036.792
 20
7259565.951
 30
0.0
 11
911074.388
 21
7259564.736
 31
0.0
  0
ARC
  8
6
  6
CONTINUOUS
 62
     7
  5
74
 10
911067.494129
 20
7259351.437242
 30
0.0
 40
213.41
 50
36.230625
 51
88.1488
210
0.0
220
0.0
230
1.0
  0
LINE
  8
6
  6
CONTINUOUS
 62
     7
  5
75
 10
910534.433
 20
7259223.675
 30
0.0
 11
910958.282
 21
7259512.459
 31
0.0
  0
LINE
  8
6
  6
CONTINUOUS
 62
     7
  5
76
 10
911857.882
 20
7260215.218
 30
0.0
 11
911884.498
 21
7260214.358
 31
0.0
  0
LINE
  8
6
  6
CONTINUOUS
 62
     7
  5
77
 10
912049.751
 20
7260127.193
 30
0.0
 11
912147.976
 21
7259983.026
 31
0.0
  0
LINE
  8
6
  6
CONTINUOUS
 62
     7
  5
78
 10
911047.303
 20
7260241.413
 30
0.0
 11
910304.111
 21
7260265.434
 31
0.0
  0
LINE
  8
6
  6
CONTINUOUS
 62
     7
  5
79
 10
910725.942
 20
7260195.772
 30
0.0
 11
910302.583
 21
7260209.454
 31
0.0
  0
ARC
  8
6
  6
CONTINUOUS
 62
     7
  5
7A
 10
910261.945224
 20
7260238.575546
 30
0.0
 40
49.993907
 50
32.496386
 51
324.374272
210
0.0
220
0.0
230
1.0
  0
ARC
  8
6
  6
CONTINUOUS
 62
     7
  5
7B
 10
910725.456609
 20
7260180.779232
 30
0.0
 40
15.0
 50
358.1488
 51
88.1488
210
0.0
220
0.0
230
1.0
  0
ARC
  8
6
  6
CONTINUOUS
 62
     7
  5
7C
 10
910811.410693
 20
7260178.000128
 30
0.0
 40
15.0
 50
88.1488
 51
178.1488
210
0.0
220
0.0
230
1.0
  0
ARC
  8
6
  6
CONTINUOUS
 62
     7
  5
7D
 10
910706.654942
 20
7259591.629118
 30
0.0
 40
15.0
 50
268.1488
 51
358.1488
210
0.0
220
0.0
230
1.0
  0
ARC
  8
6
  6
CONTINUOUS
 62
     7
  5
7E
 10
910792.369183
 20
7259588.858766
 30
0.0
 40
15.0
 50
178.1488
 51
268.1488
210
0.0
220
0.0
230
1.0
  0
ARC
  8
6
  6
CONTINUOUS
 62
     7
  5
7F
 10
910091.536145
 20
7259611.510239
 30
0.0
 40
15.0
 50
178.1488
 51
268.1488
210
0.0
220
0.0
230
1.0
  0
ARC
  8
6
  6
CONTINUOUS
 62
     7
  5
80
 10
911305.024291
 20
7259408.685888
 30
0.0
 40
15.0
 50
214.268064
 51
304.268186
210
0.0
220
0.0
230
1.0
  0
ARC
  8
6
  6
CONTINUOUS
 62
     7
  5
81
 10
912090.114256
 20
7259943.601496
 30
0.0
 40
15.0
 50
304.622833
 51
34.26785
210
0.0
220
0.0
230
1.0
  0
ARC
  8
6
  6
CONTINUOUS
 62
     7
  5
82
 10
911047.787881
 20
7260256.406141
 30
0.0
 40
15.0
 50
268.1488
 51
358.1488
210
0.0
220
0.0
230
1.0
  0
ARC
  8
6
  6
CONTINUOUS
 62
     7
  5
83
 10
911133.745093
 20
7260253.630938
 30
0.0
 40
15.0
 50
178.1488
 51
268.1488
210
0.0
220
0.0
230
1.0
  0
ARC
  8
6
  6
CONTINUOUS
 62
     7
  5
84
 10
911066.847191
 20
7260846.098215
 30
0.0
 40
15.0
 50
358.1488
 51
88.1488
210
0.0
220
0.0
230
1.0
  0
ARC
  8
6
  6
CONTINUOUS
 62
     7
  5
85
 10
911152.802307
 20
7260843.320079
 30
0.0
 40
15.0
 50
88.1488
 51
178.1488
210
0.0
220
0.0
230
1.0
  0
ARC
  8
6
  6
CONTINUOUS
 62
     7
  5
86
 10
910132.30519
 20
7260876.303344
 30
0.0
 40
15.0
 50
88.1488
 51
178.1488
210
0.0
220
0.0
230
1.0
  0
ARC
  8
6
  6
CONTINUOUS
 62
     7
  5
87
 10
910135.083327
 20
7260962.25846
 30
0.0
 40
15.0
 50
178.1488
 51
268.1488
210
0.0
220
0.0
230
1.0
  0
ARC
  8
6
  6
CONTINUOUS
 62
     7
  5
88
 10
910749.642416
 20
7260942.395429
 30
0.0
 40
15.0
 50
268.1488
 51
358.1488
210
0.0
220
0.0
230
1.0
  0
ARC
  8
6
  6
CONTINUOUS
 62
     7
  5
89
 10
910835.597532
 20
7260939.617293
 30
0.0
 40
15.0
 50
178.1488
 51
268.1488
210
0.0
220
0.0
230
1.0
  0
LINE
  8
6
  6
CONTINUOUS
 62
     7
  5
8A
 10
912592.136
 20
7259868.182
 30
0.0
 11
912167.849
 21
7259579.098
 31
0.0
  0
LINE
  8
6
  6
CONTINUOUS
 62
     7
  5
8B
 10
912592.136
 20
7259868.182
 30
0.0
 11
912600.027
 21
7259900.781
 31
0.0
  0
LINE
  8
6
  6
CONTINUOUS
 62
     7
  5
8C
 10
912600.027
 20
7259900.781
 30
0.0
 11
912665.736
 21
7259936.48
 31
0.0
  0
LINE
  8
6
  6
CONTINUOUS
 62
     7
  5
8D
 10
912665.736
 20
7259936.48
 30
0.0
 11
912686.575
 21
7259932.53
 31
0.0
  0
LINE
  8
6
  6
CONTINUOUS
 62
     7
  5
8E
 10
912686.575
 20
7259932.53
 30
0.0
 11
914442.342
 21
7261128.808
 31
0.0
  0
LINE
  8
6
  6
CONTINUOUS
 62
     7
  5
8F
 10
914476.252
 20
7261127.712
 30
0.0
 11
910075.102
 21
7261269.96
 31
0.0
  0
LINE
  8
6
  6
CONTINUOUS
 62
     7
  5
90
 10
913782.915
 20
7261150.122
 30
0.0
 11
913781.528
 21
7261107.17
 31
0.0
  0
LINE
  8
6
  6
CONTINUOUS
 62
     7
  5
91
 10
912015.82
 20
7259802.228
 30
0.0
 11
913691.971
 21
7260944.26
 31
0.0
  0
ARC
  8
6
  6
CONTINUOUS
 62
     7
  5
92
 10
913576.583647
 20
7261113.762469
 30
0.0
 40
205.05
 50
304.244747
 51
358.157497
210
0.0
220
0.0
230
1.0
  0
LINE
  8
6
  6
CONTINUOUS
 62
     7
  5
93
 10
911313.47
 20
7259396.29
 30
0.0
 11
912098.637
 21
7259931.258
 31
0.0
  0
ARC
  8
6
  6
CONTINUOUS
 62
     7
  5
94
 10
912160.372368
 20
7259991.471711
 30
0.0
 40
15.0
 50
214.269625
 51
304.269114
210
0.0
220
0.0
230
1.0
  0
LINE
  8
6
  6
CONTINUOUS
 62
     7
  5
95
 10
912168.817
 20
7259979.075
 30
0.0
 11
913657.374
 21
7260993.291
 31
0.0
  0
ARC
  8
6
  6
CONTINUOUS
 62
     7
  5
96
 10
913576.583647
 20
7261113.762469
 30
0.0
 40
145.05
 50
304.244747
 51
357.868656
210
0.0
220
0.0
230
1.0
  0
LINE
  8
6
  6
CONTINUOUS
 62
     7
  5
97
 10
911036.792
 20
7259565.951
 30
0.0
 11
911904.059
 21
7260156.853
 31
0.0
  0
LINE
  8
6
  6
CONTINUOUS
 62
     7
  5
98
 10
911962.667
 20
7260196.785
 30
0.0
 11
913253.478
 21
7261076.265
 31
0.0
  0
LINE
  8
6
  6
CONTINUOUS
 62
     7
  5
99
 10
912109.144
 20
7261183.604
 30
0.0
 11
912534.23
 21
7261169.865
 31
0.0
  0
LINE
  8
6
  6
CONTINUOUS
 62
     7
  5
9A
 10
912099.452
 20
7260883.761
 30
0.0
 11
912121.371
 21
7260883.053
 31
0.0
  0
ARC
  8
6
  6
CONTINUOUS
 62
     7
  5
9B
 10
912127.659272
 20
7261077.600656
 30
0.0
 40
194.65
 50
268.1488
 51
310.612139
210
0.0
220
0.0
230
1.0
  0
LINE
  8
6
  6
CONTINUOUS
 62
     7
  5
9C
 10
912254.364
 20
7260929.835
 30
0.0
 11
912482.435
 21
7261132.672
 31
0.0
  0
ARC
  8
6
  6
CONTINUOUS
 62
     7
  5
9D
 10
912686.268672
 20
7260903.479301
 30
0.0
 40
306.72
 50
119.715442
 51
131.648425
210
0.0
220
0.0
230
1.0
  0
LINE
  8
6
  6
CONTINUOUS
 62
     7
  5
9E
 10
912097.794
 20
7260827.785
 30
0.0
 11
912119.713
 21
7260827.076
 31
0.0
  0
ARC
  8
6
  6
CONTINUOUS
 62
     7
  5
9F
 10
912127.659272
 20
7261077.600656
 30
0.0
 40
250.65
 50
268.1488
 51
310.612139
210
0.0
220
0.0
230
1.0
  0
LINE
  8
6
  6
CONTINUOUS
 62
     7
  5
A0
 10
912291.58
 20
7260887.991
 30
0.0
 11
912519.652
 21
7261090.827
 31
0.0
  0
LINE
  8
6
  6
CONTINUOUS
 62
     7
  5
A1
 10
912088.103
 20
7260527.942
 30
0.0
 11
912398.521
 21
7260517.909
 31
0.0
  0
LINE
  8
6
  6
CONTINUOUS
 62
     7
  5
A2
 10
912398.521
 20
7260517.909
 30
0.0
 11
913233.865
 21
7261087.064
 31
0.0
  0
LINE
  8
6
  6
CONTINUOUS
 62
     7
  5
A3
 10
913233.865
 20
7261087.064
 30
0.0
 11
913235.547
 21
7261139.146
 31
0.0
  0
LINE
  8
6
  6
CONTINUOUS
 62
     7
  5
A4
 10
913235.547
 20
7261139.146
 30
0.0
 11
912697.138
 21
7261156.548
 31
0.0
  0
ARC
  8
6
  6
CONTINUOUS
 62
     7
  5
A5
 10
912688.747032
 20
7260906.689325
 30
0.0
 40
250.0
 50
88.076383
 51
132.561694
210
0.0
220
0.0
230
1.0
  0
LINE
  8
6
  6
CONTINUOUS
 62
     7
  5
A6
 10
913253.478
 20
7261076.265
 30
0.0
 11
913255.49
 21
7261138.513
 31
0.0
  0
LINE
  8
6
  6
CONTINUOUS
 62
     7
  5
A7
 10
913255.49
 20
7261138.513
 30
0.0
 11
913707.027
 21
7261123.918
 31
0.0
  0
ARC
  8
6
  6
CONTINUOUS
 62
     7
  5
A8
 10
913706.543678
 20
7261108.925859
 30
0.0
 40
15.0
 50
357.868656
 51
88.1488
210
0.0
220
0.0
230
1.0
  0
LINE
  8
6
  6
CONTINUOUS
 62
     7
  5
A9
 10
912030.656
 20
7260509.787
 30
0.0
 11
912340.494
 21
7260499.774
 31
0.0
  0
LINE
  8
6
  6
CONTINUOUS
 62
     7
  5
AA
 10
912340.494
 20
7260499.774
 30
0.0
 11
912345.685
 21
7260481.912
 31
0.0
  0
LINE
  8
6
  6
CONTINUOUS
 62
     7
  5
AB
 10
912345.685
 20
7260481.912
 30
0.0
 11
911939.638
 21
7260205.255
 31
0.0
  0
ARC
  8
6
  6
CONTINUOUS
 62
     7
  5
AC
 10
911877.604275
 20
7260001.059556
 30
0.0
 40
213.41
 50
73.101522
 51
88.1488
210
0.0
220
0.0
230
1.0
  0
ARC
  8
6
  6
CONTINUOUS
 62
     7
  5
AD
 10
911877.604275
 20
7260001.059556
 30
0.0
 40
213.41
 50
36.230625
 51
66.510317
210
0.0
220
0.0
230
1.0
  0
LINE
  8
7
  6
CONTINUOUS
 62
     7
  5
AF
 10
910293.982
 20
7261242.271
 30
0.0
 11
910284.291
 21
7260942.429
 31
0.0
  0
LINE
  8
7
  6
CONTINUOUS
 62
     7
  5
B0
 10
910453.898
 20
7261237.103
 30
0.0
 11
910444.207
 21
7260937.26
 31
0.0
  0
LINE
  8
7
  6
CONTINUOUS
 62
     7
  5
B1
 10
910613.814
 20
7261231.934
 30
0.0
 11
910604.124
 21
7260932.09
 31
0.0
  0
LINE
  8
7
  6
CONTINUOUS
 62
     7
  5
B2
 10
910989.728
 20
7261219.785
 30
0.0
 11
910980.037
 21
7260919.941
 31
0.0
  0
LINE
  8
7
  6
CONTINUOUS
 62
     7
  5
B3
 10
911149.646
 20
7261214.617
 30
0.0
 11
911139.954
 21
7260914.773
 31
0.0
  0
LINE
  8
7
  6
CONTINUOUS
 62
     7
  5
B4
 10
911309.561
 20
7261209.447
 30
0.0
 11
911299.87
 21
7260909.604
 31
0.0
  0
LINE
  8
7
  6
CONTINUOUS
 62
     7
  5
B5
 10
911469.478
 20
7261204.278
 30
0.0
 11
911459.787
 21
7260904.435
 31
0.0
  0
LINE
  8
7
  6
CONTINUOUS
 62
     7
  5
B6
 10
911629.395
 20
7261199.11
 30
0.0
 11
911619.703
 21
7260899.267
 31
0.0
  0
LINE
  8
7
  6
CONTINUOUS
 62
     7
  5
B7
 10
911789.311
 20
7261193.941
 30
0.0
 11
911779.62
 21
7260894.098
 31
0.0
  0
LINE
  8
7
  6
CONTINUOUS
 62
     7
  5
B8
 10
911949.227
 20
7261188.772
 30
0.0
 11
911939.536
 21
7260888.929
 31
0.0
  0
LINE
  8
7
  6
CONTINUOUS
 62
     7
  5
B9
 10
912109.144
 20
7261183.604
 30
0.0
 11
912099.452
 21
7260883.761
 31
0.0
  0
LINE
  8
7
  6
CONTINUOUS
 62
     7
  5
BA
 10
912264.983
 20
7261178.567
 30
0.0
 11
912257.024
 21
7260932.326
 31
0.0
  0
LINE
  8
7
  6
CONTINUOUS
 62
     7
  5
BB
 10
910273.05
 20
7260586.606
 30
0.0
 11
910282.742
 21
7260886.449
 31
0.0
  0
LINE
  8
7
  6
CONTINUOUS
 62
     7
  5
BC
 10
910432.966
 20
7260581.437
 30
0.0
 11
910442.657
 21
7260881.281
 31
0.0
  0
LINE
  8
7
  6
CONTINUOUS
 62
     7
  5
BD
 10
910592.883
 20
7260576.268
 30
0.0
 11
910602.575
 21
7260876.111
 31
0.0
  0
LINE
  8
7
  6
CONTINUOUS
 62
     7
  5
BE
 10
910752.8
 20
7260571.1
 30
0.0
 11
910762.491
 21
7260870.943
 31
0.0
  0
LINE
  8
7
  6
CONTINUOUS
 62
     7
  5
BF
 10
910912.716
 20
7260565.932
 30
0.0
 11
910922.408
 21
7260865.775
 31
0.0
  0
LINE
  8
7
  6
CONTINUOUS
 62
     7
  5
C0
 10
911288.52
 20
7260553.785
 30
0.0
 11
911298.211
 21
7260853.628
 31
0.0
  0
LINE
  8
7
  6
CONTINUOUS
 62
     7
  5
C1
 10
911458.128
 20
7260848.459
 30
0.0
 11
911448.436
 21
7260548.615
 31
0.0
  0
LINE
  8
7
  6
CONTINUOUS
 62
     7
  5
C2
 10
911608.353
 20
7260543.447
 30
0.0
 11
911618.045
 21
7260843.291
 31
0.0
  0
LINE
  8
7
  6
CONTINUOUS
 62
     7
  5
C3
 10
911768.269
 20
7260538.279
 30
0.0
 11
911777.96
 21
7260838.123
 31
0.0
  0
LINE
  8
7
  6
CONTINUOUS
 62
     7
  5
C4
 10
911928.186
 20
7260533.11
 30
0.0
 11
911937.877
 21
7260832.953
 31
0.0
  0
LINE
  8
7
  6
CONTINUOUS
 62
     7
  5
C5
 10
912088.103
 20
7260527.942
 30
0.0
 11
912097.794
 21
7260827.785
 31
0.0
  0
LINE
  8
7
  6
CONTINUOUS
 62
     7
  5
C6
 10
912268.009
 20
7260522.127
 30
0.0
 11
912279.513
 21
7260878.071
 31
0.0
  0
LINE
  8
7
  6
CONTINUOUS
 62
     7
  5
C7
 10
912449.08
 20
7260552.358
 30
0.0
 11
912464.904
 21
7261041.961
 31
0.0
  0
LINE
  8
7
  6
CONTINUOUS
 62
     7
  5
C8
 10
912628.899
 20
7260674.876
 30
0.0
 11
912644.339
 21
7261152.556
 31
0.0
  0
LINE
  8
7
  6
CONTINUOUS
 62
     7
  5
C9
 10
912833.511
 20
7260814.286
 30
0.0
 11
912844.417
 21
7261151.719
 31
0.0
  0
LINE
  8
7
  6
CONTINUOUS
 62
     7
  5
CA
 10
910272.413
 20
7260566.615
 30
0.0
 11
910263.433
 21
7260288.761
 31
0.0
  0
LINE
  8
7
  6
CONTINUOUS
 62
     7
  5
CB
 10
910432.331
 20
7260561.447
 30
0.0
 11
910422.64
 21
7260261.604
 31
0.0
  0
LINE
  8
7
  6
CONTINUOUS
 62
     7
  5
CC
 10
910592.248
 20
7260556.278
 30
0.0
 11
910582.556
 21
7260256.435
 31
0.0
  0
LINE
  8
7
  6
CONTINUOUS
 62
     7
  5
CD
 10
910752.163
 20
7260551.11
 30
0.0
 11
910742.472
 21
7260251.267
 31
0.0
  0
LINE
  8
7
  6
CONTINUOUS
 62
     7
  5
CE
 10
910912.081
 20
7260545.941
 30
0.0
 11
910902.39
 21
7260246.097
 31
0.0
  0
LINE
  8
7
  6
CONTINUOUS
 62
     7
  5
CF
 10
911287.874
 20
7260533.795
 30
0.0
 11
911278.183
 21
7260233.952
 31
0.0
  0
LINE
  8
7
  6
CONTINUOUS
 62
     7
  5
D0
 10
911447.79
 20
7260528.627
 30
0.0
 11
911438.099
 21
7260228.783
 31
0.0
  0
LINE
  8
7
  6
CONTINUOUS
 62
     7
  5
D1
 10
911607.706
 20
7260523.458
 30
0.0
 11
911598.016
 21
7260223.614
 31
0.0
  0
LINE
  8
7
  6
CONTINUOUS
 62
     7
  5
D2
 10
911767.624
 20
7260518.289
 30
0.0
 11
911757.933
 21
7260218.445
 31
0.0
  0
LINE
  8
7
  6
CONTINUOUS
 62
     7
  5
D3
 10
911857.88
 20
7260215.215
 30
0.0
 11
912030.654
 21
7260509.784
 31
0.0
  0
LINE
  8
7
  6
CONTINUOUS
 62
     7
  5
D4
 10
910096.865
 20
7260244.118
 30
0.0
 11
910211.984
 21
7260240.398
 31
0.0
  0
LINE
  8
7
  6
CONTINUOUS
 62
     7
  5
D5
 10
910251.493
 20
7259910.949
 30
0.0
 11
910260.473
 21
7260188.804
 31
0.0
  0
LINE
  8
7
  6
CONTINUOUS
 62
     7
  5
D6
 10
910411.41
 20
7259905.781
 30
0.0
 11
910421.1
 21
7260205.624
 31
0.0
  0
LINE
  8
7
  6
CONTINUOUS
 62
     7
  5
D7
 10
910571.325
 20
7259900.612
 30
0.0
 11
910581.017
 21
7260200.456
 31
0.0
  0
LINE
  8
7
  6
CONTINUOUS
 62
     7
  5
D8
 10
910947.128
 20
7259888.467
 30
0.0
 11
910956.819
 21
7260188.309
 31
0.0
  0
LINE
  8
7
  6
CONTINUOUS
 62
     7
  5
D9
 10
911107.045
 20
7259883.297
 30
0.0
 11
911116.736
 21
7260183.14
 31
0.0
  0
LINE
  8
7
  6
CONTINUOUS
 62
     7
  5
DA
 10
911266.962
 20
7259878.128
 30
0.0
 11
911276.653
 21
7260177.972
 31
0.0
  0
LINE
  8
7
  6
CONTINUOUS
 62
     7
  5
DB
 10
911426.877
 20
7259872.96
 30
0.0
 11
911436.569
 21
7260172.804
 31
0.0
  0
LINE
  8
7
  6
CONTINUOUS
 62
     7
  5
DC
 10
910250.985
 20
7259891.506
 30
0.0
 11
910241.293
 21
7259591.663
 31
0.0
  0
LINE
  8
7
  6
CONTINUOUS
 62
     7
  5
DD
 10
910401.21
 20
7259586.494
 30
0.0
 11
910410.901
 21
7259886.336
 31
0.0
  0
LINE
  8
7
  6
CONTINUOUS
 62
     7
  5
DE
 10
910561.126
 20
7259581.325
 30
0.0
 11
910570.818
 21
7259881.168
 31
0.0
  0
LINE
  8
7
  6
CONTINUOUS
 62
     7
  5
DF
 10
911011.466
 20
7259866.926
 30
0.0
 11
910906.824
 21
7259570.154
 31
0.0
  0
LINE
  8
7
  6
CONTINUOUS
 62
     7
  5
E0
 10
910229.954
 20
7259235.844
 30
0.0
 11
910239.645
 21
7259535.688
 31
0.0
  0
LINE
  8
7
  6
CONTINUOUS
 62
     7
  5
E1
 10
910389.871
 20
7259230.675
 30
0.0
 11
910399.562
 21
7259530.518
 31
0.0
  0
LINE
  8
7
  6
CONTINUOUS
 62
     7
  5
E2
 10
910550.872
 20
7259259.171
 30
0.0
 11
910559.475
 21
7259525.352
 31
0.0
  0
LINE
  8
7
  6
CONTINUOUS
 62
     7
  5
E3
 10
910825.062
 20
7259063.516
 30
0.0
 11
910658.393
 21
7259308.134
 31
0.0
  0
LINE
  8
7
  6
CONTINUOUS
 62
     7
  5
E4
 10
910957.287
 20
7259153.607
 30
0.0
 11
910790.619
 21
7259398.224
 31
0.0
  0
LINE
  8
7
  6
CONTINUOUS
 62
     7
  5
E5
 10
911089.513
 20
7259243.698
 30
0.0
 11
910922.845
 21
7259488.316
 31
0.0
  0
LINE
  8
7
  6
CONTINUOUS
 62
     7
  5
E6
 10
911274.922
 20
7259728.199
 30
0.0
 11
911441.59
 21
7259483.581
 31
0.0
  0
LINE
  8
7
  6
CONTINUOUS
 62
     7
  5
E7
 10
911573.816
 20
7259573.673
 30
0.0
 11
911407.148
 21
7259818.29
 31
0.0
  0
LINE
  8
7
  6
CONTINUOUS
 62
     7
  5
E8
 10
911706.04
 20
7259663.762
 30
0.0
 11
911539.372
 21
7259908.38
 31
0.0
  0
LINE
  8
7
  6
CONTINUOUS
 62
     7
  5
E9
 10
911838.266
 20
7259753.853
 30
0.0
 11
911671.598
 21
7259998.471
 31
0.0
  0
LINE
  8
7
  6
CONTINUOUS
 62
     7
  5
EA
 10
911970.492
 20
7259843.944
 30
0.0
 11
911803.823
 21
7260088.562
 31
0.0
  0
LINE
  8
7
  6
CONTINUOUS
 62
     7
  5
EB
 10
910858.845
 20
7259013.932
 30
0.0
 11
911010.874
 21
7258790.802
 31
0.0
  0
LINE
  8
7
  6
CONTINUOUS
 62
     7
  5
EC
 10
911143.1
 20
7258880.892
 30
0.0
 11
910991.071
 21
7259104.024
 31
0.0
  0
LINE
  8
7
  6
CONTINUOUS
 62
     7
  5
ED
 10
911267.06
 20
7258965.354
 30
0.0
 11
911115.032
 21
7259188.484
 31
0.0
  0
LINE
  8
7
  6
CONTINUOUS
 62
     7
  5
EE
 10
911399.286
 20
7259055.444
 30
0.0
 11
911247.257
 21
7259278.576
 31
0.0
  0
LINE
  8
7
  6
CONTINUOUS
 62
     7
  5
EF
 10
911523.246
 20
7259139.904
 30
0.0
 11
911371.218
 21
7259363.035
 31
0.0
  0
LINE
  8
7
  6
CONTINUOUS
 62
     7
  5
F0
 10
911655.472
 20
7259229.995
 30
0.0
 11
911503.444
 21
7259453.125
 31
0.0
  0
LINE
  8
7
  6
CONTINUOUS
 62
     7
  5
F1
 10
911779.433
 20
7259314.455
 30
0.0
 11
911627.405
 21
7259537.586
 31
0.0
  0
LINE
  8
7
  6
CONTINUOUS
 62
     7
  5
F2
 10
911911.658
 20
7259404.546
 30
0.0
 11
911759.63
 21
7259627.677
 31
0.0
  0
LINE
  8
7
  6
CONTINUOUS
 62
     7
  5
F3
 10
912035.62
 20
7259489.007
 30
0.0
 11
911883.592
 21
7259712.137
 31
0.0
  0
LINE
  8
7
  6
CONTINUOUS
 62
     7
  5
F4
 10
912167.845
 20
7259579.098
 30
0.0
 11
912015.816
 21
7259802.228
 31
0.0
  0
LINE
  8
7
  6
CONTINUOUS
 62
     7
  5
F5
 10
912300.069
 20
7259669.187
 30
0.0
 11
912148.042
 21
7259892.319
 31
0.0
  0
LINE
  8
7
  6
CONTINUOUS
 62
     7
  5
F6
 10
912432.295
 20
7259759.279
 30
0.0
 11
912280.267
 21
7259982.409
 31
0.0
  0
LINE
  8
7
  6
CONTINUOUS
 62
     7
  5
F7
 10
912564.52
 20
7259849.37
 30
0.0
 11
912412.493
 21
7260072.5
 31
0.0
  0
LINE
  8
7
  6
CONTINUOUS
 62
     7
  5
F8
 10
912935.381
 20
7260102.052
 30
0.0
 11
912783.352
 21
7260325.182
 31
0.0
  0
LINE
  8
7
  6
CONTINUOUS
 62
     7
  5
F9
 10
913059.342
 20
7260186.512
 30
0.0
 11
912907.314
 21
7260409.642
 31
0.0
  0
LINE
  8
7
  6
CONTINUOUS
 62
     7
  5
FA
 10
913183.303
 20
7260270.973
 30
0.0
 11
913031.274
 21
7260494.104
 31
0.0
  0
LINE
  8
7
  6
CONTINUOUS
 62
     7
  5
FB
 10
913307.266
 20
7260355.432
 30
0.0
 11
913155.237
 21
7260578.563
 31
0.0
  0
LINE
  8
7
  6
CONTINUOUS
 62
     7
  5
FC
 10
913431.225
 20
7260439.894
 30
0.0
 11
913279.198
 21
7260663.024
 31
0.0
  0
LINE
  8
7
  6
CONTINUOUS
 62
     7
  5
FD
 10
913555.187
 20
7260524.354
 30
0.0
 11
913403.159
 21
7260747.484
 31
0.0
  0
LINE
  8
7
  6
CONTINUOUS
 62
     7
  5
FE
 10
913679.148
 20
7260608.815
 30
0.0
 11
913527.12
 21
7260831.945
 31
0.0
  0
LINE
  8
7
  6
CONTINUOUS
 62
     7
  5
FF
 10
913803.109
 20
7260693.275
 30
0.0
 11
913651.082
 21
7260916.406
 31
0.0
  0
LINE
  8
7
  6
CONTINUOUS
 62
     7
  5
100
 10
914109.104
 20
7260901.763
 30
0.0
 11
913756.222
 21
7261014.979
 31
0.0
  0
LINE
  8
7
  6
CONTINUOUS
 62
     7
  5
101
 10
912288.648
 20
7260060.721
 30
0.0
 11
912121.98
 21
7260305.338
 31
0.0
  0
LINE
  8
7
  6
CONTINUOUS
 62
     7
  5
102
 10
912420.874
 20
7260150.811
 30
0.0
 11
912254.206
 21
7260395.429
 31
0.0
  0
LINE
  8
7
  6
CONTINUOUS
 62
     7
  5
103
 10
912553.098
 20
7260240.901
 30
0.0
 11
912386.431
 21
7260485.519
 31
0.0
  0
LINE
  8
7
  6
CONTINUOUS
 62
     7
  5
104
 10
912916.637
 20
7260488.595
 30
0.0
 11
912749.969
 21
7260733.213
 31
0.0
  0
LINE
  8
7
  6
CONTINUOUS
 62
     7
  5
105
 10
913048.861
 20
7260578.686
 30
0.0
 11
912882.195
 21
7260823.304
 31
0.0
  0
LINE
  8
7
  6
CONTINUOUS
 62
     7
  5
106
 10
913181.088
 20
7260668.777
 30
0.0
 11
913014.419
 21
7260913.394
 31
0.0
  0
LINE
  8
7
  6
CONTINUOUS
 62
     7
  5
107
 10
913313.313
 20
7260758.867
 30
0.0
 11
913146.644
 21
7261003.484
 31
0.0
  0
LINE
  8
7
  6
CONTINUOUS
 62
     7
  5
108
 10
913528.179
 20
7260905.264
 30
0.0
 11
913253.382
 21
7261076.212
 31
0.0
  0
TEXT
  8
10
  6
CONTINUOUS
 62
   134
  5
109
 10
910211.644
 20
7261082.642
 30
0.0
 40
13.999
  1
1
 50
358.1488
  7
ROMANS
 11
910212.096222
 21
7261096.633694
 31
0.0
210
0.0
220
0.0
230
1.0
 73
     3
  0
TEXT
  8
10
  6
CONTINUOUS
 62
   134
  5
10A
 10
910374.341
 20
7261077.384
 30
0.0
 40
13.999
  1
2
 50
358.1488
  7
ROMANS
 11
910374.793222
 21
7261091.375694
 31
0.0
210
0.0
220
0.0
230
1.0
 73
     3
  0
TEXT
  8
10
  6
CONTINUOUS
 62
   134
  5
10B
 10
910530.261
 20
7261072.344
 30
0.0
 40
13.999
  1
3
 50
358.1488
  7
ROMANS
 11
910530.713222
 21
7261086.335694
 31
0.0
210
0.0
220
0.0
230
1.0
 73
     3
  0
TEXT
  8
10
  6
CONTINUOUS
 62
   134
  5
10C
 10
910688.438
 20
7261067.232
 30
0.0
 40
13.999
  1
4
 50
358.1488
  7
ROMANS
 11
910688.890222
 21
7261081.223694
 31
0.0
210
0.0
220
0.0
230
1.0
 73
     3
  0
TEXT
  8
10
  6
CONTINUOUS
 62
   134
  5
10D
 10
910903.109
 20
7261060.293
 30
0.0
 40
13.999
  1
5
 50
358.1488
  7
ROMANS
 11
910903.561222
 21
7261074.284694
 31
0.0
210
0.0
220
0.0
230
1.0
 73
     3
  0
TEXT
  8
10
  6
CONTINUOUS
 62
   134
  5
10E
 10
911065.806
 20
7261055.035
 30
0.0
 40
13.999
  1
6
 50
358.1488
  7
ROMANS
 11
911066.258222
 21
7261069.026694
 31
0.0
210
0.0
220
0.0
230
1.0
 73
     3
  0
TEXT
  8
10
  6
CONTINUOUS
 62
   134
  5
10F
 10
911221.723
 20
7261049.996
 30
0.0
 40
13.999
  1
7
 50
358.1488
  7
ROMANS
 11
911222.175222
 21
7261063.987694
 31
0.0
210
0.0
220
0.0
230
1.0
 73
     3
  0
TEXT
  8
10
  6
CONTINUOUS
 62
   134
  5
110
 10
911386.682
 20
7261044.664
 30
0.0
 40
13.999
  1
8
 50
358.1488
  7
ROMANS
 11
911387.134222
 21
7261058.655694
 31
0.0
210
0.0
220
0.0
230
1.0
 73
     3
  0
TEXT
  8
10
  6
CONTINUOUS
 62
   134
  5
111
 10
911549.379
 20
7261039.405
 30
0.0
 40
13.999
  1
9
 50
358.1488
  7
ROMANS
 11
911549.831222
 21
7261053.396694
 31
0.0
210
0.0
220
0.0
230
1.0
 73
     3
  0
TEXT
  8
10
  6
CONTINUOUS
 62
   134
  5
112
 10
911705.297
 20
7261034.366
 30
0.0
 40
13.999
  1
10
 50
358.1488
  7
ROMANS
 11
911705.749222
 21
7261048.357694
 31
0.0
210
0.0
220
0.0
230
1.0
 73
     3
  0
TEXT
  8
10
  6
CONTINUOUS
 62
   134
  5
113
 10
911861.216
 20
7261029.327
 30
0.0
 40
13.999
  1
11
 50
358.1488
  7
ROMANS
 11
911861.668222
 21
7261043.318694
 31
0.0
210
0.0
220
0.0
230
1.0
 73
     3
  0
TEXT
  8
10
  6
CONTINUOUS
 62
   134
  5
114
 10
912019.393
 20
7261024.214
 30
0.0
 40
13.999
  1
12
 50
358.1488
  7
ROMANS
 11
912019.845222
 21
7261038.205694
 31
0.0
210
0.0
220
0.0
230
1.0
 73
     3
  0
TEXT
  8
10
  6
CONTINUOUS
 62
   134
  5
115
 10
912008.066
 20
7260673.738
 30
0.0
 40
13.999
  1
13
 50
358.1488
  7
ROMANS
 11
912008.518222
 21
7260687.729694
 31
0.0
210
0.0
220
0.0
230
1.0
 73
     3
  0
TEXT
  8
10
  6
CONTINUOUS
 62
   134
  5
116
 10
911838.59
 20
7260679.215
 30
0.0
 40
13.999
  1
14
 50
358.1488
  7
ROMANS
 11
911839.042222
 21
7260693.206694
 31
0.0
210
0.0
220
0.0
230
1.0
 73
     3
  0
TEXT
  8
10
  6
CONTINUOUS
 62
   134
  5
117
 10
911684.93
 20
7260684.182
 30
0.0
 40
13.999
  1
15
 50
358.1488
  7
ROMANS
 11
911685.382222
 21
7260698.173694
 31
0.0
210
0.0
220
0.0
230
1.0
 73
     3
  0
TEXT
  8
10
  6
CONTINUOUS
 62
   134
  5
118
 10
911524.492
 20
7260689.368
 30
0.0
 40
13.999
  1
16
 50
358.1488
  7
ROMANS
 11
911524.944222
 21
7260703.359694
 31
0.0
210
0.0
220
0.0
230
1.0
 73
     3
  0
TEXT
  8
10
  6
CONTINUOUS
 62
   134
  5
119
 10
911366.315
 20
7260694.48
 30
0.0
 40
13.999
  1
17
 50
358.1488
  7
ROMANS
 11
911366.767222
 21
7260708.471694
 31
0.0
210
0.0
220
0.0
230
1.0
 73
     3
  0
TEXT
  8
10
  6
CONTINUOUS
 62
   134
  5
11A
 10
911212.656
 20
7260699.446
 30
0.0
 40
13.999
  1
18
 50
358.1488
  7
ROMANS
 11
911213.108222
 21
7260713.437694
 31
0.0
210
0.0
220
0.0
230
1.0
 73
     3
  0
TEXT
  8
10
  6
CONTINUOUS
 62
   134
  5
11B
 10
910984.428
 20
7260706.823
 30
0.0
 40
13.999
  1
19
 50
358.1488
  7
ROMANS
 11
910984.880222
 21
7260720.814694
 31
0.0
210
0.0
220
0.0
230
1.0
 73
     3
  0
TEXT
  8
10
  6
CONTINUOUS
 62
   134
  5
11C
 10
910826.249
 20
7260711.935
 30
0.0
 40
13.999
  1
20
 50
358.1488
  7
ROMANS
 11
910826.701222
 21
7260725.926694
 31
0.0
210
0.0
220
0.0
230
1.0
 73
     3
  0
TEXT
  8
10
  6
CONTINUOUS
 62
   134
  5
11D
 10
910665.811
 20
7260717.121
 30
0.0
 40
13.999
  1
21
 50
358.1488
  7
ROMANS
 11
910666.263222
 21
7260731.112694
 31
0.0
210
0.0
220
0.0
230
1.0
 73
     3
  0
TEXT
  8
10
  6
CONTINUOUS
 62
   134
  5
11E
 10
910509.893
 20
7260722.16
 30
0.0
 40
13.999
  1
22
 50
358.1488
  7
ROMANS
 11
910510.345222
 21
7260736.151694
 31
0.0
210
0.0
220
0.0
230
1.0
 73
     3
  0
TEXT
  8
10
  6
CONTINUOUS
 62
   134
  5
11F
 10
910349.456
 20
7260727.346
 30
0.0
 40
13.999
  1
23
 50
358.1488
  7
ROMANS
 11
910349.908222
 21
7260741.337694
 31
0.0
210
0.0
220
0.0
230
1.0
 73
     3
  0
TEXT
  8
10
  6
CONTINUOUS
 62
   134
  5
120
 10
910184.497
 20
7260732.678
 30
0.0
 40
13.999
  1
24
 50
358.1488
  7
ROMANS
 11
910184.949222
 21
7260746.669694
 31
0.0
210
0.0
220
0.0
230
1.0
 73
     3
  0
TEXT
  8
10
  6
CONTINUOUS
 62
   134
  5
121
 10
910183.306
 20
7260415.827
 30
0.0
 40
13.999
  1
25
 50
358.1488
  7
ROMANS
 11
910183.758222
 21
7260429.818694
 31
0.0
210
0.0
220
0.0
230
1.0
 73
     3
  0
TEXT
  8
10
  6
CONTINUOUS
 62
   134
  5
122
 10
910343.743
 20
7260410.64
 30
0.0
 40
13.999
  1
26
 50
358.1488
  7
ROMANS
 11
910344.195222
 21
7260424.631694
 31
0.0
210
0.0
220
0.0
230
1.0
 73
     3
  0
TEXT
  8
10
  6
CONTINUOUS
 62
   134
  5
123
 10
910504.181
 20
7260405.456
 30
0.0
 40
13.999
  1
27
 50
358.1488
  7
ROMANS
 11
910504.633222
 21
7260419.447694
 31
0.0
210
0.0
220
0.0
230
1.0
 73
     3
  0
TEXT
  8
10
  6
CONTINUOUS
 62
   134
  5
124
 10
910660.1
 20
7260400.416
 30
0.0
 40
13.999
  1
28
 50
358.1488
  7
ROMANS
 11
910660.552222
 21
7260414.407694
 31
0.0
210
0.0
220
0.0
230
1.0
 73
     3
  0
TEXT
  8
10
  6
CONTINUOUS
 62
   134
  5
125
 10
910818.278
 20
7260395.303
 30
0.0
 40
13.999
  1
29
 50
358.1488
  7
ROMANS
 11
910818.730222
 21
7260409.294694
 31
0.0
210
0.0
220
0.0
230
1.0
 73
     3
  0
TEXT
  8
10
  6
CONTINUOUS
 62
   134
  5
126
 10
910976.455
 20
7260390.191
 30
0.0
 40
13.999
  1
30
 50
358.1488
  7
ROMANS
 11
910976.907222
 21
7260404.182694
 31
0.0
210
0.0
220
0.0
230
1.0
 73
     3
  0
TEXT
  8
10
  6
CONTINUOUS
 62
   134
  5
127
 10
911197.905
 20
7260383.033
 30
0.0
 40
13.999
  1
31
 50
358.1488
  7
ROMANS
 11
911198.357222
 21
7260397.024694
 31
0.0
210
0.0
220
0.0
230
1.0
 73
     3
  0
TEXT
  8
10
  6
CONTINUOUS
 62
   134
  5
128
 10
911353.823
 20
7260377.995
 30
0.0
 40
13.999
  1
32
 50
358.1488
  7
ROMANS
 11
911354.275222
 21
7260391.986694
 31
0.0
210
0.0
220
0.0
230
1.0
 73
     3
  0
TEXT
  8
10
  6
CONTINUOUS
 62
   134
  5
129
 10
911507.482
 20
7260373.029
 30
0.0
 40
13.999
  1
33
 50
358.1488
  7
ROMANS
 11
911507.934222
 21
7260387.020694
 31
0.0
210
0.0
220
0.0
230
1.0
 73
     3
  0
TEXT
  8
10
  6
CONTINUOUS
 62
   134
  5
12A
 10
911672.439
 20
7260367.697
 30
0.0
 40
13.999
  1
34
 50
358.1488
  7
ROMANS
 11
911672.891222
 21
7260381.688694
 31
0.0
210
0.0
220
0.0
230
1.0
 73
     3
  0
TEXT
  8
10
  6
CONTINUOUS
 62
   134
  5
12B
 10
911832.877
 20
7260362.511
 30
0.0
 40
13.999
  1
35
 50
358.1488
  7
ROMANS
 11
911833.329222
 21
7260376.502694
 31
0.0
210
0.0
220
0.0
230
1.0
 73
     3
  0
TEXT
  8
10
  6
CONTINUOUS
 62
   134
  5
12C
 10
911539.965
 20
7260048.296
 30
0.0
 40
13.999
  1
36
 50
358.1488
  7
ROMANS
 11
911540.417222
 21
7260062.287694
 31
0.0
210
0.0
220
0.0
230
1.0
 73
     3
  0
TEXT
  8
10
  6
CONTINUOUS
 62
   134
  5
12D
 10
911337.757
 20
7260020.881
 30
0.0
 40
13.999
  1
37
 50
358.1488
  7
ROMANS
 11
911338.209222
 21
7260034.872694
 31
0.0
210
0.0
220
0.0
230
1.0
 73
     3
  0
TEXT
  8
10
  6
CONTINUOUS
 62
   134
  5
12E
 10
911177.32
 20
7260026.067
 30
0.0
 40
13.999
  1
38
 50
358.1488
  7
ROMANS
 11
911177.772222
 21
7260040.058694
 31
0.0
210
0.0
220
0.0
230
1.0
 73
     3
  0
TEXT
  8
10
  6
CONTINUOUS
 62
   134
  5
12F
 10
911021.401
 20
7260031.106
 30
0.0
 40
13.999
  1
39
 50
358.1488
  7
ROMANS
 11
911021.853222
 21
7260045.097694
 31
0.0
210
0.0
220
0.0
230
1.0
 73
     3
  0
TEXT
  8
10
  6
CONTINUOUS
 62
   134
  5
130
 10
910860.962
 20
7260036.292
 30
0.0
 40
13.999
  1
40
 50
358.1488
  7
ROMANS
 11
910861.414222
 21
7260050.283694
 31
0.0
210
0.0
220
0.0
230
1.0
 73
     3
  0
TEXT
  8
10
  6
CONTINUOUS
 62
   134
  5
131
 10
910646.292
 20
7260043.23
 30
0.0
 40
13.999
  1
41
 50
358.1488
  7
ROMANS
 11
910646.744222
 21
7260057.221694
 31
0.0
210
0.0
220
0.0
230
1.0
 73
     3
  0
TEXT
  8
10
  6
CONTINUOUS
 62
   134
  5
132
 10
910479.076
 20
7260048.634
 30
0.0
 40
13.999
  1
42
 50
358.1488
  7
ROMANS
 11
910479.528222
 21
7260062.625694
 31
0.0
210
0.0
220
0.0
230
1.0
 73
     3
  0
TEXT
  8
10
  6
CONTINUOUS
 62
   134
  5
133
 10
910327.678
 20
7260053.528
 30
0.0
 40
13.999
  1
43
 50
358.1488
  7
ROMANS
 11
910328.130222
 21
7260067.519694
 31
0.0
210
0.0
220
0.0
230
1.0
 73
     3
  0
TEXT
  8
10
  6
CONTINUOUS
 62
   134
  5
134
 10
910162.72
 20
7260058.859
 30
0.0
 40
13.999
  1
44
 50
358.1488
  7
ROMANS
 11
910163.172222
 21
7260072.850694
 31
0.0
210
0.0
220
0.0
230
1.0
 73
     3
  0
TEXT
  8
10
  6
CONTINUOUS
 62
   134
  5
135
 10
910152.196
 20
7259733.255
 30
0.0
 40
13.999
  1
45
 50
358.1488
  7
ROMANS
 11
910152.648222
 21
7259747.246694
 31
0.0
210
0.0
220
0.0
230
1.0
 73
     3
  0
TEXT
  8
10
  6
CONTINUOUS
 62
   134
  5
136
 10
910326.192
 20
7259727.632
 30
0.0
 40
13.999
  1
46
 50
358.1488
  7
ROMANS
 11
910326.644222
 21
7259741.623694
 31
0.0
210
0.0
220
0.0
230
1.0
 73
     3
  0
TEXT
  8
10
  6
CONTINUOUS
 62
   134
  5
137
 10
910473.071
 20
7259722.884
 30
0.0
 40
13.999
  1
47
 50
358.1488
  7
ROMANS
 11
910473.523222
 21
7259736.875694
 31
0.0
210
0.0
220
0.0
230
1.0
 73
     3
  0
TEXT
  8
10
  6
CONTINUOUS
 62
   134
  5
138
 10
910638.029
 20
7259717.553
 30
0.0
 40
13.999
  1
48
 50
358.1488
  7
ROMANS
 11
910638.481222
 21
7259731.544694
 31
0.0
210
0.0
220
0.0
230
1.0
 73
     3
  0
TEXT
  8
10
  6
CONTINUOUS
 62
   134
  5
139
 10
910857.219
 20
7259710.468
 30
0.0
 40
13.999
  1
49
 50
358.1488
  7
ROMANS
 11
910857.671222
 21
7259724.459694
 31
0.0
210
0.0
220
0.0
230
1.0
 73
     3
  0
TEXT
  8
10
  6
CONTINUOUS
 62
   134
  5
13A
 10
911069.629
 20
7259703.603
 30
0.0
 40
13.999
  1
50
 50
358.1488
  7
ROMANS
 11
911070.081222
 21
7259717.594694
 31
0.0
210
0.0
220
0.0
230
1.0
 73
     3
  0
TEXT
  8
10
  6
CONTINUOUS
 62
   134
  5
13B
 10
911281.268
 20
7259540.08
 30
0.0
 40
13.999
  1
51
 50
34.268244
  7
ROMANS
 11
911273.38561
 21
7259551.648921
 31
0.0
210
0.0
220
0.0
230
1.0
 73
     3
  0
TEXT
  8
10
  6
CONTINUOUS
 62
   134
  5
13C
 10
911424.511
 20
7259632.782
 30
0.0
 40
13.999
  1
52
 50
34.268244
  7
ROMANS
 11
911416.62861
 21
7259644.350921
 31
0.0
210
0.0
220
0.0
230
1.0
 73
     3
  0
TEXT
  8
10
  6
CONTINUOUS
 62
   134
  5
13D
 10
911558.569
 20
7259721.252
 30
0.0
 40
13.999
  1
53
 50
34.268244
  7
ROMANS
 11
911550.68661
 21
7259732.820921
 31
0.0
210
0.0
220
0.0
230
1.0
 73
     3
  0
TEXT
  8
10
  6
CONTINUOUS
 62
   134
  5
13E
 10
911685.993
 20
7259814.463
 30
0.0
 40
13.999
  1
54
 50
34.268244
  7
ROMANS
 11
911678.11061
 21
7259826.031921
 31
0.0
210
0.0
220
0.0
230
1.0
 73
     3
  0
TEXT
  8
10
  6
CONTINUOUS
 62
   134
  5
13F
 10
911820.126
 20
7259905.196
 30
0.0
 40
13.999
  1
55
 50
34.268244
  7
ROMANS
 11
911812.24361
 21
7259916.764921
 31
0.0
210
0.0
220
0.0
230
1.0
 73
     3
  0
TEXT
  8
10
  6
CONTINUOUS
 62
   134
  5
140
 10
911961.036
 20
7259995.708
 30
0.0
 40
13.999
  1
56
 50
34.268244
  7
ROMANS
 11
911953.15361
 21
7260007.276921
 31
0.0
210
0.0
220
0.0
230
1.0
 73
     3
  0
TEXT
  8
10
  6
CONTINUOUS
 62
   134
  5
141
 10
910865.154
 20
7258849.339
 30
0.0
 40
13.999
  1
66
 50
34.268244
  7
ROMANS
 11
910857.27161
 21
7258860.907921
 31
0.0
210
0.0
220
0.0
230
1.0
 73
     3
  0
TEXT
  8
10
  6
CONTINUOUS
 62
   134
  5
142
 10
910671.134
 20
7259126.612
 30
0.0
 40
13.999
  1
67
 50
34.268244
  7
ROMANS
 11
910663.25161
 21
7259138.180921
 31
0.0
210
0.0
220
0.0
230
1.0
 73
     3
  0
TEXT
  8
10
  6
CONTINUOUS
 62
   134
  5
143
 10
910809.637
 20
7259212.675
 30
0.0
 40
13.999
  1
68
 50
34.268244
  7
ROMANS
 11
910801.75461
 21
7259224.243921
 31
0.0
210
0.0
220
0.0
230
1.0
 73
     3
  0
TEXT
  8
10
  6
CONTINUOUS
 62
   134
  5
144
 10
910939.104
 20
7259299.03
 30
0.0
 40
13.999
  1
69
 50
34.268244
  7
ROMANS
 11
910931.22161
 21
7259310.598921
 31
0.0
210
0.0
220
0.0
230
1.0
 73
     3
  0
TEXT
  8
10
  6
CONTINUOUS
 62
   134
  5
145
 10
911091.532
 20
7259395.962
 30
0.0
 40
13.999
  1
70
 50
34.268244
  7
ROMANS
 11
911083.64961
 21
7259407.530921
 31
0.0
210
0.0
220
0.0
230
1.0
 73
     3
  0
TEXT
  8
10
  6
CONTINUOUS
 62
   134
  5
146
 10
910621.344
 20
7259381.304
 30
0.0
 40
13.999
  1
71
 50
358.1488
  7
ROMANS
 11
910621.796222
 21
7259395.295694
 31
0.0
210
0.0
220
0.0
230
1.0
 73
     3
  0
TEXT
  8
10
  6
CONTINUOUS
 62
   134
  5
147
 10
910472.204
 20
7259386.125
 30
0.0
 40
13.999
  1
72
 50
358.1488
  7
ROMANS
 11
910472.656222
 21
7259400.116694
 31
0.0
210
0.0
220
0.0
230
1.0
 73
     3
  0
TEXT
  8
10
  6
CONTINUOUS
 62
   134
  5
148
 10
910314.028
 20
7259391.237
 30
0.0
 40
13.999
  1
73
 50
358.1488
  7
ROMANS
 11
910314.480222
 21
7259405.228694
 31
0.0
210
0.0
220
0.0
230
1.0
 73
     3
  0
TEXT
  8
10
  6
CONTINUOUS
 62
   134
  5
149
 10
910149.07
 20
7259396.569
 30
0.0
 40
13.999
  1
74
 50
358.1488
  7
ROMANS
 11
910149.522222
 21
7259410.560694
 31
0.0
210
0.0
220
0.0
230
1.0
 73
     3
  0
TEXT
  8
10
  6
CONTINUOUS
 62
   134
  5
14A
 10
910668.306
 20
7258734.69
 30
0.0
 40
13.999
  1
B
 50
358.1488
  7
ROMANS
 11
910668.758222
 21
7258748.681694
 31
0.0
210
0.0
220
0.0
230
1.0
 73
     3
  0
TEXT
  8
10
  6
CONTINUOUS
 62
   134
  5
14B
 10
912168.322
 20
7261018.348
 30
0.0
 40
13.999
  1
75
 50
358.1488
  7
ROMANS
 11
912168.774222
 21
7261032.339694
 31
0.0
210
0.0
220
0.0
230
1.0
 73
     3
  0
TEXT
  8
10
  6
CONTINUOUS
 62
   134
  5
14C
 10
912335.984
 20
7261096.679
 30
0.0
 40
13.999
  1
76
 50
358.1488
  7
ROMANS
 11
912336.436222
 21
7261110.670694
 31
0.0
210
0.0
220
0.0
230
1.0
 73
     3
  0
TEXT
  8
10
  6
CONTINUOUS
 62
   134
  5
14D
 10
912969.639
 20
7261035.455
 30
0.0
 40
13.999
  1
77
 50
358.1488
  7
ROMANS
 11
912970.091222
 21
7261049.446694
 31
0.0
210
0.0
220
0.0
230
1.0
 73
     3
  0
TEXT
  8
10
  6
CONTINUOUS
 62
   134
  5
14E
 10
912727.043
 20
7260948.23
 30
0.0
 40
13.999
  1
78
 50
358.1488
  7
ROMANS
 11
912727.495222
 21
7260962.221694
 31
0.0
210
0.0
220
0.0
230
1.0
 73
     3
  0
TEXT
  8
10
  6
CONTINUOUS
 62
   134
  5
14F
 10
912533.575
 20
7260841.308
 30
0.0
 40
13.999
  1
79
 50
358.1488
  7
ROMANS
 11
912534.027222
 21
7260855.299694
 31
0.0
210
0.0
220
0.0
230
1.0
 73
     3
  0
TEXT
  8
10
  6
CONTINUOUS
 62
   134
  5
150
 10
912351.261
 20
7260729.499
 30
0.0
 40
13.999
  1
80
 50
358.1488
  7
ROMANS
 11
912351.713222
 21
7260743.490694
 31
0.0
210
0.0
220
0.0
230
1.0
 73
     3
  0
TEXT
  8
10
  6
CONTINUOUS
 62
   134
  5
151
 10
912168.366
 20
7260669.767
 30
0.0
 40
13.999
  1
81
 50
358.1488
  7
ROMANS
 11
912168.818222
 21
7260683.758694
 31
0.0
210
0.0
220
0.0
230
1.0
 73
     3
  0
TEXT
  8
10
  6
CONTINUOUS
 62
   134
  5
152
 10
912052.076
 20
7260361.165
 30
0.0
 40
13.999
  1
82
 50
358.1488
  7
ROMANS
 11
912052.528222
 21
7260375.156694
 31
0.0
210
0.0
220
0.0
230
1.0
 73
     3
  0
TEXT
  8
10
  6
CONTINUOUS
 62
   134
  5
153
 10
912134.085
 20
7260123.538
 30
0.0
 40
13.999
  1
83
 50
34.268244
  7
ROMANS
 11
912126.20261
 21
7260135.106921
 31
0.0
210
0.0
220
0.0
230
1.0
 73
     3
  0
TEXT
  8
10
  6
CONTINUOUS
 62
   134
  5
154
 10
912268.07
 20
7260209.747
 30
0.0
 40
13.999
  1
84
 50
34.268244
  7
ROMANS
 11
912260.18761
 21
7260221.315921
 31
0.0
210
0.0
220
0.0
230
1.0
 73
     3
  0
TEXT
  8
10
  6
CONTINUOUS
 62
   134
  5
155
 10
912404.388
 20
7260298.145
 30
0.0
 40
13.999
  1
85
 50
34.268244
  7
ROMANS
 11
912396.50561
 21
7260309.713921
 31
0.0
210
0.0
220
0.0
230
1.0
 73
     3
  0
TEXT
  8
10
  6
CONTINUOUS
 62
   134
  5
156
 10
912543.112
 20
7260390.992
 30
0.0
 40
13.999
  1
86
 50
34.268244
  7
ROMANS
 11
912535.22961
 21
7260402.560921
 31
0.0
210
0.0
220
0.0
230
1.0
 73
     3
  0
TEXT
  8
10
  6
CONTINUOUS
 62
   134
  5
157
 10
912765.084
 20
7260539.998
 30
0.0
 40
13.999
  1
87
 50
34.268244
  7
ROMANS
 11
912757.20161
 21
7260551.566921
 31
0.0
210
0.0
220
0.0
230
1.0
 73
     3
  0
TEXT
  8
10
  6
CONTINUOUS
 62
   134
  5
158
 10
912899.288
 20
7260632.992
 30
0.0
 40
13.999
  1
88
 50
34.268244
  7
ROMANS
 11
912891.40561
 21
7260644.560921
 31
0.0
210
0.0
220
0.0
230
1.0
 73
     3
  0
TEXT
  8
10
  6
CONTINUOUS
 62
   134
  5
159
 10
913033.64
 20
7260730.506
 30
0.0
 40
13.999
  1
89
 50
34.268244
  7
ROMANS
 11
913025.75761
 21
7260742.074921
 31
0.0
210
0.0
220
0.0
230
1.0
 73
     3
  0
TEXT
  8
10
  6
CONTINUOUS
 62
   134
  5
15A
 10
913163.251
 20
7260821.385
 30
0.0
 40
13.999
  1
90
 50
34.268244
  7
ROMANS
 11
913155.36861
 21
7260832.953921
 31
0.0
210
0.0
220
0.0
230
1.0
 73
     3
  0
TEXT
  8
10
  6
CONTINUOUS
 62
   134
  5
15B
 10
913308.427
 20
7260915.874
 30
0.0
 40
13.999
  1
91
 50
34.268244
  7
ROMANS
 11
913300.54461
 21
7260927.442921
 31
0.0
210
0.0
220
0.0
230
1.0
 73
     3
  0
TEXT
  8
10
  6
CONTINUOUS
 62
   134
  5
15C
 10
913479.809
 20
7261039.353
 30
0.0
 40
13.999
  1
92
 50
34.268244
  7
ROMANS
 11
913471.92661
 21
7261050.921921
 31
0.0
210
0.0
220
0.0
230
1.0
 73
     3
  0
TEXT
  8
10
  6
CONTINUOUS
 62
   134
  5
15D
 10
914058.216
 20
7261023.719
 30
0.0
 40
13.999
  1
93
 50
34.268244
  7
ROMANS
 11
914050.33361
 21
7261035.287921
 31
0.0
210
0.0
220
0.0
230
1.0
 73
     3
  0
LINE
  8
7
  6
CONTINUOUS
 62
     7
  5
15E
 10
912665.736
 20
7259936.48
 30
0.0
 11
912675.932
 21
7260251.986
 31
0.0
  0
LINE
  8
7
  6
CONTINUOUS
 62
     7
  5
15F
 10
912677.514
 20
7260325.672
 30
0.0
 11
912689.352
 21
7260691.91
 31
0.0
  0
TEXT
  8
10
  6
CONTINUOUS
 62
   134
  5
160
 10
913822.916
 20
7260864.116
 30
0.0
 40
13.999
  1
94
 50
34.268244
  7
ROMANS
 11
913815.03361
 21
7260875.684921
 31
0.0
210
0.0
220
0.0
230
1.0
 73
     3
  0
TEXT
  8
10
  6
CONTINUOUS
 62
   134
  5
161
 10
913657.469
 20
7260751.895
 30
0.0
 40
13.999
  1
95
 50
34.268244
  7
ROMANS
 11
913649.58661
 21
7260763.463921
 31
0.0
210
0.0
220
0.0
230
1.0
 73
     3
  0
TEXT
  8
10
  6
CONTINUOUS
 62
   134
  5
162
 10
913533.941
 20
7260668.107
 30
0.0
 40
13.999
  1
96
 50
34.268244
  7
ROMANS
 11
913526.05861
 21
7260679.675921
 31
0.0
210
0.0
220
0.0
230
1.0
 73
     3
  0
TEXT
  8
10
  6
CONTINUOUS
 62
   134
  5
163
 10
913408.676
 20
7260583.14
 30
0.0
 40
13.999
  1
97
 50
34.268244
  7
ROMANS
 11
913400.79361
 21
7260594.708921
 31
0.0
210
0.0
220
0.0
230
1.0
 73
     3
  0
TEXT
  8
10
  6
CONTINUOUS
 62
   134
  5
164
 10
913280.248
 20
7260496.026
 30
0.0
 40
13.999
  1
98
 50
34.268244
  7
ROMANS
 11
913272.36561
 21
7260507.594921
 31
0.0
210
0.0
220
0.0
230
1.0
 73
     3
  0
TEXT
  8
10
  6
CONTINUOUS
 62
   134
  5
165
 10
913160.811
 20
7260415.014
 30
0.0
 40
13.999
  1
99
 50
34.268244
  7
ROMANS
 11
913152.92861
 21
7260426.582921
 31
0.0
210
0.0
220
0.0
230
1.0
 73
     3
  0
TEXT
  8
10
  6
CONTINUOUS
 62
   134
  5
166
 10
913038.664
 20
7260332.164
 30
0.0
 40
13.999
  1
100
 50
34.268244
  7
ROMANS
 11
913030.78161
 21
7260343.732921
 31
0.0
210
0.0
220
0.0
230
1.0
 73
     3
  0
TEXT
  8
10
  6
CONTINUOUS
 62
   134
  5
167
 10
912904.94
 20
7260241.459
 30
0.0
 40
13.999
  1
101
 50
34.268244
  7
ROMANS
 11
912897.05761
 21
7260253.027921
 31
0.0
210
0.0
220
0.0
230
1.0
 73
     3
  0
TEXT
  8
10
  6
CONTINUOUS
 62
   134
  5
168
 10
912753.007
 20
7260138.403
 30
0.0
 40
13.999
  1
102
 50
34.268244
  7
ROMANS
 11
912745.12461
 21
7260149.971921
 31
0.0
210
0.0
220
0.0
230
1.0
 73
     3
  0
TEXT
  8
10
  6
CONTINUOUS
 62
   134
  5
169
 10
912569.025
 20
7260013.609
 30
0.0
 40
13.999
  1
103
 50
34.268244
  7
ROMANS
 11
912561.14261
 21
7260025.177921
 31
0.0
210
0.0
220
0.0
230
1.0
 73
     3
  0
TEXT
  8
10
  6
CONTINUOUS
 62
   134
  5
16A
 10
912410.004
 20
7259905.747
 30
0.0
 40
13.999
  1
104
 50
34.268244
  7
ROMANS
 11
912402.12161
 21
7259917.315921
 31
0.0
210
0.0
220
0.0
230
1.0
 73
     3
  0
TEXT
  8
10
  6
CONTINUOUS
 62
   134
  5
16B
 10
912275.528
 20
7259814.532
 30
0.0
 40
13.999
  1
105
 50
34.268244
  7
ROMANS
 11
912267.64561
 21
7259826.100921
 31
0.0
210
0.0
220
0.0
230
1.0
 73
     3
  0
TEXT
  8
10
  6
CONTINUOUS
 62
   134
  5
16C
 10
912141.975
 20
7259723.944
 30
0.0
 40
13.999
  1
106
 50
34.268244
  7
ROMANS
 11
912134.09261
 21
7259735.512921
 31
0.0
210
0.0
220
0.0
230
1.0
 73
     3
  0
LINE
  8
6
  6
CONTINUOUS
 62
     7
  5
16D
 10
910767.693
 20
7258603.929
 30
0.0
 11
914480.405
 21
7261122.565
 31
0.0
  0
LINE
  8
6
  6
CONTINUOUS
 62
     7
  5
16E
 10
910937.24
 20
7258598.215
 30
0.0
 11
915360.388
 21
7261611.896
 31
0.0
  0
LINE
  8
27
  6
CONTINUOUS
 62
    32
  5
170
 10
915362.466
 20
7261673.567
 30
0.0
 11
910852.467
 21
7258601.073
 31
0.0
  0
ARC
  8
6
  6
CONTINUOUS
 62
     7
  5
171
 10
913916.585873
 20
7255537.478403
 30
0.0
 40
3953.210796
 50
111.671808
 51
126.161625
210
0.0
220
0.0
230
1.0
  0
ARC
  8
6
  6
CONTINUOUS
 62
     7
  5
172
 10
915078.03853
 20
7257474.06091
 30
0.0
 40
2536.23177
 50
84.535092
 51
110.8405
210
0.0
220
0.0
230
1.0
  0
LINE
  8
6
  6
CONTINUOUS
 62
     7
  5
173
 10
914175.737
 20
7259844.361
 30
0.0
 11
913436.947
 21
7259563.127
 31
0.0
  0
ARC
  8
6
  6
CONTINUOUS
 62
     7
  5
174
 10
915185.47757
 20
7253150.794391
 30
0.0
 40
6646.454945
 50
105.252728
 51
114.240042
210
0.0
220
0.0
230
1.0
  0
LINE
  8
6
  6
CONTINUOUS
 62
     7
  5
175
 10
914480.405
 20
7261122.565
 30
0.0
 11
915364.557
 21
7261735.619
 31
0.0
  0
LINE
  8
6
  6
CONTINUOUS
 62
     7
  5
176
 10
914922.091
 20
7261163.696
 30
0.0
 11
915367.982
 21
7261464.951
 31
0.0
  0
LINE
  8
6
  6
CONTINUOUS
 62
     7
  5
177
 10
914922.091
 20
7261163.696
 30
0.0
 11
914720.335
 21
7260937.033
 31
0.0
  0
TEXT
  8
10
  6
CONTINUOUS
 62
   134
  5
178
 10
912218.342
 20
7262541.237
 30
0.0
 40
13.999
  1
UNSUBDIVIDED
 50
358.0697
  7
ROMANS
 11
912218.813538
 21
7262555.228056
 31
0.0
210
0.0
220
0.0
230
1.0
 73
     3
  0
TEXT
  8
10
  6
CONTINUOUS
 62
   134
  5
179
 10
913807.023
 20
7258999.013
 30
0.0
 40
13.999
  1
UNSUBDIVIDED
 50
358.0697
  7
ROMANS
 11
913807.494538
 21
7259013.004056
 31
0.0
210
0.0
220
0.0
230
1.0
 73
     3
  0
TEXT
  8
10
  6
CONTINUOUS
 62
   134
  5
17A
 10
914943.224
 20
7260669.75
 30
0.0
 40
13.999
  1
UNSUBDIVIDED
 50
358.0697
  7
ROMANS
 11
914943.695538
 21
7260683.741056
 31
0.0
210
0.0
220
0.0
230
1.0
 73
     3
  0
TEXT
  8
11
  6
CONTINUOUS
 62
     7
  5
17C
 10
910192.511
 20
7261232.321
 30
0.0
 40
8.0
  1
164.77'
 50
358.1488
  7
ROMANS
 72
     4
 11
910217.960994
 21
7261235.500525
 31
0.0
210
0.0
220
0.0
230
1.0
  0
TEXT
  8
11
  6
CONTINUOUS
 62
     7
  5
17D
 10
910183.369
 20
7260949.468
 30
0.0
 40
8.0
  1
149.88'
 50
358.1488
  7
ROMANS
 72
     4
 11
910208.818994
 21
7260952.647525
 31
0.0
210
0.0
220
0.0
230
1.0
  0
TEXT
  8
11
  6
CONTINUOUS
 62
     7
  5
17E
 10
910347.439
 20
7260870.852
 30
0.0
 40
8.0
  1
160'
 50
358.1488
  7
ROMANS
 72
     4
 11
910360.895257
 21
7260874.419172
 31
0.0
210
0.0
220
0.0
230
1.0
  0
TEXT
  8
11
  6
CONTINUOUS
 62
     7
  5
17F
 10
910517.121
 20
7260938.68
 30
0.0
 40
8.0
  1
160'
 50
358.1488
  7
ROMANS
 72
     4
 11
910530.577257
 21
7260942.247172
 31
0.0
210
0.0
220
0.0
230
1.0
  0
TEXT
  8
11
  6
CONTINUOUS
 62
     7
  5
180
 10
910678.484
 20
7260932.532
 30
0.0
 40
8.0
  1
145'
 50
358.1488
  7
ROMANS
 72
     4
 11
910691.940257
 21
7260936.099172
 31
0.0
210
0.0
220
0.0
230
1.0
  0
TEXT
  8
11
  6
CONTINUOUS
 62
     7
  5
181
 10
910892.118
 20
7260925.626
 30
0.0
 40
8.0
  1
145'
 50
358.1488
  7
ROMANS
 72
     4
 11
910905.574257
 21
7260929.193172
 31
0.0
210
0.0
220
0.0
230
1.0
  0
TEXT
  8
11
  6
CONTINUOUS
 62
     7
  5
182
 10
911048.136
 20
7260920.583
 30
0.0
 40
8.0
  1
160'
 50
358.1488
  7
ROMANS
 72
     4
 11
911061.592257
 21
7260924.150172
 31
0.0
210
0.0
220
0.0
230
1.0
  0
TEXT
  8
11
  6
CONTINUOUS
 62
     7
  5
183
 10
911208.596
 20
7260915.397
 30
0.0
 40
8.0
  1
160'
 50
358.1488
  7
ROMANS
 72
     4
 11
911222.052257
 21
7260918.964172
 31
0.0
210
0.0
220
0.0
230
1.0
  0
TEXT
  8
11
  6
CONTINUOUS
 62
     7
  5
184
 10
911373.719
 20
7260910.061
 30
0.0
 40
8.0
  1
160'
 50
358.1488
  7
ROMANS
 72
     4
 11
911387.175257
 21
7260913.628172
 31
0.0
210
0.0
220
0.0
230
1.0
  0
TEXT
  8
11
  6
CONTINUOUS
 62
     7
  5
185
 10
911536.046
 20
7260904.814
 30
0.0
 40
8.0
  1
160'
 50
358.1488
  7
ROMANS
 72
     4
 11
911549.502257
 21
7260908.381172
 31
0.0
210
0.0
220
0.0
230
1.0
  0
TEXT
  8
11
  6
CONTINUOUS
 62
     7
  5
186
 10
911693.706
 20
7260899.718
 30
0.0
 40
8.0
  1
160'
 50
358.1488
  7
ROMANS
 72
     4
 11
911707.162257
 21
7260903.285172
 31
0.0
210
0.0
220
0.0
230
1.0
  0
TEXT
  8
11
  6
CONTINUOUS
 62
     7
  5
187
 10
911850.785
 20
7260894.641
 30
0.0
 40
8.0
  1
160'
 50
358.1488
  7
ROMANS
 72
     4
 11
911864.241257
 21
7260898.208172
 31
0.0
210
0.0
220
0.0
230
1.0
  0
TEXT
  8
11
  6
CONTINUOUS
 62
     7
  5
188
 10
912012.178
 20
7260889.425
 30
0.0
 40
8.0
  1
160'
 50
358.1488
  7
ROMANS
 72
     4
 11
912025.634257
 21
7260892.992172
 31
0.0
210
0.0
220
0.0
230
1.0
  0
TEXT
  8
11
  6
CONTINUOUS
 62
     7
  5
189
 10
910180.357
 20
7260877.011
 30
0.0
 40
8.0
  1
149.92'
 50
358.1488
  7
ROMANS
 72
     4
 11
910205.806994
 21
7260880.190525
 31
0.0
210
0.0
220
0.0
230
1.0
  0
TEXT
  8
11
  6
CONTINUOUS
 62
     7
  5
18A
 10
910171.214
 20
7260594.157
 30
0.0
 40
8.0
  1
165.03'
 50
358.1488
  7
ROMANS
 72
     4
 11
910196.663994
 21
7260597.336525
 31
0.0
210
0.0
220
0.0
230
1.0
  0
TEXT
  8
11
  6
CONTINUOUS
 62
     7
  5
18B
 10
910978.103
 20
7260568.078
 30
0.0
 40
8.0
  1
160'
 50
358.1488
  7
ROMANS
 72
     4
 11
910991.559257
 21
7260571.645172
 31
0.0
210
0.0
220
0.0
230
1.0
  0
TEXT
  8
11
  6
CONTINUOUS
 62
     7
  5
18C
 10
911198.268
 20
7260560.962
 30
0.0
 40
8.0
  1
160'
 50
358.1488
  7
ROMANS
 72
     4
 11
911211.724257
 21
7260564.529172
 31
0.0
210
0.0
220
0.0
230
1.0
  0
TEXT
  8
11
  6
CONTINUOUS
 62
     7
  5
18D
 10
911360.949
 20
7260838.958
 30
0.0
 40
8.0
  1
160'
 50
358.1488
  7
ROMANS
 72
     4
 11
911374.405257
 21
7260842.525172
 31
0.0
210
0.0
220
0.0
230
1.0
  0
TEXT
  8
11
  6
CONTINUOUS
 62
     7
  5
18E
 10
911524.533
 20
7260833.671
 30
0.0
 40
8.0
  1
160'
 50
358.1488
  7
ROMANS
 72
     4
 11
911537.989257
 21
7260837.238172
 31
0.0
210
0.0
220
0.0
230
1.0
  0
TEXT
  8
11
  6
CONTINUOUS
 62
     7
  5
18F
 10
911681.288
 20
7260829.438
 30
0.0
 40
8.0
  1
160'
 50
358.1488
  7
ROMANS
 72
     4
 11
911694.744257
 21
7260833.005172
 31
0.0
210
0.0
220
0.0
230
1.0
  0
TEXT
  8
11
  6
CONTINUOUS
 62
     7
  5
190
 10
911842.125
 20
7260823.406
 30
0.0
 40
8.0
  1
160'
 50
358.1488
  7
ROMANS
 72
     4
 11
911855.581257
 21
7260826.973172
 31
0.0
210
0.0
220
0.0
230
1.0
  0
TEXT
  8
11
  6
CONTINUOUS
 62
     7
  5
191
 10
911998.855
 20
7260818.341
 30
0.0
 40
8.0
  1
160'
 50
358.1488
  7
ROMANS
 72
     4
 11
912012.311257
 21
7260821.908172
 31
0.0
210
0.0
220
0.0
230
1.0
  0
TEXT
  8
11
  6
CONTINUOUS
 62
     7
  5
192
 10
911799.321
 20
7260220.372
 30
0.0
 40
8.0
  1
100'
 50
358.1488
  7
ROMANS
 72
     4
 11
911812.777257
 21
7260223.939172
 31
0.0
210
0.0
220
0.0
230
1.0
  0
TEXT
  8
11
  6
CONTINUOUS
 62
     7
  5
193
 10
911666.849
 20
7260224.654
 30
0.0
 40
8.0
  1
160'
 50
358.1488
  7
ROMANS
 72
     4
 11
911680.305257
 21
7260228.221172
 31
0.0
210
0.0
220
0.0
230
1.0
  0
TEXT
  8
11
  6
CONTINUOUS
 62
     7
  5
194
 10
911508.255
 20
7260229.78
 30
0.0
 40
8.0
  1
160'
 50
358.1488
  7
ROMANS
 72
     4
 11
911521.711257
 21
7260233.347172
 31
0.0
210
0.0
220
0.0
230
1.0
  0
TEXT
  8
11
  6
CONTINUOUS
 62
     7
  5
195
 10
911348.727
 20
7260234.936
 30
0.0
 40
8.0
  1
160'
 50
358.1488
  7
ROMANS
 72
     4
 11
911362.183257
 21
7260238.503172
 31
0.0
210
0.0
220
0.0
230
1.0
  0
TEXT
  8
11
  6
CONTINUOUS
 62
     7
  5
196
 10
911193.245
 20
7260240.05
 30
0.0
 40
8.0
  1
145'
 50
358.1488
  7
ROMANS
 72
     4
 11
911206.701257
 21
7260243.617172
 31
0.0
210
0.0
220
0.0
230
1.0
  0
TEXT
  8
11
  6
CONTINUOUS
 62
     7
  5
197
 10
910971.06
 20
7260247.231
 30
0.0
 40
8.0
  1
145'
 50
358.1488
  7
ROMANS
 72
     4
 11
910984.516257
 21
7260250.798172
 31
0.0
210
0.0
220
0.0
230
1.0
  0
TEXT
  8
11
  6
CONTINUOUS
 62
     7
  5
198
 10
910814.332
 20
7260252.297
 30
0.0
 40
8.0
  1
160'
 50
358.1488
  7
ROMANS
 72
     4
 11
910827.788257
 21
7260255.864172
 31
0.0
210
0.0
220
0.0
230
1.0
  0
TEXT
  8
11
  6
CONTINUOUS
 62
     7
  5
199
 10
910655.738
 20
7260257.423
 30
0.0
 40
8.0
  1
160'
 50
358.1488
  7
ROMANS
 72
     4
 11
910669.194257
 21
7260260.990172
 31
0.0
210
0.0
220
0.0
230
1.0
  0
TEXT
  8
11
  6
CONTINUOUS
 62
     7
  5
19A
 10
910493.41
 20
7260262.669
 30
0.0
 40
8.0
  1
160'
 50
358.1488
  7
ROMANS
 72
     4
 11
910506.866257
 21
7260266.236172
 31
0.0
210
0.0
220
0.0
230
1.0
  0
TEXT
  8
11
  6
CONTINUOUS
 62
     7
  5
19B
 10
910330.381
 20
7260267.939
 30
0.0
 40
8.0
  1
118.58'
 50
358.1488
  7
ROMANS
 72
     4
 11
910355.830994
 21
7260271.118525
 31
0.0
210
0.0
220
0.0
230
1.0
  0
TEXT
  8
11
  6
CONTINUOUS
 62
     7
  5
19C
 10
910328.06
 20
7260196.114
 30
0.0
 40
8.0
  1
118.58'
 50
358.1488
  7
ROMANS
 72
     4
 11
910353.509994
 21
7260199.293525
 31
0.0
210
0.0
220
0.0
230
1.0
  0
TEXT
  8
11
  6
CONTINUOUS
 62
     7
  5
19D
 10
910492.023
 20
7260190.814
 30
0.0
 40
8.0
  1
160'
 50
358.1488
  7
ROMANS
 72
     4
 11
910505.479257
 21
7260194.381172
 31
0.0
210
0.0
220
0.0
230
1.0
  0
TEXT
  8
11
  6
CONTINUOUS
 62
     7
  5
19E
 10
910652.513
 20
7260186.561
 30
0.0
 40
8.0
  1
145'
 50
358.1488
  7
ROMANS
 72
     4
 11
910665.969257
 21
7260190.128172
 31
0.0
210
0.0
220
0.0
230
1.0
  0
TEXT
  8
11
  6
CONTINUOUS
 62
     7
  5
19F
 10
910865.215
 20
7260179.687
 30
0.0
 40
8.0
  1
145'
 50
358.1488
  7
ROMANS
 72
     4
 11
910878.671257
 21
7260183.254172
 31
0.0
210
0.0
220
0.0
230
1.0
  0
TEXT
  8
11
  6
CONTINUOUS
 62
     7
  5
1A0
 10
911024.95
 20
7260174.524
 30
0.0
 40
8.0
  1
160'
 50
358.1488
  7
ROMANS
 72
     4
 11
911038.406257
 21
7260178.091172
 31
0.0
210
0.0
220
0.0
230
1.0
  0
TEXT
  8
11
  6
CONTINUOUS
 62
     7
  5
1A1
 10
911182.612
 20
7260169.428
 30
0.0
 40
8.0
  1
160'
 50
358.1488
  7
ROMANS
 72
     4
 11
911196.068257
 21
7260172.995172
 31
0.0
210
0.0
220
0.0
230
1.0
  0
TEXT
  8
11
  6
CONTINUOUS
 62
     7
  5
1A2
 10
911343.071
 20
7260164.243
 30
0.0
 40
8.0
  1
160'
 50
358.1488
  7
ROMANS
 72
     4
 11
911356.527257
 21
7260167.810172
 31
0.0
210
0.0
220
0.0
230
1.0
  0
TEXT
  8
11
  6
CONTINUOUS
 62
     7
  5
1A3
 10
911614.774
 20
7260155.461
 30
0.0
 40
8.0
  1
435.32'
 50
358.1488
  7
ROMANS
 72
     4
 11
911640.223994
 21
7260158.640525
 31
0.0
210
0.0
220
0.0
230
1.0
  0
TEXT
  8
11
  6
CONTINUOUS
 62
     7
  5
1A4
 10
910169.947
 20
7260554.988
 30
0.0
 40
8.0
  1
165.03'
 50
358.1488
  7
ROMANS
 72
     4
 11
910195.396994
 21
7260558.167525
 31
0.0
210
0.0
220
0.0
230
1.0
  0
TEXT
  8
11
  6
CONTINUOUS
 62
     7
  5
1A5
 10
910341.374
 20
7260549.447
 30
0.0
 40
8.0
  1
160'
 50
358.1488
  7
ROMANS
 72
     4
 11
910354.830257
 21
7260553.014172
 31
0.0
210
0.0
220
0.0
230
1.0
  0
TEXT
  8
11
  6
CONTINUOUS
 62
     7
  5
1A6
 10
910979.182
 20
7260528.834
 30
0.0
 40
8.0
  1
160'
 50
358.1488
  7
ROMANS
 72
     4
 11
910992.638257
 21
7260532.401172
 31
0.0
210
0.0
220
0.0
230
1.0
  0
TEXT
  8
11
  6
CONTINUOUS
 62
     7
  5
1A7
 10
910149.395
 20
7259919.073
 30
0.0
 40
8.0
  1
165.03'
 50
358.1488
  7
ROMANS
 72
     4
 11
910174.844994
 21
7259922.252525
 31
0.0
210
0.0
220
0.0
230
1.0
  0
TEXT
  8
11
  6
CONTINUOUS
 62
     7
  5
1A8
 10
910859.619
 20
7259896.118
 30
0.0
 40
8.0
  1
160'
 50
358.1488
  7
ROMANS
 72
     4
 11
910873.075257
 21
7259899.685172
 31
0.0
210
0.0
220
0.0
230
1.0
  0
TEXT
  8
11
  6
CONTINUOUS
 62
     7
  5
1A9
 10
911448.337
 20
7259917.776
 30
0.0
 40
8.0
  1
24.21'
 50
358.1488
  7
ROMANS
 72
     4
 11
911469.789081
 21
7259921.084741
 31
0.0
210
0.0
220
0.0
230
1.0
  0
INSERT
  8
11
  6
CONTINUOUS
 62
     7
  5
1B5
  2
*D0
 10
911441.504
 20
7259871.256
 30
0.0
 70
     0
 71
     0
  0
TEXT
  8
11
  6
CONTINUOUS
 62
     7
  5
1B6
 10
910148.243
 20
7259883.425
 30
0.0
 40
8.0
  1
165.03'
 50
358.1488
  7
ROMANS
 72
     4
 11
910173.692994
 21
7259886.604525
 31
0.0
210
0.0
220
0.0
230
1.0
  0
TEXT
  8
11
  6
CONTINUOUS
 62
     7
  5
1B7
 10
910310.459
 20
7259592.906
 30
0.0
 40
8.0
  1
160'
 50
358.1488
  7
ROMANS
 72
     4
 11
910323.915257
 21
7259596.473172
 31
0.0
210
0.0
220
0.0
230
1.0
  0
TEXT
  8
11
  6
CONTINUOUS
 62
     7
  5
1B8
 10
910474.292
 20
7259587.611
 30
0.0
 40
8.0
  1
160'
 50
358.1488
  7
ROMANS
 72
     4
 11
910487.748257
 21
7259591.178172
 31
0.0
210
0.0
220
0.0
230
1.0
  0
TEXT
  8
11
  6
CONTINUOUS
 62
     7
  5
1B9
 10
910637.036
 20
7259583.271
 30
0.0
 40
8.0
  1
145'
 50
358.1488
  7
ROMANS
 72
     4
 11
910650.492257
 21
7259586.838172
 31
0.0
210
0.0
220
0.0
230
1.0
  0
TEXT
  8
11
  6
CONTINUOUS
 62
     7
  5
1BA
 10
910136.862
 20
7259600.206
 30
0.0
 40
8.0
  1
150.44'
 50
358.1488
  7
ROMANS
 72
     4
 11
910162.311994
 21
7259603.385525
 31
0.0
210
0.0
220
0.0
230
1.0
  0
TEXT
  8
11
  6
CONTINUOUS
 62
     7
  5
1BB
 10
910320.812
 20
7259913.228
 30
0.0
 40
8.0
  1
160'
 50
358.1488
  7
ROMANS
 72
     4
 11
910334.268257
 21
7259916.795172
 31
0.0
210
0.0
220
0.0
230
1.0
  0
TEXT
  8
11
  6
CONTINUOUS
 62
     7
  5
1BC
 10
910648.35
 20
7259902.642
 30
0.0
 40
8.0
  1
160'
 50
358.1488
  7
ROMANS
 72
     4
 11
910661.806257
 21
7259906.209172
 31
0.0
210
0.0
220
0.0
230
1.0
  0
TEXT
  8
11
  6
CONTINUOUS
 62
     7
  5
1BD
 10
910837.533
 20
7259576.443
 30
0.0
 40
8.0
  1
115'
 50
358.1488
  7
ROMANS
 72
     4
 11
910850.989257
 21
7259580.010172
 31
0.0
210
0.0
220
0.0
230
1.0
  0
TEXT
  8
11
  6
CONTINUOUS
 62
     7
  5
1BE
 10
910895.802
 20
7259856.181
 30
0.0
 40
8.0
  1
225'
 50
358.1488
  7
ROMANS
 72
     4
 11
910909.258257
 21
7259859.748172
 31
0.0
210
0.0
220
0.0
230
1.0
  0
TEXT
  8
11
  6
CONTINUOUS
 62
     7
  5
1BF
 10
910937.003
 20
7259574.202
 30
0.0
 40
8.0
  1
95.69'
 50
358.1488
  7
ROMANS
 72
     4
 11
910958.455081
 21
7259577.510741
 31
0.0
210
0.0
220
0.0
230
1.0
  0
TEXT
  8
11
  6
CONTINUOUS
 62
     7
  5
1C0
 10
911183.217
 20
7259847.821
 30
0.0
 40
8.0
  1
401.80'
 50
358.1488
  7
ROMANS
 72
     4
 11
911208.666994
 21
7259851.000525
 31
0.0
210
0.0
220
0.0
230
1.0
  0
TEXT
  8
11
  6
CONTINUOUS
 62
     7
  5
1C1
 10
910134.461
 20
7259525.928
 30
0.0
 40
8.0
  1
150.44'
 50
358.1488
  7
ROMANS
 72
     4
 11
910159.910994
 21
7259529.107525
 31
0.0
210
0.0
220
0.0
230
1.0
  0
TEXT
  8
11
  6
CONTINUOUS
 62
     7
  5
1C2
 10
910127.597
 20
7259244.638
 30
0.0
 40
8.0
  1
165.03'
 50
358.1488
  7
ROMANS
 72
     4
 11
910153.046994
 21
7259247.817525
 31
0.0
210
0.0
220
0.0
230
1.0
  0
TEXT
  8
11
  6
CONTINUOUS
 62
     7
  5
1C3
 10
910303.939
 20
7259521.517
 30
0.0
 40
8.0
  1
160'
 50
358.1488
  7
ROMANS
 72
     4
 11
910317.395257
 21
7259525.084172
 31
0.0
210
0.0
220
0.0
230
1.0
  0
TEXT
  8
11
  6
CONTINUOUS
 62
     7
  5
1C4
 10
910431.878
 20
7259233.13
 30
0.0
 40
8.0
  1
113.84'
 50
358.1488
  7
ROMANS
 72
     4
 11
910457.327994
 21
7259236.309525
 31
0.0
210
0.0
220
0.0
230
1.0
  0
TEXT
  8
11
  6
CONTINUOUS
 62
     7
  5
1C5
 10
910471.893
 20
7259513.333
 30
0.0
 40
8.0
  1
160'
 50
358.1488
  7
ROMANS
 72
     4
 11
910485.349257
 21
7259516.900172
 31
0.0
210
0.0
220
0.0
230
1.0
  0
TEXT
  8
11
  6
CONTINUOUS
 62
     7
  5
1C6
 10
910699.877
 20
7259507.018
 30
0.0
 40
8.0
  1
364.95'
 50
358.1488
  7
ROMANS
 72
     4
 11
910725.326994
 21
7259510.197525
 31
0.0
210
0.0
220
0.0
230
1.0
  0
TEXT
  8
11
  6
CONTINUOUS
 62
     7
  5
1C7
 10
910263.755
 20
7259201.234
 30
0.0
 40
8.0
  1
445.96'
 50
358.1488
  7
ROMANS
 72
     4
 11
910289.204994
 21
7259204.413525
 31
0.0
210
0.0
220
0.0
230
1.0
  0
INSERT
  8
11
  6
CONTINUOUS
 62
     7
  5
1CD
  2
*D1
 10
910145.968
 20
7258664.328
 30
0.0
 70
     0
 71
     0
  0
TEXT
  8
11
  6
CONTINUOUS
 62
     7
  5
1CE
 10
910107.322
 20
7258669.073
 30
0.0
 40
8.0
  1
70'
 50
358.1488
  7
ROMANS
 72
     4
 11
910116.780344
 21
7258672.769388
 31
0.0
210
0.0
220
0.0
230
1.0
  0
TEXT
  8
11
  6
CONTINUOUS
 62
     7
  5
1CF
 10
910300.046
 20
7258657.267
 30
0.0
 40
8.0
  1
152.13'
 50
358.1488
  7
ROMANS
 72
     4
 11
910325.495994
 21
7258660.446525
 31
0.0
210
0.0
220
0.0
230
1.0
  0
TEXT
  8
11
  6
CONTINUOUS
 62
     7
  5
1D0
 10
910619.744
 20
7258646.946
 30
0.0
 40
8.0
  1
299.00'
 50
358.1488
  7
ROMANS
 72
     4
 11
910645.193994
 21
7258650.125525
 31
0.0
210
0.0
220
0.0
230
1.0
  0
TEXT
  8
11
  6
CONTINUOUS
 62
     7
  5
1D1
 10
910574.746
 20
7258900.166
 30
0.0
 40
8.0
  1
193.31'
 50
34.268244
  7
ROMANS
 72
     4
 11
910593.429185
 21
7258917.735846
 31
0.0
210
0.0
220
0.0
230
1.0
  0
TEXT
  8
11
  6
CONTINUOUS
 62
     7
  5
1D2
 10
910796.444
 20
7258648.11
 30
0.0
 40
8.0
  1
81.69'
 50
34.268244
  7
ROMANS
 72
     4
 11
910811.821543
 21
7258663.427574
 31
0.0
210
0.0
220
0.0
230
1.0
  0
TEXT
  8
11
  6
CONTINUOUS
 62
     7
  5
1D3
 10
910796.922
 20
7258952.983
 30
0.0
 40
8.0
  1
160'
 50
34.268244
  7
ROMANS
 72
     4
 11
910805.688259
 21
7258963.796029
 31
0.0
210
0.0
220
0.0
230
1.0
  0
TEXT
  8
11
  6
CONTINUOUS
 62
     7
  5
1D4
 10
910928.482
 20
7258741.468
 30
0.0
 40
8.0
  1
150'
 50
34.268244
  7
ROMANS
 72
     4
 11
910937.248259
 21
7258752.281029
 31
0.0
210
0.0
220
0.0
230
1.0
  0
TEXT
  8
11
  6
CONTINUOUS
 62
     7
  5
1D5
 10
910928.029
 20
7259043.551
 30
0.0
 40
8.0
  1
160'
 50
34.268244
  7
ROMANS
 72
     4
 11
910936.795259
 21
7259054.364029
 31
0.0
210
0.0
220
0.0
230
1.0
  0
TEXT
  8
11
  6
CONTINUOUS
 62
     7
  5
1D6
 10
911187.003
 20
7259219.859
 30
0.0
 40
8.0
  1
160'
 50
34.268244
  7
ROMANS
 72
     4
 11
911195.769259
 21
7259230.672029
 31
0.0
210
0.0
220
0.0
230
1.0
  0
TEXT
  8
11
  6
CONTINUOUS
 62
     7
  5
1D7
 10
911444.724
 20
7259392.276
 30
0.0
 40
8.0
  1
160'
 50
34.268244
  7
ROMANS
 72
     4
 11
911453.490259
 21
7259403.089029
 31
0.0
210
0.0
220
0.0
230
1.0
  0
TEXT
  8
11
  6
CONTINUOUS
 62
     7
  5
1D8
 10
911695.564
 20
7259566.339
 30
0.0
 40
8.0
  1
160'
 50
34.268244
  7
ROMANS
 72
     4
 11
911704.330259
 21
7259577.152029
 31
0.0
210
0.0
220
0.0
230
1.0
  0
TEXT
  8
11
  6
CONTINUOUS
 62
     7
  5
1D9
 10
911955.62
 20
7259740.951
 30
0.0
 40
8.0
  1
160'
 50
34.268244
  7
ROMANS
 72
     4
 11
911964.386259
 21
7259751.764029
 31
0.0
210
0.0
220
0.0
230
1.0
  0
TEXT
  8
11
  6
CONTINUOUS
 62
     7
  5
1DA
 10
911056.571
 20
7259130.105
 30
0.0
 40
8.0
  1
150'
 50
34.268244
  7
ROMANS
 72
     4
 11
911065.337259
 21
7259140.918029
 31
0.0
210
0.0
220
0.0
230
1.0
  0
TEXT
  8
11
  6
CONTINUOUS
 62
     7
  5
1DB
 10
911314.955
 20
7259307.641
 30
0.0
 40
8.0
  1
150'
 50
34.268244
  7
ROMANS
 72
     4
 11
911323.721259
 21
7259318.454029
 31
0.0
210
0.0
220
0.0
230
1.0
  0
TEXT
  8
11
  6
CONTINUOUS
 62
     7
  5
1DC
 10
911568.273
 20
7259479.478
 30
0.0
 40
8.0
  1
150'
 50
34.268244
  7
ROMANS
 72
     4
 11
911577.039259
 21
7259490.291029
 31
0.0
210
0.0
220
0.0
230
1.0
  0
TEXT
  8
11
  6
CONTINUOUS
 62
     7
  5
1DD
 10
911824.59
 20
7259650.575
 30
0.0
 40
8.0
  1
150'
 50
34.268244
  7
ROMANS
 72
     4
 11
911833.356259
 21
7259661.388029
 31
0.0
210
0.0
220
0.0
230
1.0
  0
TEXT
  8
11
  6
CONTINUOUS
 62
     7
  5
1DE
 10
910740.288
 20
7259009.837
 30
0.0
 40
8.0
  1
160'
 50
34.268244
  7
ROMANS
 72
     4
 11
910749.054259
 21
7259020.650029
 31
0.0
210
0.0
220
0.0
230
1.0
  0
TEXT
  8
11
  6
CONTINUOUS
 62
     7
  5
1DF
 10
910878.142
 20
7259104.764
 30
0.0
 40
8.0
  1
160'
 50
34.268244
  7
ROMANS
 72
     4
 11
910886.908259
 21
7259115.577029
 31
0.0
210
0.0
220
0.0
230
1.0
  0
TEXT
  8
11
  6
CONTINUOUS
 62
     7
  5
1E0
 10
911014.371
 20
7259198.163
 30
0.0
 40
8.0
  1
160'
 50
34.268244
  7
ROMANS
 72
     4
 11
911023.137259
 21
7259208.976029
 31
0.0
210
0.0
220
0.0
230
1.0
  0
TEXT
  8
11
  6
CONTINUOUS
 62
     7
  5
1E1
 10
910947.282
 20
7259466.976
 30
0.0
 40
8.0
  1
42.85'
 50
34.268244
  7
ROMANS
 72
     4
 11
910962.659543
 21
7259482.293574
 31
0.0
210
0.0
220
0.0
230
1.0
  0
INSERT
  8
11
  6
CONTINUOUS
 62
     7
  5
1EB
  2
*D2
 10
910940.245
 20
7259500.27
 30
0.0
 70
     0
 71
     0
  0
TEXT
  8
11
  6
CONTINUOUS
 62
     7
  5
1EC
 10
911158.652
 20
7259296.824
 30
0.0
 40
8.0
  1
185'
 50
34.268244
  7
ROMANS
 72
     4
 11
911167.418259
 21
7259307.637029
 31
0.0
210
0.0
220
0.0
230
1.0
  0
TEXT
  8
11
  6
CONTINUOUS
 62
     7
  5
1ED
 10
911169.836
 20
7259639.882
 30
0.0
 40
8.0
  1
288.15'
 50
34.268244
  7
ROMANS
 72
     4
 11
911188.519185
 21
7259657.451846
 31
0.0
210
0.0
220
0.0
230
1.0
  0
TEXT
  8
11
  6
CONTINUOUS
 62
     7
  5
1EE
 10
911358.804
 20
7259433.359
 30
0.0
 40
8.0
  1
155'
 50
34.268244
  7
ROMANS
 72
     4
 11
911367.570259
 21
7259444.172029
 31
0.0
210
0.0
220
0.0
230
1.0
  0
TEXT
  8
11
  6
CONTINUOUS
 62
     7
  5
1EF
 10
911495.007
 20
7259525.971
 30
0.0
 40
8.0
  1
160'
 50
34.268244
  7
ROMANS
 72
     4
 11
911503.773259
 21
7259536.784029
 31
0.0
210
0.0
220
0.0
230
1.0
  0
TEXT
  8
11
  6
CONTINUOUS
 62
     7
  5
1F0
 10
911628.824
 20
7259617.873
 30
0.0
 40
8.0
  1
160'
 50
34.268244
  7
ROMANS
 72
     4
 11
911637.590259
 21
7259628.686029
 31
0.0
210
0.0
220
0.0
230
1.0
  0
TEXT
  8
11
  6
CONTINUOUS
 62
     7
  5
1F1
 10
911755.831
 20
7259702.485
 30
0.0
 40
8.0
  1
160'
 50
34.268244
  7
ROMANS
 72
     4
 11
911764.597259
 21
7259713.298029
 31
0.0
210
0.0
220
0.0
230
1.0
  0
TEXT
  8
11
  6
CONTINUOUS
 62
     7
  5
1F2
 10
911888.833
 20
7259793.622
 30
0.0
 40
8.0
  1
160'
 50
34.268244
  7
ROMANS
 72
     4
 11
911897.599259
 21
7259804.435029
 31
0.0
210
0.0
220
0.0
230
1.0
  0
TEXT
  8
11
  6
CONTINUOUS
 62
     7
  5
1F3
 10
912025.874
 20
7259887.785
 30
0.0
 40
8.0
  1
155'
 50
34.268244
  7
ROMANS
 72
     4
 11
912034.640259
 21
7259898.598029
 31
0.0
210
0.0
220
0.0
230
1.0
  0
TEXT
  8
11
  6
CONTINUOUS
 62
     7
  5
1F4
 10
911855.424
 20
7260106.329
 30
0.0
 40
8.0
  1
121.31'
 50
34.268244
  7
ROMANS
 72
     4
 11
911874.107185
 21
7260123.898846
 31
0.0
210
0.0
220
0.0
230
1.0
  0
TEXT
  8
11
  6
CONTINUOUS
 62
     7
  5
1F5
 10
911647.375
 20
7260010.423
 30
0.0
 40
8.0
  1
498.93'
 50
34.268244
  7
ROMANS
 72
     4
 11
911666.058185
 21
7260027.992846
 31
0.0
210
0.0
220
0.0
230
1.0
  0
TEXT
  8
11
  6
CONTINUOUS
 62
     7
  5
1F6
 10
910135.564
 20
7261074.024
 30
0.0
 40
8.0
  1
284.46'
 50
88.1488
  7
ROMANS
 72
     4
 11
910132.384475
 21
7261099.473994
 31
0.0
210
0.0
220
0.0
230
1.0
  0
TEXT
  8
11
  6
CONTINUOUS
 62
     7
  5
1F7
 10
910284.08
 20
7261070.306
 30
0.0
 40
8.0
  1
299.49'
 50
88.1488
  7
ROMANS
 72
     4
 11
910280.900475
 21
7261095.755994
 31
0.0
210
0.0
220
0.0
230
1.0
  0
TEXT
  8
11
  6
CONTINUOUS
 62
     7
  5
1F8
 10
910462.052
 20
7261064.555
 30
0.0
 40
8.0
  1
299.49'
 50
88.1488
  7
ROMANS
 72
     4
 11
910458.872475
 21
7261090.004994
 31
0.0
210
0.0
220
0.0
230
1.0
  0
TEXT
  8
11
  6
CONTINUOUS
 62
     7
  5
1F9
 10
910622.411
 20
7261059.372
 30
0.0
 40
8.0
  1
299.49'
 50
88.1488
  7
ROMANS
 72
     4
 11
910619.231475
 21
7261084.821994
 31
0.0
210
0.0
220
0.0
230
1.0
  0
TEXT
  8
11
  6
CONTINUOUS
 62
     7
  5
1FA
 10
910764.953
 20
7261054.764
 30
0.0
 40
8.0
  1
284.57'
 50
88.1488
  7
ROMANS
 72
     4
 11
910761.773475
 21
7261080.213994
 31
0.0
210
0.0
220
0.0
230
1.0
  0
TEXT
  8
11
  6
CONTINUOUS
 62
     7
  5
1FB
 10
910836.061
 20
7261052.467
 30
0.0
 40
8.0
  1
284.57'
 50
88.1488
  7
ROMANS
 72
     4
 11
910832.881475
 21
7261077.916994
 31
0.0
210
0.0
220
0.0
230
1.0
  0
TEXT
  8
11
  6
CONTINUOUS
 62
     7
  5
1FC
 10
910980.9
 20
7261047.785
 30
0.0
 40
8.0
  1
299.61'
 50
88.1488
  7
ROMANS
 72
     4
 11
910977.720475
 21
7261073.234994
 31
0.0
210
0.0
220
0.0
230
1.0
  0
TEXT
  8
11
  6
CONTINUOUS
 62
     7
  5
1FD
 10
911155.838
 20
7261042.131
 30
0.0
 40
8.0
  1
299.61'
 50
88.1488
  7
ROMANS
 72
     4
 11
911152.658475
 21
7261067.580994
 31
0.0
210
0.0
220
0.0
230
1.0
  0
TEXT
  8
11
  6
CONTINUOUS
 62
     7
  5
1FE
 10
911317.278
 20
7261036.913
 30
0.0
 40
8.0
  1
299.61'
 50
88.1488
  7
ROMANS
 72
     4
 11
911314.098475
 21
7261062.362994
 31
0.0
210
0.0
220
0.0
230
1.0
  0
TEXT
  8
11
  6
CONTINUOUS
 62
     7
  5
1FF
 10
911476.14
 20
7261031.778
 30
0.0
 40
8.0
  1
299.61'
 50
88.1488
  7
ROMANS
 72
     4
 11
911472.960475
 21
7261057.227994
 31
0.0
210
0.0
220
0.0
230
1.0
  0
TEXT
  8
11
  6
CONTINUOUS
 62
     7
  5
200
 10
911636.5
 20
7261026.596
 30
0.0
 40
8.0
  1
299.61'
 50
88.1488
  7
ROMANS
 72
     4
 11
911633.320475
 21
7261052.045994
 31
0.0
210
0.0
220
0.0
230
1.0
  0
TEXT
  8
11
  6
CONTINUOUS
 62
     7
  5
201
 10
911797.941
 20
7261021.377
 30
0.0
 40
8.0
  1
299.61'
 50
88.1488
  7
ROMANS
 72
     4
 11
911794.761475
 21
7261046.826994
 31
0.0
210
0.0
220
0.0
230
1.0
  0
TEXT
  8
11
  6
CONTINUOUS
 62
     7
  5
202
 10
911956.983
 20
7261016.237
 30
0.0
 40
8.0
  1
299.61'
 50
88.1488
  7
ROMANS
 72
     4
 11
911953.803475
 21
7261041.686994
 31
0.0
210
0.0
220
0.0
230
1.0
  0
TEXT
  8
11
  6
CONTINUOUS
 62
     7
  5
203
 10
912098.21
 20
7261011.673
 30
0.0
 40
8.0
  1
299.61'
 50
88.1488
  7
ROMANS
 72
     4
 11
912095.030475
 21
7261037.122994
 31
0.0
210
0.0
220
0.0
230
1.0
  0
TEXT
  8
11
  6
CONTINUOUS
 62
     7
  5
204
 10
910125.276
 20
7260728.556
 30
0.0
 40
8.0
  1
285'
 50
88.1488
  7
ROMANS
 72
     4
 11
910121.708828
 21
7260742.012257
 31
0.0
210
0.0
220
0.0
230
1.0
  0
TEXT
  8
11
  6
CONTINUOUS
 62
     7
  5
205
 10
910274.883
 20
7260723.72
 30
0.0
 40
8.0
  1
300'
 50
88.1488
  7
ROMANS
 72
     4
 11
910271.315828
 21
7260737.176257
 31
0.0
210
0.0
220
0.0
230
1.0
  0
TEXT
  8
11
  6
CONTINUOUS
 62
     7
  5
206
 10
910434.913
 20
7260718.548
 30
0.0
 40
8.0
  1
300'
 50
88.1488
  7
ROMANS
 72
     4
 11
910431.345828
 21
7260732.004257
 31
0.0
210
0.0
220
0.0
230
1.0
  0
TEXT
  8
11
  6
CONTINUOUS
 62
     7
  5
207
 10
910593.756
 20
7260714.644
 30
0.0
 40
8.0
  1
300'
 50
88.1488
  7
ROMANS
 72
     4
 11
910590.188828
 21
7260728.100257
 31
0.0
210
0.0
220
0.0
230
1.0
  0
TEXT
  8
11
  6
CONTINUOUS
 62
     7
  5
208
 10
910754.008
 20
7260709.464
 30
0.0
 40
8.0
  1
300'
 50
88.1488
  7
ROMANS
 72
     4
 11
910750.440828
 21
7260722.920257
 31
0.0
210
0.0
220
0.0
230
1.0
  0
TEXT
  8
11
  6
CONTINUOUS
 62
     7
  5
209
 10
910913.425
 20
7260704.312
 30
0.0
 40
8.0
  1
300'
 50
88.1488
  7
ROMANS
 72
     4
 11
910909.857828
 21
7260717.768257
 31
0.0
210
0.0
220
0.0
230
1.0
  0
TEXT
  8
11
  6
CONTINUOUS
 62
     7
  5
20A
 10
911073.333
 20
7260699.144
 30
0.0
 40
8.0
  1
285'
 50
88.1488
  7
ROMANS
 72
     4
 11
911069.765828
 21
7260712.600257
 31
0.0
210
0.0
220
0.0
230
1.0
  0
TEXT
  8
11
  6
CONTINUOUS
 62
     7
  5
20B
 10
911143.961
 20
7260696.86
 30
0.0
 40
8.0
  1
285'
 50
88.1488
  7
ROMANS
 72
     4
 11
911140.393828
 21
7260710.316257
 31
0.0
210
0.0
220
0.0
230
1.0
  0
TEXT
  8
11
  6
CONTINUOUS
 62
     7
  5
20C
 10
911289.889
 20
7260692.144
 30
0.0
 40
8.0
  1
300'
 50
88.1488
  7
ROMANS
 72
     4
 11
911286.321828
 21
7260705.600257
 31
0.0
210
0.0
220
0.0
230
1.0
  0
TEXT
  8
11
  6
CONTINUOUS
 62
     7
  5
20D
 10
911449.306
 20
7260686.992
 30
0.0
 40
8.0
  1
300'
 50
88.1488
  7
ROMANS
 72
     4
 11
911445.738828
 21
7260700.448257
 31
0.0
210
0.0
220
0.0
230
1.0
  0
TEXT
  8
11
  6
CONTINUOUS
 62
     7
  5
20E
 10
911609.949
 20
7260681.8
 30
0.0
 40
8.0
  1
300'
 50
88.1488
  7
ROMANS
 72
     4
 11
911606.381828
 21
7260695.256257
 31
0.0
210
0.0
220
0.0
230
1.0
  0
TEXT
  8
11
  6
CONTINUOUS
 62
     7
  5
20F
 10
911768.937
 20
7260676.661
 30
0.0
 40
8.0
  1
300'
 50
88.1488
  7
ROMANS
 72
     4
 11
911765.369828
 21
7260690.117257
 31
0.0
210
0.0
220
0.0
230
1.0
  0
TEXT
  8
11
  6
CONTINUOUS
 62
     7
  5
210
 10
911930.193
 20
7260671.449
 30
0.0
 40
8.0
  1
300'
 50
88.1488
  7
ROMANS
 72
     4
 11
911926.625828
 21
7260684.905257
 31
0.0
210
0.0
220
0.0
230
1.0
  0
TEXT
  8
11
  6
CONTINUOUS
 62
     7
  5
211
 10
912090.223
 20
7260666.277
 30
0.0
 40
8.0
  1
300'
 50
88.1488
  7
ROMANS
 72
     4
 11
912086.655828
 21
7260679.733257
 31
0.0
210
0.0
220
0.0
230
1.0
  0
TEXT
  8
11
  6
CONTINUOUS
 62
     7
  5
212
 10
910114.811
 20
7260413.075
 30
0.0
 40
8.0
  1
328'
 50
88.1488
  7
ROMANS
 72
     4
 11
910111.243828
 21
7260426.531257
 31
0.0
210
0.0
220
0.0
230
1.0
  0
TEXT
  8
11
  6
CONTINUOUS
 62
     7
  5
213
 10
910264.869
 20
7260408.225
 30
0.0
 40
8.0
  1
278'
 50
88.1488
  7
ROMANS
 72
     4
 11
910261.301828
 21
7260421.681257
 31
0.0
210
0.0
220
0.0
230
1.0
  0
TEXT
  8
11
  6
CONTINUOUS
 62
     7
  5
214
 10
910424.756
 20
7260403.057
 30
0.0
 40
8.0
  1
300'
 50
88.1488
  7
ROMANS
 72
     4
 11
910421.188828
 21
7260416.513257
 31
0.0
210
0.0
220
0.0
230
1.0
  0
TEXT
  8
11
  6
CONTINUOUS
 62
     7
  5
215
 10
910584.934
 20
7260397.88
 30
0.0
 40
8.0
  1
300'
 50
88.1488
  7
ROMANS
 72
     4
 11
910581.366828
 21
7260411.336257
 31
0.0
210
0.0
220
0.0
230
1.0
  0
TEXT
  8
11
  6
CONTINUOUS
 62
     7
  5
216
 10
910744.303
 20
7260392.729
 30
0.0
 40
8.0
  1
300'
 50
88.1488
  7
ROMANS
 72
     4
 11
910740.735828
 21
7260406.185257
 31
0.0
210
0.0
220
0.0
230
1.0
  0
TEXT
  8
11
  6
CONTINUOUS
 62
     7
  5
217
 10
910904.302
 20
7260387.557
 30
0.0
 40
8.0
  1
300'
 50
88.1488
  7
ROMANS
 72
     4
 11
910900.734828
 21
7260401.013257
 31
0.0
210
0.0
220
0.0
230
1.0
  0
TEXT
  8
11
  6
CONTINUOUS
 62
     7
  5
218
 10
911063.673
 20
7260382.406
 30
0.0
 40
8.0
  1
285'
 50
88.1488
  7
ROMANS
 72
     4
 11
911060.105828
 21
7260395.862257
 31
0.0
210
0.0
220
0.0
230
1.0
  0
TEXT
  8
11
  6
CONTINUOUS
 62
     7
  5
219
 10
911134.561
 20
7260380.116
 30
0.0
 40
8.0
  1
285'
 50
88.1488
  7
ROMANS
 72
     4
 11
911130.993828
 21
7260393.572257
 31
0.0
210
0.0
220
0.0
230
1.0
  0
TEXT
  8
11
  6
CONTINUOUS
 62
     7
  5
21A
 10
911280.146
 20
7260375.41
 30
0.0
 40
8.0
  1
300'
 50
88.1488
  7
ROMANS
 72
     4
 11
911276.578828
 21
7260388.866257
 31
0.0
210
0.0
220
0.0
230
1.0
  0
TEXT
  8
11
  6
CONTINUOUS
 62
     7
  5
21B
 10
911440.034
 20
7260370.243
 30
0.0
 40
8.0
  1
300'
 50
88.1488
  7
ROMANS
 72
     4
 11
911436.466828
 21
7260383.699257
 31
0.0
210
0.0
220
0.0
230
1.0
  0
TEXT
  8
11
  6
CONTINUOUS
 62
     7
  5
21C
 10
911599.922
 20
7260365.075
 30
0.0
 40
8.0
  1
300'
 50
88.1488
  7
ROMANS
 72
     4
 11
911596.354828
 21
7260378.531257
 31
0.0
210
0.0
220
0.0
230
1.0
  0
TEXT
  8
11
  6
CONTINUOUS
 62
     7
  5
21D
 10
911760.029
 20
7260359.9
 30
0.0
 40
8.0
  1
300'
 50
88.1488
  7
ROMANS
 72
     4
 11
911756.461828
 21
7260373.356257
 31
0.0
210
0.0
220
0.0
230
1.0
  0
TEXT
  8
11
  6
CONTINUOUS
 62
     7
  5
21E
 10
910102.374
 20
7260054.738
 30
0.0
 40
8.0
  1
328'
 50
88.1488
  7
ROMANS
 72
     4
 11
910098.806828
 21
7260068.194257
 31
0.0
210
0.0
220
0.0
230
1.0
  0
TEXT
  8
11
  6
CONTINUOUS
 62
     7
  5
21F
 10
910252.758
 20
7260053.031
 30
0.0
 40
8.0
  1
278'
 50
88.1488
  7
ROMANS
 72
     4
 11
910249.190828
 21
7260066.487257
 31
0.0
210
0.0
220
0.0
230
1.0
  0
TEXT
  8
11
  6
CONTINUOUS
 62
     7
  5
220
 10
910413.881
 20
7260049.177
 30
0.0
 40
8.0
  1
300'
 50
88.1488
  7
ROMANS
 72
     4
 11
910410.313828
 21
7260062.633257
 31
0.0
210
0.0
220
0.0
230
1.0
  0
TEXT
  8
11
  6
CONTINUOUS
 62
     7
  5
221
 10
910573.45
 20
7260044.019
 30
0.0
 40
8.0
  1
300'
 50
88.1488
  7
ROMANS
 72
     4
 11
910569.882828
 21
7260057.475257
 31
0.0
210
0.0
220
0.0
230
1.0
  0
TEXT
  8
11
  6
CONTINUOUS
 62
     7
  5
222
 10
910733.042
 20
7260038.861
 30
0.0
 40
8.0
  1
285'
 50
88.1488
  7
ROMANS
 72
     4
 11
910729.474828
 21
7260052.317257
 31
0.0
210
0.0
220
0.0
230
1.0
  0
TEXT
  8
11
  6
CONTINUOUS
 62
     7
  5
223
 10
910804.797
 20
7260036.542
 30
0.0
 40
8.0
  1
285'
 50
88.1488
  7
ROMANS
 72
     4
 11
910801.229828
 21
7260049.998257
 31
0.0
210
0.0
220
0.0
230
1.0
  0
TEXT
  8
11
  6
CONTINUOUS
 62
     7
  5
224
 10
910948.778
 20
7260031.888
 30
0.0
 40
8.0
  1
300'
 50
88.1488
  7
ROMANS
 72
     4
 11
910945.210828
 21
7260045.344257
 31
0.0
210
0.0
220
0.0
230
1.0
  0
TEXT
  8
11
  6
CONTINUOUS
 62
     7
  5
225
 10
911108.669
 20
7260026.721
 30
0.0
 40
8.0
  1
300'
 50
88.1488
  7
ROMANS
 72
     4
 11
911105.101828
 21
7260040.177257
 31
0.0
210
0.0
220
0.0
230
1.0
  0
TEXT
  8
11
  6
CONTINUOUS
 62
     7
  5
226
 10
911269.299
 20
7260021.529
 30
0.0
 40
8.0
  1
300'
 50
88.1488
  7
ROMANS
 72
     4
 11
911265.731828
 21
7260034.985257
 31
0.0
210
0.0
220
0.0
230
1.0
  0
TEXT
  8
11
  6
CONTINUOUS
 62
     7
  5
227
 10
911446.009
 20
7260019.311
 30
0.0
 40
8.0
  1
300'
 50
88.1488
  7
ROMANS
 72
     4
 11
911442.441828
 21
7260032.767257
 31
0.0
210
0.0
220
0.0
230
1.0
  0
TEXT
  8
11
  6
CONTINUOUS
 62
     7
  5
228
 10
910093.501
 20
7259730.764
 30
0.0
 40
8.0
  1
285'
 50
88.1488
  7
ROMANS
 72
     4
 11
910089.933828
 21
7259744.220257
 31
0.0
210
0.0
220
0.0
230
1.0
  0
TEXT
  8
11
  6
CONTINUOUS
 62
     7
  5
229
 10
910242.825
 20
7259729.062
 30
0.0
 40
8.0
  1
300'
 50
88.1488
  7
ROMANS
 72
     4
 11
910239.257828
 21
7259742.518257
 31
0.0
210
0.0
220
0.0
230
1.0
  0
TEXT
  8
11
  6
CONTINUOUS
 62
     7
  5
22A
 10
910403.143
 20
7259722.541
 30
0.0
 40
8.0
  1
300'
 50
88.1488
  7
ROMANS
 72
     4
 11
910399.575828
 21
7259735.997257
 31
0.0
210
0.0
220
0.0
230
1.0
  0
TEXT
  8
11
  6
CONTINUOUS
 62
     7
  5
22B
 10
910562.749
 20
7259716.948
 30
0.0
 40
8.0
  1
300'
 50
88.1488
  7
ROMANS
 72
     4
 11
910559.181828
 21
7259730.404257
 31
0.0
210
0.0
220
0.0
230
1.0
  0
TEXT
  8
11
  6
CONTINUOUS
 62
     7
  5
22C
 10
910722.664
 20
7259711.779
 30
0.0
 40
8.0
  1
285'
 50
88.1488
  7
ROMANS
 72
     4
 11
910719.096828
 21
7259725.235257
 31
0.0
210
0.0
220
0.0
230
1.0
  0
TEXT
  8
11
  6
CONTINUOUS
 62
     7
  5
22D
 10
910793.997
 20
7259709.473
 30
0.0
 40
8.0
  1
285'
 50
88.1488
  7
ROMANS
 72
     4
 11
910790.429828
 21
7259722.929257
 31
0.0
210
0.0
220
0.0
230
1.0
  0
TEXT
  8
11
  6
CONTINUOUS
 62
     7
  5
22E
 10
910083.748
 20
7259392.374
 30
0.0
 40
8.0
  1
285'
 50
88.1488
  7
ROMANS
 72
     4
 11
910080.180828
 21
7259405.830257
 31
0.0
210
0.0
220
0.0
230
1.0
  0
TEXT
  8
11
  6
CONTINUOUS
 62
     7
  5
22F
 10
910231.083
 20
7259387.613
 30
0.0
 40
8.0
  1
300'
 50
88.1488
  7
ROMANS
 72
     4
 11
910227.515828
 21
7259401.069257
 31
0.0
210
0.0
220
0.0
230
1.0
  0
TEXT
  8
11
  6
CONTINUOUS
 62
     7
  5
230
 10
910391.735
 20
7259382.421
 30
0.0
 40
8.0
  1
300'
 50
88.1488
  7
ROMANS
 72
     4
 11
910388.167828
 21
7259395.877257
 31
0.0
210
0.0
220
0.0
230
1.0
  0
TEXT
  8
11
  6
CONTINUOUS
 62
     7
  5
231
 10
910550.338
 20
7259365.382
 30
0.0
 40
8.0
  1
266.32'
 50
88.1488
  7
ROMANS
 72
     4
 11
910547.158475
 21
7259390.831994
 31
0.0
210
0.0
220
0.0
230
1.0
  0
TEXT
  8
11
  6
CONTINUOUS
 62
     7
  5
232
 10
910068.413
 20
7258941.191
 30
0.0
 40
8.0
  1
523.92'
 50
88.1488
  7
ROMANS
 72
     4
 11
910065.233475
 21
7258966.640994
 31
0.0
210
0.0
220
0.0
230
1.0
  0
TEXT
  8
11
  6
CONTINUOUS
 62
     7
  5
233
 10
912255.324
 20
7261029.876
 30
0.0
 40
8.0
  1
246.37'
 50
88.1488
  7
ROMANS
 72
     4
 11
912252.144475
 21
7261055.325994
 31
0.0
210
0.0
220
0.0
230
1.0
  0
TEXT
  8
11
  6
CONTINUOUS
 62
     7
  5
234
 10
912268.245
 20
7260656.814
 30
0.0
 40
8.0
  1
356.13'
 50
88.1488
  7
ROMANS
 72
     4
 11
912265.065475
 21
7260682.263994
 31
0.0
210
0.0
220
0.0
230
1.0
  0
TEXT
  8
11
  6
CONTINUOUS
 62
     7
  5
235
 10
912452.213
 20
7260763.343
 30
0.0
 40
8.0
  1
489.86'
 50
88.1488
  7
ROMANS
 72
     4
 11
912449.033475
 21
7260788.792994
 31
0.0
210
0.0
220
0.0
230
1.0
  0
TEXT
  8
11
  6
CONTINUOUS
 62
     7
  5
236
 10
912630.877
 20
7260881.404
 30
0.0
 40
8.0
  1
477.93'
 50
88.1488
  7
ROMANS
 72
     4
 11
912627.697475
 21
7260906.853994
 31
0.0
210
0.0
220
0.0
230
1.0
  0
TEXT
  8
11
  6
CONTINUOUS
 62
     7
  5
237
 10
912832.882
 20
7260983.942
 30
0.0
 40
8.0
  1
337.61'
 50
88.1488
  7
ROMANS
 72
     4
 11
912829.702475
 21
7261009.391994
 31
0.0
210
0.0
220
0.0
230
1.0
  0
TEXT
  8
11
  6
CONTINUOUS
 62
     7
  5
238
 10
910771.066
 20
7258798.293
 30
0.0
 40
8.0
  1
260'
 50
304.268244
  7
ROMANS
 72
     4
 11
910781.879592
 21
7258789.525915
 31
0.0
210
0.0
220
0.0
230
1.0
  0
TEXT
  8
11
  6
CONTINUOUS
 62
     7
  5
239
 10
910921.085
 20
7258895.944
 30
0.0
 40
8.0
  1
270'
 50
304.268244
  7
ROMANS
 72
     4
 11
910931.898592
 21
7258887.176915
 31
0.0
210
0.0
220
0.0
230
1.0
  0
TEXT
  8
11
  6
CONTINUOUS
 62
     7
  5
23A
 10
911053.524
 20
7258984.282
 30
0.0
 40
8.0
  1
270'
 50
304.268244
  7
ROMANS
 72
     4
 11
911064.337592
 21
7258975.514915
 31
0.0
210
0.0
220
0.0
230
1.0
  0
TEXT
  8
11
  6
CONTINUOUS
 62
     7
  5
23B
 10
911179.719
 20
7259070.353
 30
0.0
 40
8.0
  1
270'
 50
304.268244
  7
ROMANS
 72
     4
 11
911190.532592
 21
7259061.585915
 31
0.0
210
0.0
220
0.0
230
1.0
  0
TEXT
  8
11
  6
CONTINUOUS
 62
     7
  5
23C
 10
911324.845
 20
7259169.398
 30
0.0
 40
8.0
  1
270'
 50
304.268244
  7
ROMANS
 72
     4
 11
911335.658592
 21
7259160.630915
 31
0.0
210
0.0
220
0.0
230
1.0
  0
TEXT
  8
11
  6
CONTINUOUS
 62
     7
  5
23D
 10
911450.661
 20
7259258.635
 30
0.0
 40
8.0
  1
270'
 50
304.268244
  7
ROMANS
 72
     4
 11
911461.474592
 21
7259249.867915
 31
0.0
210
0.0
220
0.0
230
1.0
  0
TEXT
  8
11
  6
CONTINUOUS
 62
     7
  5
23E
 10
911581.947
 20
7259349.482
 30
0.0
 40
8.0
  1
270'
 50
304.268244
  7
ROMANS
 72
     4
 11
911592.760592
 21
7259340.714915
 31
0.0
210
0.0
220
0.0
230
1.0
  0
TEXT
  8
11
  6
CONTINUOUS
 62
     7
  5
23F
 10
911703.251
 20
7259436.946
 30
0.0
 40
8.0
  1
270'
 50
304.268244
  7
ROMANS
 72
     4
 11
911714.064592
 21
7259428.178915
 31
0.0
210
0.0
220
0.0
230
1.0
  0
TEXT
  8
11
  6
CONTINUOUS
 62
     7
  5
240
 10
911832.796
 20
7259528.54
 30
0.0
 40
8.0
  1
270'
 50
304.268244
  7
ROMANS
 72
     4
 11
911843.609592
 21
7259519.772915
 31
0.0
210
0.0
220
0.0
230
1.0
  0
TEXT
  8
11
  6
CONTINUOUS
 62
     7
  5
241
 10
911958.833
 20
7259609.677
 30
0.0
 40
8.0
  1
270'
 50
304.268244
  7
ROMANS
 72
     4
 11
911969.646592
 21
7259600.909915
 31
0.0
210
0.0
220
0.0
230
1.0
  0
TEXT
  8
11
  6
CONTINUOUS
 62
     7
  5
242
 10
912091.312
 20
7259699.25
 30
0.0
 40
8.0
  1
270'
 50
304.268244
  7
ROMANS
 72
     4
 11
912102.125592
 21
7259690.482915
 31
0.0
210
0.0
220
0.0
230
1.0
  0
TEXT
  8
11
  6
CONTINUOUS
 62
     7
  5
243
 10
912229.956
 20
7259788.624
 30
0.0
 40
8.0
  1
270'
 50
304.268244
  7
ROMANS
 72
     4
 11
912240.769592
 21
7259779.856915
 31
0.0
210
0.0
220
0.0
230
1.0
  0
TEXT
  8
11
  6
CONTINUOUS
 62
     7
  5
244
 10
912357.582
 20
7259880.824
 30
0.0
 40
8.0
  1
270'
 50
304.268244
  7
ROMANS
 72
     4
 11
912368.395592
 21
7259872.056915
 31
0.0
210
0.0
220
0.0
230
1.0
  0
TEXT
  8
11
  6
CONTINUOUS
 62
     7
  5
245
 10
910747.238
 20
7259193.212
 30
0.0
 40
8.0
  1
296'
 50
304.268244
  7
ROMANS
 72
     4
 11
910758.051592
 21
7259184.444915
 31
0.0
210
0.0
220
0.0
230
1.0
  0
TEXT
  8
11
  6
CONTINUOUS
 62
     7
  5
246
 10
910879.677
 20
7259281.55
 30
0.0
 40
8.0
  1
296'
 50
304.268244
  7
ROMANS
 72
     4
 11
910890.490592
 21
7259272.782915
 31
0.0
210
0.0
220
0.0
230
1.0
  0
TEXT
  8
11
  6
CONTINUOUS
 62
     7
  5
247
 10
911011.376
 20
7259366.839
 30
0.0
 40
8.0
  1
296'
 50
304.268244
  7
ROMANS
 72
     4
 11
911022.189592
 21
7259358.071915
 31
0.0
210
0.0
220
0.0
230
1.0
  0
TEXT
  8
11
  6
CONTINUOUS
 62
     7
  5
248
 10
911476.883
 20
7259690.084
 30
0.0
 40
8.0
  1
296'
 50
304.268244
  7
ROMANS
 72
     4
 11
911487.696592
 21
7259681.316915
 31
0.0
210
0.0
220
0.0
230
1.0
  0
TEXT
  8
11
  6
CONTINUOUS
 62
     7
  5
249
 10
911610.516
 20
7259777.15
 30
0.0
 40
8.0
  1
296'
 50
304.268244
  7
ROMANS
 72
     4
 11
911621.329592
 21
7259768.382915
 31
0.0
210
0.0
220
0.0
230
1.0
  0
TEXT
  8
11
  6
CONTINUOUS
 62
     7
  5
24A
 10
911743.114
 20
7259870.424
 30
0.0
 40
8.0
  1
296'
 50
304.268244
  7
ROMANS
 72
     4
 11
911753.927592
 21
7259861.656915
 31
0.0
210
0.0
220
0.0
230
1.0
  0
TEXT
  8
11
  6
CONTINUOUS
 62
     7
  5
24B
 10
911885.287
 20
7259973.899
 30
0.0
 40
8.0
  1
296'
 50
304.268244
  7
ROMANS
 72
     4
 11
911896.100592
 21
7259965.131915
 31
0.0
210
0.0
220
0.0
230
1.0
  0
TEXT
  8
11
  6
CONTINUOUS
 62
     7
  5
24C
 10
912193.001
 20
7260177.596
 30
0.0
 40
8.0
  1
296'
 50
304.268244
  7
ROMANS
 72
     4
 11
912203.814592
 21
7260168.828915
 31
0.0
210
0.0
220
0.0
230
1.0
  0
TEXT
  8
11
  6
CONTINUOUS
 62
     7
  5
24D
 10
912325.4
 20
7260264.701
 30
0.0
 40
8.0
  1
296'
 50
304.268244
  7
ROMANS
 72
     4
 11
912336.213592
 21
7260255.933915
 31
0.0
210
0.0
220
0.0
230
1.0
  0
TEXT
  8
11
  6
CONTINUOUS
 62
     7
  5
24E
 10
912955.58
 20
7260687.113
 30
0.0
 40
8.0
  1
296'
 50
304.268244
  7
ROMANS
 72
     4
 11
912966.393592
 21
7260678.345915
 31
0.0
210
0.0
220
0.0
230
1.0
  0
TEXT
  8
11
  6
CONTINUOUS
 62
     7
  5
24F
 10
913085.325
 20
7260783.581
 30
0.0
 40
8.0
  1
296'
 50
304.268244
  7
ROMANS
 72
     4
 11
913096.138592
 21
7260774.813915
 31
0.0
210
0.0
220
0.0
230
1.0
  0
TEXT
  8
11
  6
CONTINUOUS
 62
     7
  5
250
 10
912970.542
 20
7260288.301
 30
0.0
 40
8.0
  1
270'
 50
304.268244
  7
ROMANS
 72
     4
 11
912981.355592
 21
7260279.533915
 31
0.0
210
0.0
220
0.0
230
1.0
  0
TEXT
  8
11
  6
CONTINUOUS
 62
     7
  5
251
 10
913095.465
 20
7260373.177
 30
0.0
 40
8.0
  1
270'
 50
304.268244
  7
ROMANS
 72
     4
 11
913106.278592
 21
7260364.409915
 31
0.0
210
0.0
220
0.0
230
1.0
  0
TEXT
  8
11
  6
CONTINUOUS
 62
     7
  5
252
 10
913217.842
 20
7260455.668
 30
0.0
 40
8.0
  1
270'
 50
304.268244
  7
ROMANS
 72
     4
 11
913228.655592
 21
7260446.900915
 31
0.0
210
0.0
220
0.0
230
1.0
  0
TEXT
  8
11
  6
CONTINUOUS
 62
     7
  5
253
 10
913339.694
 20
7260542.433
 30
0.0
 40
8.0
  1
270'
 50
304.268244
  7
ROMANS
 72
     4
 11
913350.507592
 21
7260533.665915
 31
0.0
210
0.0
220
0.0
230
1.0
  0
TEXT
  8
11
  6
CONTINUOUS
 62
     7
  5
254
 10
913461.037
 20
7260631.131
 30
0.0
 40
8.0
  1
270'
 50
304.268244
  7
ROMANS
 72
     4
 11
913471.850592
 21
7260622.363915
 31
0.0
210
0.0
220
0.0
230
1.0
  0
TEXT
  8
11
  6
CONTINUOUS
 62
     7
  5
255
 10
913584.768
 20
7260717.281
 30
0.0
 40
8.0
  1
270'
 50
304.268244
  7
ROMANS
 72
     4
 11
913595.581592
 21
7260708.513915
 31
0.0
210
0.0
220
0.0
230
1.0
  0
TEXT
  8
11
  6
CONTINUOUS
 62
     7
  5
256
 10
910578.719
 20
7259080.314
 30
0.0
 40
8.0
  1
296'
 50
304.268244
  7
ROMANS
 72
     4
 11
910589.532592
 21
7259071.546915
 31
0.0
210
0.0
220
0.0
230
1.0
  0
TEXT
  8
11
  6
CONTINUOUS
 62
     7
  5
257
 10
912079.347
 20
7259829.31
 30
0.0
 40
8.0
  1
160'
 50
34.268244
  7
ROMANS
 72
     4
 11
912088.113259
 21
7259840.123029
 31
0.0
210
0.0
220
0.0
230
1.0
  0
TEXT
  8
11
  6
CONTINUOUS
 62
     7
  5
258
 10
912210.134
 20
7259917.388
 30
0.0
 40
8.0
  1
160'
 50
34.268244
  7
ROMANS
 72
     4
 11
912218.900259
 21
7259928.201029
 31
0.0
210
0.0
220
0.0
230
1.0
  0
TEXT
  8
11
  6
CONTINUOUS
 62
     7
  5
259
 10
912342.566
 20
7260009.947
 30
0.0
 40
8.0
  1
160'
 50
34.268244
  7
ROMANS
 72
     4
 11
912351.332259
 21
7260020.760029
 31
0.0
210
0.0
220
0.0
230
1.0
  0
TEXT
  8
11
  6
CONTINUOUS
 62
     7
  5
25A
 10
912557.922
 20
7259870.304
 30
0.0
 40
8.0
  1
33.41'
 50
34.268244
  7
ROMANS
 72
     4
 11
912573.299543
 21
7259885.621574
 31
0.0
210
0.0
220
0.0
230
1.0
  0
INSERT
  8
11
  6
CONTINUOUS
 62
     7
  5
264
  2
*D3
 10
912574.182
 20
7259857.609
 30
0.0
 70
     0
 71
     0
  0
TEXT
  8
11
  6
CONTINUOUS
 62
     7
  5
265
 10
912799.615
 20
7260014.954
 30
0.0
 40
8.0
  1
301.07'
 50
34.268244
  7
ROMANS
 72
     4
 11
912818.298185
 21
7260032.523846
 31
0.0
210
0.0
220
0.0
230
1.0
  0
TEXT
  8
11
  6
CONTINUOUS
 62
     7
  5
266
 10
912840.825
 20
7260349.994
 30
0.0
 40
8.0
  1
150'
 50
34.268244
  7
ROMANS
 72
     4
 11
912849.591259
 21
7260360.807029
 31
0.0
210
0.0
220
0.0
230
1.0
  0
TEXT
  8
11
  6
CONTINUOUS
 62
     7
  5
267
 10
912965.396
 20
7260433.044
 30
0.0
 40
8.0
  1
150'
 50
34.268244
  7
ROMANS
 72
     4
 11
912974.162259
 21
7260443.857029
 31
0.0
210
0.0
220
0.0
230
1.0
  0
TEXT
  8
11
  6
CONTINUOUS
 62
     7
  5
268
 10
913091.574
 20
7260518.528
 30
0.0
 40
8.0
  1
150'
 50
34.268244
  7
ROMANS
 72
     4
 11
913100.340259
 21
7260529.341029
 31
0.0
210
0.0
220
0.0
230
1.0
  0
TEXT
  8
11
  6
CONTINUOUS
 62
     7
  5
269
 10
913212.03
 20
7260601.444
 30
0.0
 40
8.0
  1
150'
 50
34.268244
  7
ROMANS
 72
     4
 11
913220.796259
 21
7260612.257029
 31
0.0
210
0.0
220
0.0
230
1.0
  0
TEXT
  8
11
  6
CONTINUOUS
 62
     7
  5
26A
 10
913340.957
 20
7260687.113
 30
0.0
 40
8.0
  1
150'
 50
34.268244
  7
ROMANS
 72
     4
 11
913349.723259
 21
7260697.926029
 31
0.0
210
0.0
220
0.0
230
1.0
  0
TEXT
  8
11
  6
CONTINUOUS
 62
     7
  5
26B
 10
913463.323
 20
7260772.949
 30
0.0
 40
8.0
  1
150'
 50
34.268244
  7
ROMANS
 72
     4
 11
913472.089259
 21
7260783.762029
 31
0.0
210
0.0
220
0.0
230
1.0
  0
TEXT
  8
11
  6
CONTINUOUS
 62
     7
  5
26C
 10
913588.34
 20
7260856.814
 30
0.0
 40
8.0
  1
150'
 50
34.268244
  7
ROMANS
 72
     4
 11
913597.106259
 21
7260867.627029
 31
0.0
210
0.0
220
0.0
230
1.0
  0
TEXT
  8
11
  6
CONTINUOUS
 62
     7
  5
26D
 10
913904.679
 20
7260768.295
 30
0.0
 40
8.0
  1
370.27'
 50
34.268244
  7
ROMANS
 72
     4
 11
913923.362185
 21
7260785.864846
 31
0.0
210
0.0
220
0.0
230
1.0
  0
TEXT
  8
11
  6
CONTINUOUS
 62
     7
  5
26E
 10
914238.508
 20
7260994.801
 30
0.0
 40
8.0
  1
403.23'
 50
34.268244
  7
ROMANS
 72
     4
 11
914257.191185
 21
7261012.370846
 31
0.0
210
0.0
220
0.0
230
1.0
  0
TEXT
  8
11
  6
CONTINUOUS
 62
     7
  5
26F
 10
912041.69
 20
7260233.468
 30
0.0
 40
8.0
  1
192.89'
 50
34.268244
  7
ROMANS
 72
     4
 11
912060.373185
 21
7260251.037846
 31
0.0
210
0.0
220
0.0
230
1.0
  0
TEXT
  8
11
  6
CONTINUOUS
 62
     7
  5
270
 10
912205.98
 20
7260007.908
 30
0.0
 40
8.0
  1
145'
 50
34.268244
  7
ROMANS
 72
     4
 11
912214.746259
 21
7260018.721029
 31
0.0
210
0.0
220
0.0
230
1.0
  0
TEXT
  8
11
  6
CONTINUOUS
 62
     7
  5
271
 10
912343.24
 20
7260102.257
 30
0.0
 40
8.0
  1
160'
 50
34.268244
  7
ROMANS
 72
     4
 11
912352.006259
 21
7260113.070029
 31
0.0
210
0.0
220
0.0
230
1.0
  0
TEXT
  8
11
  6
CONTINUOUS
 62
     7
  5
272
 10
912473.845
 20
7260190.365
 30
0.0
 40
8.0
  1
160'
 50
34.268244
  7
ROMANS
 72
     4
 11
912482.611259
 21
7260201.178029
 31
0.0
210
0.0
220
0.0
230
1.0
  0
TEXT
  8
11
  6
CONTINUOUS
 62
     7
  5
273
 10
912599.092
 20
7260277.84
 30
0.0
 40
8.0
  1
150.55'
 50
34.268244
  7
ROMANS
 72
     4
 11
912617.775185
 21
7260295.409846
 31
0.0
210
0.0
220
0.0
230
1.0
  0
TEXT
  8
11
  6
CONTINUOUS
 62
     7
  5
274
 10
912509.704
 20
7260553.608
 30
0.0
 40
8.0
  1
366.55'
 50
34.268244
  7
ROMANS
 72
     4
 11
912528.387185
 21
7260571.177846
 31
0.0
210
0.0
220
0.0
230
1.0
  0
TEXT
  8
11
  6
CONTINUOUS
 62
     7
  5
275
 10
912711.565
 20
7260690.823
 30
0.0
 40
8.0
  1
73.35'
 50
34.268244
  7
ROMANS
 72
     4
 11
912726.942543
 21
7260706.140574
 31
0.0
210
0.0
220
0.0
230
1.0
  0
TEXT
  8
11
  6
CONTINUOUS
 62
     7
  5
276
 10
912788.168
 20
7260405.145
 30
0.0
 40
8.0
  1
289.35'
 50
34.268244
  7
ROMANS
 72
     4
 11
912806.851185
 21
7260422.714846
 31
0.0
210
0.0
220
0.0
230
1.0
  0
TEXT
  8
11
  6
CONTINUOUS
 62
     7
  5
277
 10
912970.887
 20
7260530.227
 30
0.0
 40
8.0
  1
160'
 50
34.268244
  7
ROMANS
 72
     4
 11
912979.653259
 21
7260541.040029
 31
0.0
210
0.0
220
0.0
230
1.0
  0
TEXT
  8
11
  6
CONTINUOUS
 62
     7
  5
278
 10
913101.188
 20
7260619.262
 30
0.0
 40
8.0
  1
160'
 50
34.268244
  7
ROMANS
 72
     4
 11
913109.954259
 21
7260630.075029
 31
0.0
210
0.0
220
0.0
230
1.0
  0
TEXT
  8
11
  6
CONTINUOUS
 62
     7
  5
279
 10
913236.39
 20
7260709.803
 30
0.0
 40
8.0
  1
160'
 50
34.268244
  7
ROMANS
 72
     4
 11
913245.156259
 21
7260720.616029
 31
0.0
210
0.0
220
0.0
230
1.0
  0
TEXT
  8
11
  6
CONTINUOUS
 62
     7
  5
27A
 10
913399.864
 20
7260821.876
 30
0.0
 40
8.0
  1
260'
 50
34.268244
  7
ROMANS
 72
     4
 11
913408.630259
 21
7260832.689029
 31
0.0
210
0.0
220
0.0
230
1.0
  0
TEXT
  8
11
  6
CONTINUOUS
 62
     7
  5
27B
 10
913194.696
 20
7261020.35
 30
0.0
 40
8.0
  1
129.16'
 50
34.268244
  7
ROMANS
 72
     4
 11
913213.379185
 21
7261037.919846
 31
0.0
210
0.0
220
0.0
230
1.0
  0
TEXT
  8
11
  6
CONTINUOUS
 62
     7
  5
27C
 10
913569.263
 20
7260936.554
 30
0.0
 40
8.0
  1
156.33'
 50
34.268244
  7
ROMANS
 72
     4
 11
913587.946185
 21
7260954.123846
 31
0.0
210
0.0
220
0.0
230
1.0
  0
TEXT
  8
11
  6
CONTINUOUS
 62
     7
  5
27D
 10
912723.183
 20
7261141.538
 30
0.0
 40
8.0
  1
147.36'
 50
358.1488
  7
ROMANS
 72
     4
 11
912748.632994
 21
7261144.717525
 31
0.0
210
0.0
220
0.0
230
1.0
  0
TEXT
  8
11
  6
CONTINUOUS
 62
     7
  5
27E
 10
912996.304
 20
7261132.71
 30
0.0
 40
8.0
  1
391.33'
 50
358.1488
  7
ROMANS
 72
     4
 11
913021.753994
 21
7261135.889525
 31
0.0
210
0.0
220
0.0
230
1.0
  0
TEXT
  8
11
  6
CONTINUOUS
 62
     7
  5
27F
 10
913477.518
 20
7261117.156
 30
0.0
 40
8.0
  1
451.00'
 50
358.1488
  7
ROMANS
 72
     4
 11
913502.967994
 21
7261120.335525
 31
0.0
210
0.0
220
0.0
230
1.0
  0
TEXT
  8
11
  6
CONTINUOUS
 62
     7
  5
280
 10
912160.487
 20
7261168.551
 30
0.0
 40
8.0
  1
155.92'
 50
358.1488
  7
ROMANS
 72
     4
 11
912185.936994
 21
7261171.730525
 31
0.0
210
0.0
220
0.0
230
1.0
  0
TEXT
  8
11
  6
CONTINUOUS
 62
     7
  5
281
 10
912164.83
 20
7260531.497
 30
0.0
 40
8.0
  1
180'
 50
358.1488
  7
ROMANS
 72
     4
 11
912178.286257
 21
7260535.064172
 31
0.0
210
0.0
220
0.0
230
1.0
  0
TEXT
  8
11
  6
CONTINUOUS
 62
     7
  5
282
 10
912406.229
 20
7260527.906
 30
0.0
 40
8.0
  1
61.18'
 50
34.268244
  7
ROMANS
 72
     4
 11
912421.606543
 21
7260543.223574
 31
0.0
210
0.0
220
0.0
230
1.0
  0
TEXT
  8
11
  6
CONTINUOUS
 62
     7
  5
283
 10
912521.314
 20
7260607.249
 30
0.0
 40
8.0
  1
217.59'
 50
34.268244
  7
ROMANS
 72
     4
 11
912539.997185
 21
7260624.818846
 31
0.0
210
0.0
220
0.0
230
1.0
  0
TEXT
  8
11
  6
CONTINUOUS
 62
     7
  5
284
 10
912719.583
 20
7260744.147
 30
0.0
 40
8.0
  1
247.59'
 50
34.268244
  7
ROMANS
 72
     4
 11
912738.266185
 21
7260761.716846
 31
0.0
210
0.0
220
0.0
230
1.0
  0
TEXT
  8
11
  6
CONTINUOUS
 62
     7
  5
285
 10
913050.805
 20
7260966.493
 30
0.0
 40
8.0
  1
484.45'
 50
34.268244
  7
ROMANS
 72
     4
 11
913069.488185
 21
7260984.062846
 31
0.0
210
0.0
220
0.0
230
1.0
  0
TEXT
  8
11
  6
CONTINUOUS
 62
     7
  5
286
 10
912395.058
 20
7260960.335
 30
0.0
 40
8.0
  1
228.21'
 50
42.570389
  7
ROMANS
 72
     4
 11
912411.008425
 21
7260980.418447
 31
0.0
210
0.0
220
0.0
230
1.0
  0
TEXT
  8
11
  6
CONTINUOUS
 62
     7
  5
287
 10
912490.729
 20
7261048.939
 30
0.0
 40
8.0
  1
77.01'
 50
38.706783
  7
ROMANS
 72
     4
 11
912504.875002
 21
7261065.400698
 31
0.0
210
0.0
220
0.0
230
1.0
  0
TEXT
  8
11
  6
CONTINUOUS
 62
     7
  5
288
 10
912364.713
 20
7261039.212
 30
0.0
 40
8.0
  1
305.22'
 50
34.268244
  7
ROMANS
 72
     4
 11
912383.396185
 21
7261056.781846
 31
0.0
210
0.0
220
0.0
230
1.0
  0
TEXT
  8
11
  6
CONTINUOUS
 62
     7
  5
289
 10
912159.271
 20
7260489.579
 30
0.0
 40
8.0
  1
310'
 50
358.1488
  7
ROMANS
 72
     4
 11
912172.727257
 21
7260493.146172
 31
0.0
210
0.0
220
0.0
230
1.0
  0
TEXT
  8
11
  6
CONTINUOUS
 62
     7
  5
28A
 10
911869.961
 20
7260500.378
 30
0.0
 40
8.0
  1
263.17'
 50
358.1488
  7
ROMANS
 72
     4
 11
911895.410994
 21
7260503.557525
 31
0.0
210
0.0
220
0.0
230
1.0
  0
TEXT
  8
11
  6
CONTINUOUS
 62
     7
  5
28B
 10
912518.473
 20
7260128.326
 30
0.0
 40
8.0
  1
318.76'
 50
34.268244
  7
ROMANS
 72
     4
 11
912537.156185
 21
7260145.895846
 31
0.0
210
0.0
220
0.0
230
1.0
  0
TEXT
  8
11
  6
CONTINUOUS
 62
     7
  5
28C
 10
912725.19
 20
7260270.599
 30
0.0
 40
8.0
  1
130'
 50
34.268244
  7
ROMANS
 72
     4
 11
912733.956259
 21
7260281.412029
 31
0.0
210
0.0
220
0.0
230
1.0
  0
TEXT
  8
11
  6
CONTINUOUS
 62
     7
  5
28D
 10
910136.905
 20
7259221.993
 30
0.0
 40
6.0
  1
20'
 50
88.1488
  7
ROMANS
 72
     4
 11
910134.132693
 21
7259229.086258
 31
0.0
210
0.0
220
0.0
230
1.0
  0
TEXT
  8
11
  6
CONTINUOUS
 62
     7
  5
28E
 10
910157.638
 20
7259897.703
 30
0.0
 40
6.0
  1
20'
 50
88.1488
  7
ROMANS
 72
     4
 11
910154.865693
 21
7259904.796258
 31
0.0
210
0.0
220
0.0
230
1.0
  0
TEXT
  8
11
  6
CONTINUOUS
 62
     7
  5
28F
 10
910181.149
 20
7260573.781
 30
0.0
 40
6.0
  1
20'
 50
88.1488
  7
ROMANS
 72
     4
 11
910178.376693
 21
7260580.874258
 31
0.0
210
0.0
220
0.0
230
1.0
  0
TEXT
  8
11
  6
CONTINUOUS
 62
     7
  5
290
 10
911065.454
 20
7260544.094
 30
0.0
 40
6.0
  1
20'
 50
88.1488
  7
ROMANS
 72
     4
 11
911062.681693
 21
7260551.187258
 31
0.0
210
0.0
220
0.0
230
1.0
  0
TEXT
  8
11
  6
CONTINUOUS
 62
     7
  5
291
 10
911145.506
 20
7260541.506
 30
0.0
 40
6.0
  1
20'
 50
88.1488
  7
ROMANS
 72
     4
 11
911142.733693
 21
7260548.599258
 31
0.0
210
0.0
220
0.0
230
1.0
  0
TEXT
  8
11
  6
CONTINUOUS
 62
     7
  5
292
 10
912333.878
 20
7260503.097
 30
0.0
 40
6.0
  1
20'
 50
88.1488
  7
ROMANS
 72
     4
 11
912331.105693
 21
7260510.190258
 31
0.0
210
0.0
220
0.0
230
1.0
  0
TEXT
  8
11
  6
CONTINUOUS
 62
     7
  5
293
 10
910670.879
 20
7259881.84
 30
0.0
 40
6.0
  1
20'
 50
88.1488
  7
ROMANS
 72
     4
 11
910668.106693
 21
7259888.933258
 31
0.0
210
0.0
220
0.0
230
1.0
  0
TEXT
  8
11
  6
CONTINUOUS
 62
     7
  5
294
 10
910879.697
 20
7259873.986
 30
0.0
 40
6.0
  1
20'
 50
88.1488
  7
ROMANS
 72
     4
 11
910876.924693
 21
7259881.079258
 31
0.0
210
0.0
220
0.0
230
1.0
  0
TEXT
  8
11
  6
CONTINUOUS
 62
     7
  5
295
 10
911361.57
 20
7259857.858
 30
0.0
 40
6.0
  1
20'
 50
88.1488
  7
ROMANS
 72
     4
 11
911358.797693
 21
7259864.951258
 31
0.0
210
0.0
220
0.0
230
1.0
  0
TEXT
  8
11
  6
CONTINUOUS
 62
     7
  5
296
 10
911829.085
 20
7260125.197
 30
0.0
 40
6.0
  1
20'
 50
304.268244
  7
ROMANS
 72
     4
 11
911835.505708
 21
7260121.101331
 31
0.0
210
0.0
220
0.0
230
1.0
  0
TEXT
  8
11
  6
CONTINUOUS
 62
     7
  5
297
 10
912013.73
 20
7260249.748
 30
0.0
 40
6.0
  1
20'
 50
304.268244
  7
ROMANS
 72
     4
 11
912020.150708
 21
7260245.652331
 31
0.0
210
0.0
220
0.0
230
1.0
  0
TEXT
  8
11
  6
CONTINUOUS
 62
     7
  5
298
 10
910569.66
 20
7259267.257
 30
0.0
 40
6.0
  1
20'
 50
304.268244
  7
ROMANS
 72
     4
 11
910576.080708
 21
7259263.161331
 31
0.0
210
0.0
220
0.0
230
1.0
  0
TEXT
  8
11
  6
CONTINUOUS
 62
     7
  5
299
 10
910870.701
 20
7259471.85
 30
0.0
 40
6.0
  1
20'
 50
304.268244
  7
ROMANS
 72
     4
 11
910877.121708
 21
7259467.754331
 31
0.0
210
0.0
220
0.0
230
1.0
  0
TEXT
  8
11
  6
CONTINUOUS
 62
     7
  5
29A
 10
911073.86
 20
7259610.858
 30
0.0
 40
6.0
  1
20'
 50
304.268244
  7
ROMANS
 72
     4
 11
911080.280708
 21
7259606.762331
 31
0.0
210
0.0
220
0.0
230
1.0
  0
TEXT
  8
11
  6
CONTINUOUS
 62
     7
  5
29B
 10
912412.176
 20
7260523.577
 30
0.0
 40
6.0
  1
20'
 50
304.268244
  7
ROMANS
 72
     4
 11
912418.596708
 21
7260519.481331
 31
0.0
210
0.0
220
0.0
230
1.0
  0
TEXT
  8
11
  6
CONTINUOUS
 62
     7
  5
29C
 10
912340.132
 20
7260471.901
 30
0.0
 40
6.0
  1
20'
 50
304.268244
  7
ROMANS
 72
     4
 11
912346.552708
 21
7260467.805331
 31
0.0
210
0.0
220
0.0
230
1.0
  0
TEXT
  8
11
  6
CONTINUOUS
 62
     7
  5
29D
 10
913238.046
 20
7261104.177
 30
0.0
 40
6.0
  1
20'
 50
358.1488
  7
ROMANS
 72
     4
 11
913245.139258
 21
7261106.949307
 31
0.0
210
0.0
220
0.0
230
1.0
  0
INSERT
  8
11
  6
CONTINUOUS
 62
     7
  5
2A3
  2
*D4
 10
911274.922
 20
7259728.199
 30
0.0
 70
     0
 71
     0
  0
INSERT
  8
11
  6
CONTINUOUS
 62
     7
  5
2A9
  2
*D5
 10
910710.091
 20
7258912.581
 30
0.0
 70
     0
 71
     0
  0
INSERT
  8
11
  6
CONTINUOUS
 62
     7
  5
2AF
  2
*D6
 10
910873.018
 20
7258708.975
 30
0.0
 70
     0
 71
     0
  0
INSERT
  8
11
  6
CONTINUOUS
 62
     7
  5
2B5
  2
*D7
 10
910692.836
 20
7258973.426
 30
0.0
 70
     0
 71
     0
  0
INSERT
  8
11
  6
CONTINUOUS
 62
     7
  5
2BB
  2
*D8
 10
911292.628
 20
7259400.24
 30
0.0
 70
     0
 71
     0
  0
INSERT
  8
11
  6
CONTINUOUS
 62
     7
  5
2C1
  2
*D9
 10
911246.35
 20
7259368.708
 30
0.0
 70
     0
 71
     0
  0
INSERT
  8
11
  6
CONTINUOUS
 62
     7
  5
2C7
  2
*D10
 10
911002.706
 20
7259567.053
 30
0.0
 70
     0
 71
     0
  0
INSERT
  8
11
  6
CONTINUOUS
 62
     7
  5
2CD
  2
*D11
 10
911011.466
 20
7259866.926
 30
0.0
 70
     0
 71
     0
  0
INSERT
  8
11
  6
CONTINUOUS
 62
     7
  5
2D3
  2
*D12
 10
912102.511
 20
7259952.048
 30
0.0
 70
     0
 71
     0
  0
INSERT
  8
11
  6
CONTINUOUS
 62
     7
  5
2D9
  2
*D13
 10
912049.751
 20
7260127.193
 30
0.0
 70
     0
 71
     0
  0
INSERT
  8
11
  6
CONTINUOUS
 62
     7
  5
2DF
  2
*D14
 10
912564.52
 20
7259849.37
 30
0.0
 70
     0
 71
     0
  0
INSERT
  8
11
  6
CONTINUOUS
 62
     7
  5
2E5
  2
*D15
 10
913803.109
 20
7260693.275
 30
0.0
 70
     0
 71
     0
  0
INSERT
  8
11
  6
CONTINUOUS
 62
     7
  5
2EB
  2
*D16
 10
914109.104
 20
7260901.763
 30
0.0
 70
     0
 71
     0
  0
INSERT
  8
11
  6
CONTINUOUS
 62
     7
  5
2F1
  2
*D17
 10
912935.381
 20
7260102.052
 30
0.0
 70
     0
 71
     0
  0
INSERT
  8
11
  6
CONTINUOUS
 62
     7
  5
2F7
  2
*D18
 10
912665.736
 20
7259936.48
 30
0.0
 70
     0
 71
     0
  0
INSERT
  8
11
  6
CONTINUOUS
 62
     7
  5
2FD
  2
*D19
 10
912677.514
 20
7260325.672
 30
0.0
 70
     0
 71
     0
  0
INSERT
  8
11
  6
CONTINUOUS
 62
     7
  5
303
  2
*D20
 10
912553.098
 20
7260240.901
 30
0.0
 70
     0
 71
     0
  0
INSERT
  8
11
  6
CONTINUOUS
 62
     7
  5
309
  2
*D21
 10
913313.313
 20
7260758.867
 30
0.0
 70
     0
 71
     0
  0
INSERT
  8
11
  6
CONTINUOUS
 62
     7
  5
30F
  2
*D22
 10
913528.179
 20
7260905.264
 30
0.0
 70
     0
 71
     0
  0
INSERT
  8
11
  6
CONTINUOUS
 62
     7
  5
315
  2
*D23
 10
912592.136
 20
7259868.182
 30
0.0
 70
     0
 71
     0
  0
INSERT
  8
11
  6
CONTINUOUS
 62
     7
  5
31B
  2
*D24
 10
912600.027
 20
7259900.781
 30
0.0
 70
     0
 71
     0
  0
INSERT
  8
11
  6
CONTINUOUS
 62
     7
  5
321
  2
*D25
 10
912671.266
 20
7259938.976
 30
0.0
 70
     0
 71
     0
  0
INSERT
  8
11
  6
CONTINUOUS
 62
     7
  5
327
  2
*D26
 10
910924.236
 20
7259513.56
 30
0.0
 70
     0
 71
     0
  0
TEXT
  8
11
  6
CONTINUOUS
 62
     7
  5
328
 10
910175.601
 20
7260911.382
 30
0.0
 40
8.0
  1
56'
 50
88.1488
  7
ROMANS
 72
     4
 11
910171.904612
 21
7260920.840344
 31
0.0
210
0.0
220
0.0
230
1.0
  0
TEXT
  8
11
  6
CONTINUOUS
 62
     7
  5
329
 10
910945.63
 20
7260884.827
 30
0.0
 40
8.0
  1
56'
 50
88.1488
  7
ROMANS
 72
     4
 11
910941.933612
 21
7260894.285344
 31
0.0
210
0.0
220
0.0
230
1.0
  0
TEXT
  8
11
  6
CONTINUOUS
 62
     7
  5
32A
 10
912102.436
 20
7260846.606
 30
0.0
 40
8.0
  1
56'
 50
88.1488
  7
ROMANS
 72
     4
 11
912098.739612
 21
7260856.064344
 31
0.0
210
0.0
220
0.0
230
1.0
  0
TEXT
  8
11
  6
CONTINUOUS
 62
     7
  5
32B
 10
911860.912
 20
7260181.081
 30
0.0
 40
8.0
  1
56'
 50
88.1488
  7
ROMANS
 72
     4
 11
911857.215612
 21
7260190.539344
 31
0.0
210
0.0
220
0.0
230
1.0
  0
TEXT
  8
11
  6
CONTINUOUS
 62
     7
  5
32C
 10
910714.176
 20
7260218.144
 30
0.0
 40
8.0
  1
56'
 50
88.1488
  7
ROMANS
 72
     4
 11
910710.479612
 21
7260227.602344
 31
0.0
210
0.0
220
0.0
230
1.0
  0
TEXT
  8
11
  6
CONTINUOUS
 62
     7
  5
32D
 10
910325.547
 20
7260230.705
 30
0.0
 40
8.0
  1
56'
 50
88.1488
  7
ROMANS
 72
     4
 11
910321.850612
 21
7260240.163344
 31
0.0
210
0.0
220
0.0
230
1.0
  0
TEXT
  8
11
  6
CONTINUOUS
 62
     7
  5
32E
 10
910112.469
 20
7259559.557
 30
0.0
 40
8.0
  1
56'
 50
88.1488
  7
ROMANS
 72
     4
 11
910108.772612
 21
7259569.015344
 31
0.0
210
0.0
220
0.0
230
1.0
  0
TEXT
  8
11
  6
CONTINUOUS
 62
     7
  5
32F
 10
910694.196
 20
7259540.755
 30
0.0
 40
8.0
  1
56'
 50
88.1488
  7
ROMANS
 72
     4
 11
910690.499612
 21
7259550.213344
 31
0.0
210
0.0
220
0.0
230
1.0
  0
TEXT
  8
11
  6
CONTINUOUS
 62
     7
  5
330
 10
911076.072
 20
7259528.412
 30
0.0
 40
8.0
  1
56'
 50
88.1488
  7
ROMANS
 72
     4
 11
911072.375612
 21
7259537.870344
 31
0.0
210
0.0
220
0.0
230
1.0
  0
TEXT
  8
11
  6
CONTINUOUS
 62
     7
  5
331
 10
911234.808
 20
7259314.289
 30
0.0
 40
8.0
  1
60'
 50
304.268244
  7
ROMANS
 72
     4
 11
911243.36932
 21
7259308.827557
 31
0.0
210
0.0
220
0.0
230
1.0
  0
TEXT
  8
11
  6
CONTINUOUS
 62
     7
  5
332
 10
912092.448
 20
7259898.888
 30
0.0
 40
8.0
  1
60'
 50
304.268244
  7
ROMANS
 72
     4
 11
912101.00932
 21
7259893.426557
 31
0.0
210
0.0
220
0.0
230
1.0
  0
TEXT
  8
11
  6
CONTINUOUS
 62
     7
  5
333
 10
914060.195
 20
7261128.273
 30
0.0
 40
8.0
  1
659.77'
 50
358.1488
  7
ROMANS
 72
     4
 11
914085.644994
 21
7261131.452525
 31
0.0
210
0.0
220
0.0
230
1.0
  0
INSERT
  8
11
  6
CONTINUOUS
 62
     7
  5
339
  2
*D27
 10
911857.88
 20
7260215.215
 30
0.0
 70
     0
 71
     0
  0
INSERT
  8
11
  6
CONTINUOUS
 62
     7
  5
33F
  2
*D28
 10
912345.685
 20
7260481.912
 30
0.0
 70
     0
 71
     0
  0
TEXT
  8
11
  6
CONTINUOUS
 62
     7
  5
340
 10
910064.884
 20
7258677.6
 30
0.0
 40
8.0
  1
R=30'
 50
43.1488
  7
ROMANS
 72
     4
 11
910074.794959
 21
7258692.372963
 31
0.0
210
0.0
220
0.0
230
1.0
  0
TEXT
  8
11
  6
CONTINUOUS
 62
     7
  5
341
 10
910784.2
 20
7260943.225
 30
0.0
 40
8.0
  1
56'
 50
358.1488
  7
ROMANS
 72
     4
 11
910793.658344
 21
7260946.921388
 31
0.0
210
0.0
220
0.0
230
1.0
  0
TEXT
  8
11
  6
CONTINUOUS
 62
     7
  5
342
 10
911102.396
 20
7260826.168
 30
0.0
 40
8.0
  1
56'
 50
358.1488
  7
ROMANS
 72
     4
 11
911111.854344
 21
7260829.864388
 31
0.0
210
0.0
220
0.0
230
1.0
  0
TEXT
  8
11
  6
CONTINUOUS
 62
     7
  5
343
 10
911084.157
 20
7260261.852
 30
0.0
 40
8.0
  1
56'
 50
358.1488
  7
ROMANS
 72
     4
 11
911093.615344
 21
7260265.548388
 31
0.0
210
0.0
220
0.0
230
1.0
  0
TEXT
  8
11
  6
CONTINUOUS
 62
     7
  5
344
 10
910762.359
 20
7260123.995
 30
0.0
 40
8.0
  1
56'
 50
358.1488
  7
ROMANS
 72
     4
 11
910771.817344
 21
7260127.691388
 31
0.0
210
0.0
220
0.0
230
1.0
  0
TEXT
  8
11
  6
CONTINUOUS
 62
     7
  5
345
 10
910743.564
 20
7259619.713
 30
0.0
 40
8.0
  1
56'
 50
358.1488
  7
ROMANS
 72
     4
 11
910753.022344
 21
7259623.409388
 31
0.0
210
0.0
220
0.0
230
1.0
  0
TEXT
  8
11
  6
CONTINUOUS
 62
     7
  5
346
 10
910444.055
 20
7258696.616
 30
0.0
 40
8.0
  1
60'
 50
358.1488
  7
ROMANS
 72
     4
 11
910453.513344
 21
7258700.312388
 31
0.0
210
0.0
220
0.0
230
1.0
  0
TEXT
  8
11
  6
CONTINUOUS
 62
     7
  5
347
 10
910438.619
 20
7259213.248
 30
0.0
 40
6.0
  1
20'
 50
88.1488
  7
ROMANS
 72
     4
 11
910435.846693
 21
7259220.341258
 31
0.0
210
0.0
220
0.0
230
1.0
  0
TEXT
  8
11
  6
CONTINUOUS
 62
     7
  5
348
 10
913741.947
 20
7261074.823
 30
0.0
 40
8.0
  1
60'
 50
358.1488
  7
ROMANS
 72
     4
 11
913751.405344
 21
7261078.519388
 31
0.0
210
0.0
220
0.0
230
1.0
  0
TEXT
  8
11
  6
CONTINUOUS
 62
     7
  5
349
 10
910130.758
 20
7260248.409
 30
0.0
 40
8.0
  1
115.18'
 50
358.1488
  7
ROMANS
 72
     4
 11
910156.207994
 21
7260251.588525
 31
0.0
210
0.0
220
0.0
230
1.0
  0
TEXT
  8
11
  6
CONTINUOUS
 62
     7
  5
34A
 10
912283.398
 20
7260460.653
 30
0.0
 40
5.0
  1
N18%%d03'35"W
 50
34.268244
  7
ROMANS
 72
     4
 11
912304.129867
 21
7260477.803621
 31
0.0
210
0.0
220
0.0
230
1.0
  0
TEXT
  8
11
  6
CONTINUOUS
 62
     7
  5
34B
 10
912302.627
 20
7260463.68
 30
0.0
 40
5.0
  1
18.6'
 50
34.268244
  7
ROMANS
 72
     4
 11
912310.171835
 21
7260471.845743
 31
0.0
210
0.0
220
0.0
230
1.0
  0
INSERT
  8
11
  6
CONTINUOUS
 62
     7
  5
359
  2
*D29
 10
912343.062
 20
7260490.636
 30
0.0
 70
     0
 71
     0
  0
TEXT
  8
11
  6
CONTINUOUS
 62
     7
  5
35A
 10
910429.591
 20
7258743.764
 30
0.0
 40
8.0
  1
R
 50
68.494811
  7
ROMANS
 72
     1
 11
910430.514795
 21
7258746.108569
 31
0.0
210
0.0
220
0.0
230
1.0
  0
TEXT
  8
11
  6
CONTINUOUS
 62
     7
  5
35B
 10
910432.503
 20
7258751.148
 30
0.0
 40
8.0
  1
=
 50
68.494811
  7
ROMANS
 72
     1
 11
910433.724829
 21
7258754.248971
 31
0.0
210
0.0
220
0.0
230
1.0
  0
TEXT
  8
11
  6
CONTINUOUS
 62
     7
  5
35C
 10
910435.69
 20
7258758.583
 30
0.0
 40
8.0
  1
2
 50
65.518575
  7
ROMANS
 72
     1
 11
910436.657205
 21
7258760.707163
 31
0.0
210
0.0
220
0.0
230
1.0
  0
TEXT
  8
11
  6
CONTINUOUS
 62
     7
  5
35D
 10
910439.056
 20
7258765.943
 30
0.0
 40
8.0
  1
3
 50
62.542339
  7
ROMANS
 72
     1
 11
910440.13173
 21
7258768.013192
 31
0.0
210
0.0
220
0.0
230
1.0
  0
TEXT
  8
11
  6
CONTINUOUS
 62
     7
  5
35E
 10
910442.715
 20
7258772.986
 30
0.0
 40
8.0
  1
7
 50
62.542339
  7
ROMANS
 72
     1
 11
910443.79073
 21
7258775.056192
 31
0.0
210
0.0
220
0.0
230
1.0
  0
TEXT
  8
11
  6
CONTINUOUS
 62
     7
  5
35F
 10
910446.619
 20
7258780.073
 30
0.0
 40
8.0
  1
.
 50
59.566103
  7
ROMANS
 72
     1
 11
910447.288651
 21
7258781.212847
 31
0.0
210
0.0
220
0.0
230
1.0
  0
TEXT
  8
11
  6
CONTINUOUS
 62
     7
  5
360
 10
910450.691
 20
7258787.066
 30
0.0
 40
8.0
  1
2
 50
56.589864
  7
ROMANS
 72
     1
 11
910451.975616
 21
7258789.013473
 31
0.0
210
0.0
220
0.0
230
1.0
  0
TEXT
  8
11
  6
CONTINUOUS
 62
     7
  5
361
 10
910455.061
 20
7258793.69
 30
0.0
 40
8.0
  1
0
 50
56.589864
  7
ROMANS
 72
     1
 11
910456.520716
 21
7258795.902923
 31
0.0
210
0.0
220
0.0
230
1.0
  0
TEXT
  8
11
  6
CONTINUOUS
 62
     7
  5
362
 10
910459.645
 20
7258800.358
 30
0.0
 40
8.0
  1
'
 50
53.613628
  7
ROMANS
 72
     1
 11
910460.436365
 21
7258801.431917
 31
0.0
210
0.0
220
0.0
230
1.0
  0
TEXT
  8
11
  6
CONTINUOUS
 62
     7
  5
363
 10
910439.529
 20
7258729.527
 30
0.0
 40
8.0
  1
C
 50
71.47105
  7
ROMANS
 72
     1
 11
910432.744509
 21
7258734.458642
 31
0.0
210
0.0
220
0.0
230
1.0
 73
     3
  0
TEXT
  8
11
  6
CONTINUOUS
 62
     7
  5
364
 10
910441.794
 20
7258736.539
 30
0.0
 40
8.0
  1
H
 50
68.494811
  7
ROMANS
 72
     1
 11
910435.206169
 21
7258741.642271
 31
0.0
210
0.0
220
0.0
230
1.0
 73
     3
  0
TEXT
  8
11
  6
CONTINUOUS
 62
     7
  5
365
 10
910444.704
 20
7258743.924
 30
0.0
 40
8.0
  1
=
 50
68.494811
  7
ROMANS
 72
     1
 11
910438.482754
 21
7258749.957655
 31
0.0
210
0.0
220
0.0
230
1.0
 73
     3
  0
TEXT
  8
11
  6
CONTINUOUS
 62
     7
  5
366
 10
910447.5
 20
7258750.735
 30
0.0
 40
8.0
  1
2
 50
65.518575
  7
ROMANS
 72
     1
 11
910441.18644
 21
7258756.174349
 31
0.0
210
0.0
220
0.0
230
1.0
 73
     3
  0
TEXT
  8
11
  6
CONTINUOUS
 62
     7
  5
367
 10
910450.789
 20
7258757.959
 30
0.0
 40
8.0
  1
1
 50
65.518575
  7
ROMANS
 72
     1
 11
910444.061042
 21
7258762.488253
 31
0.0
210
0.0
220
0.0
230
1.0
 73
     3
  0
TEXT
  8
11
  6
CONTINUOUS
 62
     7
  5
368
 10
910454.102
 20
7258764.535
 30
0.0
 40
8.0
  1
4
 50
62.542339
  7
ROMANS
 72
     1
 11
910448.078916
 21
7258770.293936
 31
0.0
210
0.0
220
0.0
230
1.0
 73
     3
  0
TEXT
  8
11
  6
CONTINUOUS
 62
     7
  5
369
 10
910457.551
 20
7258771.042
 30
0.0
 40
8.0
  1
.
 50
59.566103
  7
ROMANS
 72
     1
 11
910451.322938
 21
7258776.234199
 31
0.0
210
0.0
220
0.0
230
1.0
 73
     3
  0
TEXT
  8
11
  6
CONTINUOUS
 62
     7
  5
36A
 10
910461.571
 20
7258777.886
 30
0.0
 40
8.0
  1
8
 50
59.566103
  7
ROMANS
 72
     1
 11
910455.855054
 21
7258783.949897
 31
0.0
210
0.0
220
0.0
230
1.0
 73
     3
  0
TEXT
  8
11
  6
CONTINUOUS
 62
     7
  5
36B
 10
910465.511
 20
7258784.105
 30
0.0
 40
8.0
  1
5
 50
56.589864
  7
ROMANS
 72
     1
 11
910460.123669
 21
7258790.466682
 31
0.0
210
0.0
220
0.0
230
1.0
 73
     3
  0
TEXT
  8
11
  6
CONTINUOUS
 62
     7
  5
36C
 10
910469.582
 20
7258790.243
 30
0.0
 40
8.0
  1
'
 50
53.613628
  7
ROMANS
 72
     1
 11
910463.933086
 21
7258796.062736
 31
0.0
210
0.0
220
0.0
230
1.0
 73
     3
  0
TEXT
  8
11
  6
CONTINUOUS
 62
     7
  5
36D
 10
910493.803
 20
7258701.482
 30
0.0
 40
8.0
  1
R
 50
73.868067
  7
ROMANS
 72
     1
 11
910486.818187
 21
7258706.125574
 31
0.0
210
0.0
220
0.0
230
1.0
 73
     3
  0
TEXT
  8
11
  6
CONTINUOUS
 62
     7
  5
36E
 10
910495.643
 20
7258708.528
 30
0.0
 40
8.0
  1
=
 50
70.424589
  7
ROMANS
 72
     1
 11
910489.222102
 21
7258714.348735
 31
0.0
210
0.0
220
0.0
230
1.0
 73
     3
  0
TEXT
  8
11
  6
CONTINUOUS
 62
     7
  5
36F
 10
910498.302
 20
7258716.006
 30
0.0
 40
8.0
  1
1
 50
70.424589
  7
ROMANS
 72
     1
 11
910491.211007
 21
7258719.942332
 31
0.0
210
0.0
220
0.0
230
1.0
 73
     3
  0
TEXT
  8
11
  6
CONTINUOUS
 62
     7
  5
370
 10
910500.856
 20
7258722.817
 30
0.0
 40
8.0
  1
7
 50
66.981114
  7
ROMANS
 72
     1
 11
910494.405275
 21
7258728.092513
 31
0.0
210
0.0
220
0.0
230
1.0
 73
     3
  0
TEXT
  8
11
  6
CONTINUOUS
 62
     7
  5
371
 10
910503.666
 20
7258729.53
 30
0.0
 40
8.0
  1
7
 50
63.537639
  7
ROMANS
 72
     1
 11
910497.543789
 21
7258735.183444
 31
0.0
210
0.0
220
0.0
230
1.0
 73
     3
  0
TEXT
  8
11
  6
CONTINUOUS
 62
     7
  5
372
 10
910507.203
 20
7258736.635
 30
0.0
 40
8.0
  1
.
 50
63.537639
  7
ROMANS
 72
     1
 11
910500.630278
 21
7258741.383369
 31
0.0
210
0.0
220
0.0
230
1.0
 73
     3
  0
TEXT
  8
11
  6
CONTINUOUS
 62
     7
  5
373
 10
910510.687
 20
7258743.019
 30
0.0
 40
8.0
  1
2
 50
60.094161
  7
ROMANS
 72
     1
 11
910504.91541
 21
7258749.02996
 31
0.0
210
0.0
220
0.0
230
1.0
 73
     3
  0
TEXT
  8
11
  6
CONTINUOUS
 62
     7
  5
374
 10
910514.412
 20
7258749.266
 30
0.0
 40
8.0
  1
0
 50
56.650686
  7
ROMANS
 72
     1
 11
910509.18669
 21
7258755.878408
 31
0.0
210
0.0
220
0.0
230
1.0
 73
     3
  0
TEXT
  8
11
  6
CONTINUOUS
 62
     7
  5
375
 10
910518.369
 20
7258755.374
 30
0.0
 40
8.0
  1
'
 50
53.207208
  7
ROMANS
 72
     1
 11
910512.761509
 21
7258761.233659
 31
0.0
210
0.0
220
0.0
230
1.0
 73
     3
  0
TEXT
  8
11
  6
CONTINUOUS
 62
     7
  5
376
 10
910478.941
 20
7258699.09
 30
0.0
 40
8.0
  1
C
 50
77.311542
  7
ROMANS
 72
     1
 11
910479.494517
 21
7258701.548459
 31
0.0
210
0.0
220
0.0
230
1.0
  0
TEXT
  8
11
  6
CONTINUOUS
 62
     7
  5
377
 10
910480.82
 20
7258706.984
 30
0.0
 40
8.0
  1
H
 50
73.868067
  7
ROMANS
 72
     1
 11
910481.468224
 21
7258709.225137
 31
0.0
210
0.0
220
0.0
230
1.0
  0
TEXT
  8
11
  6
CONTINUOUS
 62
     7
  5
378
 10
910483.015
 20
7258714.802
 30
0.0
 40
8.0
  1
=
 50
70.424589
  7
ROMANS
 72
     1
 11
910484.131712
 21
7258717.942357
 31
0.0
210
0.0
220
0.0
230
1.0
  0
TEXT
  8
11
  6
CONTINUOUS
 62
     7
  5
379
 10
910485.674
 20
7258722.281
 30
0.0
 40
8.0
  1
1
 50
70.424589
  7
ROMANS
 72
     1
 11
910486.120618
 21
7258723.536954
 31
0.0
210
0.0
220
0.0
230
1.0
  0
TEXT
  8
11
  6
CONTINUOUS
 62
     7
  5
37A
 10
910488.627
 20
7258729.837
 30
0.0
 40
8.0
  1
6
 50
66.981114
  7
ROMANS
 72
     1
 11
910489.612407
 21
7258732.156348
 31
0.0
210
0.0
220
0.0
230
1.0
  0
TEXT
  8
11
  6
CONTINUOUS
 62
     7
  5
37B
 10
910491.881
 20
7258737.271
 30
0.0
 40
8.0
  1
0
 50
63.537639
  7
ROMANS
 72
     1
 11
910493.062312
 21
7258739.644248
 31
0.0
210
0.0
220
0.0
230
1.0
  0
TEXT
  8
11
  6
CONTINUOUS
 62
     7
  5
37C
 10
910495.418
 20
7258744.377
 30
0.0
 40
8.0
  1
.
 50
63.537639
  7
ROMANS
 72
     1
 11
910496.007096
 21
7258745.56049
 31
0.0
210
0.0
220
0.0
230
1.0
  0
TEXT
  8
11
  6
CONTINUOUS
 62
     7
  5
37D
 10
910499.39
 20
7258751.455
 30
0.0
 40
8.0
  1
5
 50
60.094161
  7
ROMANS
 72
     1
 11
910500.558662
 21
7258753.486887
 31
0.0
210
0.0
220
0.0
230
1.0
  0
TEXT
  8
11
  6
CONTINUOUS
 62
     7
  5
37E
 10
910503.64
 20
7258758.365
 30
0.0
 40
8.0
  1
0
 50
56.650686
  7
ROMANS
 72
     1
 11
910505.097366
 21
7258760.579472
 31
0.0
210
0.0
220
0.0
230
1.0
  0
TEXT
  8
11
  6
CONTINUOUS
 62
     7
  5
37F
 10
910508.163
 20
7258765.102
 30
0.0
 40
8.0
  1
'
 50
53.207208
  7
ROMANS
 72
     1
 11
910508.961963
 21
7258766.170276
 31
0.0
210
0.0
220
0.0
230
1.0
  0
TEXT
  8
11
  6
CONTINUOUS
 62
     7
  5
380
 10
911149.975
 20
7259551.426
 30
0.0
 40
8.0
  1
R
 50
337.753403
  7
ROMANS
 72
     1
 11
911152.307419
 21
7259550.471944
 31
0.0
210
0.0
220
0.0
230
1.0
  0
TEXT
  8
11
  6
CONTINUOUS
 62
     7
  5
381
 10
911157.412
 20
7259548.218
 30
0.0
 40
8.0
  1
=
 50
334.61565
  7
ROMANS
 72
     1
 11
911160.423207
 21
7259546.789182
 31
0.0
210
0.0
220
0.0
230
1.0
  0
TEXT
  8
11
  6
CONTINUOUS
 62
     7
  5
382
 10
911164.755
 20
7259544.792
 30
0.0
 40
8.0
  1
2
 50
331.477897
  7
ROMANS
 72
     1
 11
911166.804851
 21
7259543.677998
 31
0.0
210
0.0
220
0.0
230
1.0
  0
TEXT
  8
11
  6
CONTINUOUS
 62
     7
  5
383
 10
911171.729
 20
7259541.002
 30
0.0
 40
8.0
  1
1
 50
331.477897
  7
ROMANS
 72
     1
 11
911172.900218
 21
7259540.365496
 31
0.0
210
0.0
220
0.0
230
1.0
  0
TEXT
  8
11
  6
CONTINUOUS
 62
     7
  5
384
 10
911178.757
 20
7259536.98
 30
0.0
 40
8.0
  1
3
 50
328.340142
  7
ROMANS
 72
     1
 11
911180.742801
 21
7259535.755466
 31
0.0
210
0.0
220
0.0
230
1.0
  0
TEXT
  8
11
  6
CONTINUOUS
 62
     7
  5
385
 10
911185.669
 20
7259532.752
 30
0.0
 40
8.0
  1
.
 50
325.202389
  7
ROMANS
 72
     1
 11
911186.754591
 21
7259531.997562
 31
0.0
210
0.0
220
0.0
230
1.0
  0
TEXT
  8
11
  6
CONTINUOUS
 62
     7
  5
386
 10
911192.186
 20
7259528.223
 30
0.0
 40
8.0
  1
4
 50
325.202389
  7
ROMANS
 72
     1
 11
911194.101797
 21
7259526.891605
 31
0.0
210
0.0
220
0.0
230
1.0
  0
TEXT
  8
11
  6
CONTINUOUS
 62
     7
  5
387
 10
911198.721
 20
7259523.436
 30
0.0
 40
8.0
  1
1
 50
322.064636
  7
ROMANS
 72
     1
 11
911199.773132
 21
7259522.615894
 31
0.0
210
0.0
220
0.0
230
1.0
  0
TEXT
  8
11
  6
CONTINUOUS
 62
     7
  5
388
 10
911205.111
 20
7259518.46
 30
0.0
 40
8.0
  1
'
 50
318.926883
  7
ROMANS
 72
     1
 11
911206.115911
 21
7259517.58419
 31
0.0
210
0.0
220
0.0
230
1.0
  0
TEXT
  8
11
  6
CONTINUOUS
 62
     7
  5
389
 10
911138.133
 20
7259541.146
 30
0.0
 40
8.0
  1
C
 50
337.753403
  7
ROMANS
 72
     1
 11
911143.494168
 21
7259547.596448
 31
0.0
210
0.0
220
0.0
230
1.0
 73
     3
  0
TEXT
  8
11
  6
CONTINUOUS
 62
     7
  5
38A
 10
911145.48
 20
7259538.14
 30
0.0
 40
8.0
  1
H
 50
337.753403
  7
ROMANS
 72
     1
 11
911150.668088
 21
7259544.661245
 31
0.0
210
0.0
220
0.0
230
1.0
 73
     3
  0
TEXT
  8
11
  6
CONTINUOUS
 62
     7
  5
38B
 10
911152.197
 20
7259535.198
 30
0.0
 40
8.0
  1
=
 50
334.61565
  7
ROMANS
 72
     1
 11
911158.637714
 21
7259540.996801
 31
0.0
210
0.0
220
0.0
230
1.0
 73
     3
  0
TEXT
  8
11
  6
CONTINUOUS
 62
     7
  5
38C
 10
911158.834
 20
7259532.077
 30
0.0
 40
8.0
  1
1
 50
331.477897
  7
ROMANS
 72
     1
 11
911163.8252
 21
7259538.469559
 31
0.0
210
0.0
220
0.0
230
1.0
 73
     3
  0
TEXT
  8
11
  6
CONTINUOUS
 62
     7
  5
38D
 10
911165.808
 20
7259528.288
 30
0.0
 40
8.0
  1
9
 50
331.477897
  7
ROMANS
 72
     1
 11
911171.677833
 21
7259534.203062
 31
0.0
210
0.0
220
0.0
230
1.0
 73
     3
  0
TEXT
  8
11
  6
CONTINUOUS
 62
     7
  5
38E
 10
911172.15
 20
7259524.607
 30
0.0
 40
8.0
  1
3
 50
328.340142
  7
ROMANS
 72
     1
 11
911178.334804
 21
7259530.191898
 31
0.0
210
0.0
220
0.0
230
1.0
 73
     3
  0
TEXT
  8
11
  6
CONTINUOUS
 62
     7
  5
38F
 10
911178.393
 20
7259520.759
 30
0.0
 40
8.0
  1
.
 50
325.202389
  7
ROMANS
 72
     1
 11
911184.044025
 21
7259526.573946
 31
0.0
210
0.0
220
0.0
230
1.0
 73
     3
  0
TEXT
  8
11
  6
CONTINUOUS
 62
     7
  5
390
 10
911184.909
 20
7259516.23
 30
0.0
 40
8.0
  1
3
 50
325.202389
  7
ROMANS
 72
     1
 11
911191.390231
 21
7259521.467989
 31
0.0
210
0.0
220
0.0
230
1.0
 73
     3
  0
TEXT
  8
11
  6
CONTINUOUS
 62
     7
  5
391
 10
911190.797
 20
7259511.861
 30
0.0
 40
8.0
  1
8
 50
322.064636
  7
ROMANS
 72
     1
 11
911197.555225
 21
7259516.736375
 31
0.0
210
0.0
220
0.0
230
1.0
 73
     3
  0
TEXT
  8
11
  6
CONTINUOUS
 62
     7
  5
392
 10
911196.568
 20
7259507.335
 30
0.0
 40
8.0
  1
'
 50
318.926883
  7
ROMANS
 72
     1
 11
911202.829084
 21
7259512.490164
 31
0.0
210
0.0
220
0.0
230
1.0
 73
     3
  0
TEXT
  8
11
  6
CONTINUOUS
 62
     7
  5
393
 10
911112.653
 20
7259490.661
 30
0.0
 40
8.0
  1
R
 50
342.630189
  7
ROMANS
 72
     1
 11
911117.446386
 21
7259497.543866
 31
0.0
210
0.0
220
0.0
230
1.0
 73
     3
  0
TEXT
  8
11
  6
CONTINUOUS
 62
     7
  5
394
 10
911119.477
 20
7259488.263
 30
0.0
 40
8.0
  1
=
 50
338.976639
  7
ROMANS
 72
     1
 11
911125.458125
 21
7259494.534765
 31
0.0
210
0.0
220
0.0
230
1.0
 73
     3
  0
TEXT
  8
11
  6
CONTINUOUS
 62
     7
  5
395
 10
911126.184
 20
7259485.56
 30
0.0
 40
8.0
  1
1
 50
335.323092
  7
ROMANS
 72
     1
 11
911130.735273
 21
7259492.272883
 31
0.0
210
0.0
220
0.0
230
1.0
 73
     3
  0
TEXT
  8
11
  6
CONTINUOUS
 62
     7
  5
396
 10
911132.767
 20
7259482.554
 30
0.0
 40
8.0
  1
5
 50
331.669542
  7
ROMANS
 72
     1
 11
911138.626697
 21
7259488.483442
 31
0.0
210
0.0
220
0.0
230
1.0
 73
     3
  0
TEXT
  8
11
  6
CONTINUOUS
 62
     7
  5
397
 10
911139.21
 20
7259479.25
 30
0.0
 40
8.0
  1
7
 50
328.015994
  7
ROMANS
 72
     1
 11
911145.426301
 21
7259484.799819
 31
0.0
210
0.0
220
0.0
230
1.0
 73
     3
  0
TEXT
  8
11
  6
CONTINUOUS
 62
     7
  5
398
 10
911145.942
 20
7259475.046
 30
0.0
 40
8.0
  1
.
 50
328.015994
  7
ROMANS
 72
     1
 11
911151.300775
 21
7259481.131328
 31
0.0
210
0.0
220
0.0
230
1.0
 73
     3
  0
TEXT
  8
11
  6
CONTINUOUS
 62
     7
  5
399
 10
911151.957
 20
7259471.028
 30
0.0
 40
8.0
  1
4
 50
324.362447
  7
ROMANS
 72
     1
 11
911158.51432
 21
7259476.170417
 31
0.0
210
0.0
220
0.0
230
1.0
 73
     3
  0
TEXT
  8
11
  6
CONTINUOUS
 62
     7
  5
39A
 10
911157.783
 20
7259466.742
 30
0.0
 40
8.0
  1
1
 50
320.708897
  7
ROMANS
 72
     1
 11
911163.88152
 21
7259472.088739
 31
0.0
210
0.0
220
0.0
230
1.0
 73
     3
  0
TEXT
  8
11
  6
CONTINUOUS
 62
     7
  5
39B
 10
911163.413
 20
7259462.196
 30
0.0
 40
8.0
  1
'
 50
317.05535
  7
ROMANS
 72
     1
 11
911169.839104
 21
7259467.143936
 31
0.0
210
0.0
220
0.0
230
1.0
 73
     3
  0
TEXT
  8
11
  6
CONTINUOUS
 62
     7
  5
39C
 10
911114.015
 20
7259504.903
 30
0.0
 40
8.0
  1
C
 50
342.630189
  7
ROMANS
 72
     1
 11
911116.420082
 21
7259504.150684
 31
0.0
210
0.0
220
0.0
230
1.0
  0
TEXT
  8
11
  6
CONTINUOUS
 62
     7
  5
39D
 10
911121.743
 20
7259502.392
 30
0.0
 40
8.0
  1
H
 50
338.976639
  7
ROMANS
 72
     1
 11
911123.920702
 21
7259501.55504
 31
0.0
210
0.0
220
0.0
230
1.0
  0
TEXT
  8
11
  6
CONTINUOUS
 62
     7
  5
39E
 10
911129.347
 20
7259499.513
 30
0.0
 40
8.0
  1
=
 50
335.323092
  7
ROMANS
 72
     1
 11
911132.375619
 21
7259498.12147
 31
0.0
210
0.0
220
0.0
230
1.0
  0
TEXT
  8
11
  6
CONTINUOUS
 62
     7
  5
39F
 10
911136.559
 20
7259496.2
 30
0.0
 40
8.0
  1
1
 50
335.323092
  7
ROMANS
 72
     1
 11
911137.770266
 21
7259495.643471
 31
0.0
210
0.0
220
0.0
230
1.0
  0
TEXT
  8
11
  6
CONTINUOUS
 62
     7
  5
3A0
 10
911143.797
 20
7259492.511
 30
0.0
 40
8.0
  1
4
 50
331.669542
  7
ROMANS
 72
     1
 11
911145.850565
 21
7259491.40386
 31
0.0
210
0.0
220
0.0
230
1.0
  0
TEXT
  8
11
  6
CONTINUOUS
 62
     7
  5
3A1
 10
911150.854
 20
7259488.485
 30
0.0
 40
8.0
  1
2
 50
328.015994
  7
ROMANS
 72
     1
 11
911152.832841
 21
7259487.249251
 31
0.0
210
0.0
220
0.0
230
1.0
  0
TEXT
  8
11
  6
CONTINUOUS
 62
     7
  5
3A2
 10
911157.714
 20
7259484.127
 30
0.0
 40
8.0
  1
.
 50
324.362447
  7
ROMANS
 72
     1
 11
911158.788415
 21
7259483.356729
 31
0.0
210
0.0
220
0.0
230
1.0
  0
TEXT
  8
11
  6
CONTINUOUS
 62
     7
  5
3A3
 10
911164.363
 20
7259479.448
 30
0.0
 40
8.0
  1
6
 50
320.708897
  7
ROMANS
 72
     1
 11
911166.313325
 21
7259477.852183
 31
0.0
210
0.0
220
0.0
230
1.0
  0
TEXT
  8
11
  6
CONTINUOUS
 62
     7
  5
3A4
 10
911170.506
 20
7259474.423
 30
0.0
 40
8.0
  1
4
 50
320.708897
  7
ROMANS
 72
     1
 11
911172.311599
 21
7259472.945603
 31
0.0
210
0.0
220
0.0
230
1.0
  0
TEXT
  8
11
  6
CONTINUOUS
 62
     7
  5
3A5
 10
911176.6
 20
7259469.049
 30
0.0
 40
8.0
  1
'
 50
317.05535
  7
ROMANS
 72
     1
 11
911177.575772
 21
7259468.140838
 31
0.0
210
0.0
220
0.0
230
1.0
  0
TEXT
  8
11
  6
CONTINUOUS
 62
     7
  5
3A6
 10
911941.542
 20
7260133.544
 30
0.0
 40
8.0
  1
R
 50
335.323461
  7
ROMANS
 72
     1
 11
911947.171832
 21
7260139.761346
 31
0.0
210
0.0
220
0.0
230
1.0
 73
     3
  0
TEXT
  8
11
  6
CONTINUOUS
 62
     7
  5
3A7
 10
911947.976
 20
7260130.242
 30
0.0
 40
8.0
  1
=
 50
331.669911
  7
ROMANS
 72
     1
 11
911954.706205
 21
7260135.702149
 31
0.0
210
0.0
220
0.0
230
1.0
 73
     3
  0
TEXT
  8
11
  6
CONTINUOUS
 62
     7
  5
3A8
 10
911954.253
 20
7260126.651
 30
0.0
 40
8.0
  1
1
 50
328.016364
  7
ROMANS
 72
     1
 11
911959.621066
 21
7260132.730536
 31
0.0
210
0.0
220
0.0
230
1.0
 73
     3
  0
TEXT
  8
11
  6
CONTINUOUS
 62
     7
  5
3A9
 10
911960.365
 20
7260122.78
 30
0.0
 40
8.0
  1
5
 50
324.362817
  7
ROMANS
 72
     1
 11
911966.931226
 21
7260127.91605
 31
0.0
210
0.0
220
0.0
230
1.0
 73
     3
  0
TEXT
  8
11
  6
CONTINUOUS
 62
     7
  5
3AA
 10
911966.298
 20
7260118.633
 30
0.0
 40
8.0
  1
7
 50
320.709267
  7
ROMANS
 72
     1
 11
911973.169654
 21
7260123.347156
 31
0.0
210
0.0
220
0.0
230
1.0
 73
     3
  0
TEXT
  8
11
  6
CONTINUOUS
 62
     7
  5
3AB
 10
911972.441
 20
7260113.606
 30
0.0
 40
8.0
  1
.
 50
320.709267
  7
ROMANS
 72
     1
 11
911978.530198
 21
7260118.960377
 31
0.0
210
0.0
220
0.0
230
1.0
 73
     3
  0
TEXT
  8
11
  6
CONTINUOUS
 62
     7
  5
3AC
 10
911977.852
 20
7260108.809
 30
0.0
 40
8.0
  1
4
 50
317.055719
  7
ROMANS
 72
     1
 11
911985.010089
 21
7260113.075691
 31
0.0
210
0.0
220
0.0
230
1.0
 73
     3
  0
TEXT
  8
11
  6
CONTINUOUS
 62
     7
  5
3AD
 10
911983.041
 20
7260103.773
 30
0.0
 40
8.0
  1
1
 50
313.402169
  7
ROMANS
 72
     1
 11
911989.769314
 21
7260108.301431
 31
0.0
210
0.0
220
0.0
230
1.0
 73
     3
  0
TEXT
  8
11
  6
CONTINUOUS
 62
     7
  5
3AE
 10
911988.0
 20
7260098.504
 30
0.0
 40
8.0
  1
'
 50
309.748622
  7
ROMANS
 72
     1
 11
911995.003845
 21
7260102.593709
 31
0.0
210
0.0
220
0.0
230
1.0
 73
     3
  0
TEXT
  8
11
  6
CONTINUOUS
 62
     7
  5
3AF
 10
911946.033
 20
7260146.887
 30
0.0
 40
8.0
  1
C
 50
335.323461
  7
ROMANS
 72
     1
 11
911948.322872
 21
7260145.834913
 31
0.0
210
0.0
220
0.0
230
1.0
  0
TEXT
  8
11
  6
CONTINUOUS
 62
     7
  5
3B0
 10
911953.31
 20
7260143.271
 30
0.0
 40
8.0
  1
H
 50
331.669911
  7
ROMANS
 72
     1
 11
911955.363573
 21
7260142.163874
 31
0.0
210
0.0
220
0.0
230
1.0
  0
TEXT
  8
11
  6
CONTINUOUS
 62
     7
  5
3B1
 10
911960.406
 20
7260139.315
 30
0.0
 40
8.0
  1
=
 50
328.016364
  7
ROMANS
 72
     1
 11
911963.233049
 21
7260137.549586
 31
0.0
210
0.0
220
0.0
230
1.0
  0
TEXT
  8
11
  6
CONTINUOUS
 62
     7
  5
3B2
 10
911967.31
 20
7260135.025
 30
0.0
 40
8.0
  1
1
 50
324.362817
  7
ROMANS
 72
     1
 11
911968.39336
 21
7260134.248327
 31
0.0
210
0.0
220
0.0
230
1.0
  0
TEXT
  8
11
  6
CONTINUOUS
 62
     7
  5
3B3
 10
911973.763
 20
7260130.4
 30
0.0
 40
8.0
  1
2
 50
324.362817
  7
ROMANS
 72
     1
 11
911975.659082
 21
7260129.040676
 31
0.0
210
0.0
220
0.0
230
1.0
  0
TEXT
  8
11
  6
CONTINUOUS
 62
     7
  5
3B4
 10
911980.153
 20
7260125.384
 30
0.0
 40
8.0
  1
3
 50
320.709267
  7
ROMANS
 72
     1
 11
911981.958608
 21
7260123.906614
 31
0.0
210
0.0
220
0.0
230
1.0
  0
TEXT
  8
11
  6
CONTINUOUS
 62
     7
  5
3B5
 10
911986.301
 20
7260120.072
 30
0.0
 40
8.0
  1
.
 50
317.055719
  7
ROMANS
 72
     1
 11
911987.268726
 21
7260119.171339
 31
0.0
210
0.0
220
0.0
230
1.0
  0
TEXT
  8
11
  6
CONTINUOUS
 62
     7
  5
3B6
 10
911992.19
 20
7260114.474
 30
0.0
 40
8.0
  1
8
 50
313.402169
  7
ROMANS
 72
     1
 11
911993.793039
 21
7260112.778962
 31
0.0
210
0.0
220
0.0
230
1.0
  0
TEXT
  8
11
  6
CONTINUOUS
 62
     7
  5
3B7
 10
911997.812
 20
7260108.6
 30
0.0
 40
8.0
  1
1
 50
309.748622
  7
ROMANS
 72
     1
 11
911998.664987
 21
7260107.574344
 31
0.0
210
0.0
220
0.0
230
1.0
  0
TEXT
  8
11
  6
CONTINUOUS
 62
     7
  5
3B8
 10
912002.887
 20
7260102.497
 30
0.0
 40
8.0
  1
'
 50
309.748622
  7
ROMANS
 72
     1
 11
912003.739987
 21
7260101.471344
 31
0.0
210
0.0
220
0.0
230
1.0
  0
TEXT
  8
11
  6
CONTINUOUS
 62
     7
  5
3B9
 10
911998.413
 20
7260180.524
 30
0.0
 40
8.0
  1
R
 50
325.528181
  7
ROMANS
 72
     1
 11
912000.4905
 21
7260179.097678
 31
0.0
210
0.0
220
0.0
230
1.0
  0
TEXT
  8
11
  6
CONTINUOUS
 62
     7
  5
3BA
 10
912005.086
 20
7260175.932
 30
0.0
 40
8.0
  1
=
 50
322.390428
  7
ROMANS
 72
     1
 11
912007.726362
 21
7260173.897945
 31
0.0
210
0.0
220
0.0
230
1.0
  0
TEXT
  8
11
  6
CONTINUOUS
 62
     7
  5
3BB
 10
912011.372
 20
7260171.087
 30
0.0
 40
8.0
  1
2
 50
322.390428
  7
ROMANS
 72
     1
 11
912013.220174
 21
7260169.663223
 31
0.0
210
0.0
220
0.0
230
1.0
  0
TEXT
  8
11
  6
CONTINUOUS
 62
     7
  5
3BC
 10
912017.639
 20
7260165.958
 30
0.0
 40
8.0
  1
1
 50
319.252672
  7
ROMANS
 72
     1
 11
912018.648875
 21
7260165.087918
 31
0.0
210
0.0
220
0.0
230
1.0
  0
TEXT
  8
11
  6
CONTINUOUS
 62
     7
  5
3BD
 10
912023.754
 20
7260160.643
 30
0.0
 40
8.0
  1
3
 50
316.114919
  7
ROMANS
 72
     1
 11
912025.435467
 21
7260159.025731
 31
0.0
210
0.0
220
0.0
230
1.0
  0
TEXT
  8
11
  6
CONTINUOUS
 62
     7
  5
3BE
 10
912029.474
 20
7260155.141
 30
0.0
 40
8.0
  1
.
 50
316.114919
  7
ROMANS
 72
     1
 11
912030.426807
 21
7260154.224571
 31
0.0
210
0.0
220
0.0
230
1.0
  0
TEXT
  8
11
  6
CONTINUOUS
 62
     7
  5
3BF
 10
912035.124
 20
7260149.34
 30
0.0
 40
8.0
  1
4
 50
312.977167
  7
ROMANS
 72
     1
 11
912036.714422
 21
7260147.633118
 31
0.0
210
0.0
220
0.0
230
1.0
  0
TEXT
  8
11
  6
CONTINUOUS
 62
     7
  5
3C0
 10
912040.603
 20
7260143.375
 30
0.0
 40
8.0
  1
1
 50
309.839414
  7
ROMANS
 72
     1
 11
912041.456971
 21
7260142.351465
 31
0.0
210
0.0
220
0.0
230
1.0
  0
TEXT
  8
11
  6
CONTINUOUS
 62
     7
  5
3C1
 10
912045.688
 20
7260137.28
 30
0.0
 40
8.0
  1
'
 50
309.839414
  7
ROMANS
 72
     1
 11
912046.541971
 21
7260136.256465
 31
0.0
210
0.0
220
0.0
230
1.0
  0
TEXT
  8
11
  6
CONTINUOUS
 62
     7
  5
3C2
 10
911985.315
 20
7260172.361
 30
0.0
 40
8.0
  1
C
 50
328.665933
  7
ROMANS
 72
     1
 11
911991.627674
 21
7260177.88373
 31
0.0
210
0.0
220
0.0
230
1.0
 73
     3
  0
TEXT
  8
11
  6
CONTINUOUS
 62
     7
  5
3C3
 10
911991.439
 20
7260168.332
 30
0.0
 40
8.0
  1
H
 50
325.528181
  7
ROMANS
 72
     1
 11
911997.890343
 21
7260173.606757
 31
0.0
210
0.0
220
0.0
230
1.0
 73
     3
  0
TEXT
  8
11
  6
CONTINUOUS
 62
     7
  5
3C4
 10
911997.455
 20
7260164.137
 30
0.0
 40
8.0
  1
=
 50
322.390428
  7
ROMANS
 72
     1
 11
912004.977582
 21
7260168.440447
 31
0.0
210
0.0
220
0.0
230
1.0
 73
     3
  0
TEXT
  8
11
  6
CONTINUOUS
 62
     7
  5
3C5
 10
912003.741
 20
7260159.293
 30
0.0
 40
8.0
  1
1
 50
322.390428
  7
ROMANS
 72
     1
 11
912009.679999
 21
7260164.816391
 31
0.0
210
0.0
220
0.0
230
1.0
 73
     3
  0
TEXT
  8
11
  6
CONTINUOUS
 62
     7
  5
3C6
 10
912009.375
 20
7260154.597
 30
0.0
 40
8.0
  1
9
 50
319.252672
  7
ROMANS
 72
     1
 11
912016.364265
 21
7260159.134957
 31
0.0
210
0.0
220
0.0
230
1.0
 73
     3
  0
TEXT
  8
11
  6
CONTINUOUS
 62
     7
  5
3C7
 10
912014.879
 20
7260149.755
 30
0.0
 40
8.0
  1
3
 50
316.114919
  7
ROMANS
 72
     1
 11
912022.10618
 21
7260153.903584
 31
0.0
210
0.0
220
0.0
230
1.0
 73
     3
  0
TEXT
  8
11
  6
CONTINUOUS
 62
     7
  5
3C8
 10
912020.6
 20
7260144.251
 30
0.0
 40
8.0
  1
.
 50
316.114919
  7
ROMANS
 72
     1
 11
912027.098521
 21
7260149.100424
 31
0.0
210
0.0
220
0.0
230
1.0
 73
     3
  0
TEXT
  8
11
  6
CONTINUOUS
 62
     7
  5
3C9
 10
912025.669
 20
7260138.952
 30
0.0
 40
8.0
  1
3
 50
312.977167
  7
ROMANS
 72
     1
 11
912033.112426
 21
7260142.698773
 31
0.0
210
0.0
220
0.0
230
1.0
 73
     3
  0
TEXT
  8
11
  6
CONTINUOUS
 62
     7
  5
3CA
 10
912030.592
 20
7260133.521
 30
0.0
 40
8.0
  1
8
 50
309.839414
  7
ROMANS
 72
     1
 11
912038.229353
 21
7260136.854727
 31
0.0
210
0.0
220
0.0
230
1.0
 73
     3
  0
TEXT
  8
11
  6
CONTINUOUS
 62
     7
  5
3CB
 10
912035.677
 20
7260127.427
 30
0.0
 40
8.0
  1
'
 50
309.839414
  7
ROMANS
 72
     1
 11
912042.673715
 21
7260131.52857
 31
0.0
210
0.0
220
0.0
230
1.0
 73
     3
  0
TEXT
  8
11
  6
CONTINUOUS
 62
     7
  5
3CC
 10
913681.088
 20
7261017.665
 30
0.0
 40
8.0
  1
R
 50
47.565897
  7
ROMANS
 72
     1
 11
913682.788349
 21
7261019.524896
 31
0.0
210
0.0
220
0.0
230
1.0
  0
TEXT
  8
11
  6
CONTINUOUS
 62
     7
  5
3CD
 10
913686.177
 20
7261023.489
 30
0.0
 40
8.0
  1
=
 50
51.371942
  7
ROMANS
 72
     1
 11
913688.257666
 21
7261026.092789
 31
0.0
210
0.0
220
0.0
230
1.0
  0
TEXT
  8
11
  6
CONTINUOUS
 62
     7
  5
3CE
 10
913690.959
 20
7261029.57
 30
0.0
 40
8.0
  1
1
 50
55.177986
  7
ROMANS
 72
     1
 11
913691.720182
 21
7261030.6643
 31
0.0
210
0.0
220
0.0
230
1.0
  0
TEXT
  8
11
  6
CONTINUOUS
 62
     7
  5
3CF
 10
913695.42
 20
7261035.895
 30
0.0
 40
8.0
  1
4
 50
58.984028
  7
ROMANS
 72
     1
 11
913696.622141
 21
7261037.894436
 31
0.0
210
0.0
220
0.0
230
1.0
  0
TEXT
  8
11
  6
CONTINUOUS
 62
     7
  5
3D0
 10
913699.511
 20
7261042.697
 30
0.0
 40
8.0
  1
5
 50
58.984028
  7
ROMANS
 72
     1
 11
913700.718809
 21
7261044.705864
 31
0.0
210
0.0
220
0.0
230
1.0
  0
TEXT
  8
11
  6
CONTINUOUS
 62
     7
  5
3D1
 10
913703.181
 20
7261049.505
 30
0.0
 40
8.0
  1
.
 50
62.790072
  7
ROMANS
 72
     1
 11
913703.785487
 21
7261050.680704
 31
0.0
210
0.0
220
0.0
230
1.0
  0
TEXT
  8
11
  6
CONTINUOUS
 62
     7
  5
3D2
 10
913706.493
 20
7261056.492
 30
0.0
 40
8.0
  1
0
 50
66.596114
  7
ROMANS
 72
     1
 11
913707.546004
 21
7261058.924896
 31
0.0
210
0.0
220
0.0
230
1.0
  0
TEXT
  8
11
  6
CONTINUOUS
 62
     7
  5
3D3
 10
913709.44
 20
7261063.643
 30
0.0
 40
8.0
  1
5
 50
70.402158
  7
ROMANS
 72
     1
 11
913710.226215
 21
7261065.851212
 31
0.0
210
0.0
220
0.0
230
1.0
  0
TEXT
  8
11
  6
CONTINUOUS
 62
     7
  5
3D4
 10
913712.011
 20
7261070.941
 30
0.0
 40
8.0
  1
'
 50
74.2082
  7
ROMANS
 72
     1
 11
913712.373766
 21
7261072.223689
 31
0.0
210
0.0
220
0.0
230
1.0
  0
TEXT
  8
11
  6
CONTINUOUS
 62
     7
  5
3D5
 10
913687.215
 20
7261003.621
 30
0.0
 40
8.0
  1
C
 50
47.565897
  7
ROMANS
 72
     1
 11
913683.010918
 21
7261010.87883
 31
0.0
210
0.0
220
0.0
230
1.0
 73
     3
  0
TEXT
  8
11
  6
CONTINUOUS
 62
     7
  5
3D6
 10
913692.571
 20
7261009.478
 30
0.0
 40
8.0
  1
H
 50
47.565897
  7
ROMANS
 72
     1
 11
913688.240742
 21
7261016.597814
 31
0.0
210
0.0
220
0.0
230
1.0
 73
     3
  0
TEXT
  8
11
  6
CONTINUOUS
 62
     7
  5
3D7
 10
913698.18
 20
7261016.084
 30
0.0
 40
8.0
  1
=
 50
51.371942
  7
ROMANS
 72
     1
 11
913694.010947
 21
7261023.681887
 31
0.0
210
0.0
220
0.0
230
1.0
 73
     3
  0
TEXT
  8
11
  6
CONTINUOUS
 62
     7
  5
3D8
 10
913703.426
 20
7261022.976
 30
0.0
 40
8.0
  1
1
 50
55.177986
  7
ROMANS
 72
     1
 11
913697.619743
 21
7261028.638532
 31
0.0
210
0.0
220
0.0
230
1.0
 73
     3
  0
TEXT
  8
11
  6
CONTINUOUS
 62
     7
  5
3D9
 10
913708.299
 20
7261030.142
 30
0.0
 40
8.0
  1
3
 50
58.984028
  7
ROMANS
 72
     1
 11
913702.644952
 21
7261036.263652
 31
0.0
210
0.0
220
0.0
230
1.0
 73
     3
  0
TEXT
  8
11
  6
CONTINUOUS
 62
     7
  5
3DA
 10
913712.784
 20
7261037.561
 30
0.0
 40
8.0
  1
1
 50
62.790072
  7
ROMANS
 72
     1
 11
913706.27882
 21
7261042.404503
 31
0.0
210
0.0
220
0.0
230
1.0
 73
     3
  0
TEXT
  8
11
  6
CONTINUOUS
 62
     7
  5
3DB
 10
913716.412
 20
7261044.619
 30
0.0
 40
8.0
  1
.
 50
62.790072
  7
ROMANS
 72
     1
 11
913709.90179
 21
7261049.45272
 31
0.0
210
0.0
220
0.0
230
1.0
 73
     3
  0
TEXT
  8
11
  6
CONTINUOUS
 62
     7
  5
3DC
 10
913720.018
 20
7261052.497
 30
0.0
 40
8.0
  1
4
 50
66.596114
  7
ROMANS
 72
     1
 11
913713.60287
 21
7261057.81574
 31
0.0
210
0.0
220
0.0
230
1.0
 73
     3
  0
TEXT
  8
11
  6
CONTINUOUS
 62
     7
  5
3DD
 10
913723.201
 20
7261060.554
 30
0.0
 40
8.0
  1
6
 50
70.402158
  7
ROMANS
 72
     1
 11
913716.509688
 21
7261065.611345
 31
0.0
210
0.0
220
0.0
230
1.0
 73
     3
  0
TEXT
  8
11
  6
CONTINUOUS
 62
     7
  5
3DE
 10
913725.948
 20
7261068.772
 30
0.0
 40
8.0
  1
'
 50
74.2082
  7
ROMANS
 72
     1
 11
913718.61271
 21
7261072.231829
 31
0.0
210
0.0
220
0.0
230
1.0
 73
     3
  0
TEXT
  8
11
  6
CONTINUOUS
 62
     7
  5
3DF
 10
913707.847
 20
7260942.149
 30
0.0
 40
8.0
  1
R
 50
39.046369
  7
ROMANS
 72
     1
 11
913704.764531
 21
7260949.949563
 31
0.0
210
0.0
220
0.0
230
1.0
 73
     3
  0
TEXT
  8
11
  6
CONTINUOUS
 62
     7
  5
3E0
 10
913714.011
 20
7260947.15
 30
0.0
 40
8.0
  1
=
 50
39.046369
  7
ROMANS
 72
     1
 11
913711.559936
 21
7260955.462712
 31
0.0
210
0.0
220
0.0
230
1.0
 73
     3
  0
TEXT
  8
11
  6
CONTINUOUS
 62
     7
  5
3E1
 10
913720.497
 20
7260952.719
 30
0.0
 40
8.0
  1
2
 50
42.247453
  7
ROMANS
 72
     1
 11
913716.845327
 21
7260960.209539
 31
0.0
210
0.0
220
0.0
230
1.0
 73
     3
  0
TEXT
  8
11
  6
CONTINUOUS
 62
     7
  5
3E2
 10
913726.798
 20
7260958.499
 30
0.0
 40
8.0
  1
0
 50
45.448536
  7
ROMANS
 72
     1
 11
913722.956843
 21
7260966.000554
 31
0.0
210
0.0
220
0.0
230
1.0
 73
     3
  0
TEXT
  8
11
  6
CONTINUOUS
 62
     7
  5
3E3
 10
913732.365
 20
7260964.156
 30
0.0
 40
8.0
  1
5
 50
45.448536
  7
ROMANS
 72
     1
 11
913728.308468
 21
7260971.43878
 31
0.0
210
0.0
220
0.0
230
1.0
 73
     3
  0
TEXT
  8
11
  6
CONTINUOUS
 62
     7
  5
3E4
 10
913738.152
 20
7260970.448
 30
0.0
 40
8.0
  1
.
 50
48.649617
  7
ROMANS
 72
     1
 11
913733.019927
 21
7260976.7257
 31
0.0
210
0.0
220
0.0
230
1.0
 73
     3
  0
TEXT
  8
11
  6
CONTINUOUS
 62
     7
  5
3E5
 10
913743.73
 20
7260976.927
 30
0.0
 40
8.0
  1
0
 50
51.8507
  7
ROMANS
 72
     1
 11
913739.076326
 21
7260983.953459
 31
0.0
210
0.0
220
0.0
230
1.0
 73
     3
  0
TEXT
  8
11
  6
CONTINUOUS
 62
     7
  5
3E6
 10
913749.095
 20
7260983.59
 30
0.0
 40
8.0
  1
5
 50
55.051783
  7
ROMANS
 72
     1
 11
913743.880366
 21
7260990.093994
 31
0.0
210
0.0
220
0.0
230
1.0
 73
     3
  0
TEXT
  8
11
  6
CONTINUOUS
 62
     7
  5
3E7
 10
913753.642
 20
7260990.096
 30
0.0
 40
8.0
  1
'
 50
55.051783
  7
ROMANS
 72
     1
 11
913747.848802
 21
7260995.772127
 31
0.0
210
0.0
220
0.0
230
1.0
 73
     3
  0
TEXT
  8
11
  6
CONTINUOUS
 62
     7
  5
3E8
 10
913758.42
 20
7260997.184
 30
0.0
 40
8.0
  1
 
 50
58.252864
  7
ROMANS
 72
     1
 11
913753.019745
 21
7261003.660481
 31
0.0
210
0.0
220
0.0
230
1.0
 73
     3
  0
TEXT
  8
11
  6
CONTINUOUS
 62
     7
  5
3E9
 10
913762.965
 20
7261004.431
 30
0.0
 40
8.0
  1
 
 50
61.453947
  7
ROMANS
 72
     1
 11
913757.211522
 21
7261010.595823
 31
0.0
210
0.0
220
0.0
230
1.0
 73
     3
  0
TEXT
  8
11
  6
CONTINUOUS
 62
     7
  5
3EA
 10
913766.758
 20
7261011.402
 30
0.0
 40
8.0
  1
 
 50
61.453947
  7
ROMANS
 72
     1
 11
913761.004522
 21
7261017.566823
 31
0.0
210
0.0
220
0.0
230
1.0
 73
     3
  0
TEXT
  8
11
  6
CONTINUOUS
 62
     7
  5
3EB
 10
913770.672
 20
7261019.003
 30
0.0
 40
8.0
  1
 
 50
64.655031
  7
ROMANS
 72
     1
 11
913764.583253
 21
7261024.836928
 31
0.0
210
0.0
220
0.0
230
1.0
 73
     3
  0
TEXT
  8
11
  6
CONTINUOUS
 62
     7
  5
3EC
 10
913774.335
 20
7261026.731
 30
0.0
 40
8.0
  1
C
 50
67.856111
  7
ROMANS
 72
     1
 11
913767.874952
 21
7261032.080596
 31
0.0
210
0.0
220
0.0
230
1.0
 73
     3
  0
TEXT
  8
11
  6
CONTINUOUS
 62
     7
  5
3ED
 10
913777.326
 20
7261034.082
 30
0.0
 40
8.0
  1
H
 50
67.856111
  7
ROMANS
 72
     1
 11
913770.795465
 21
7261039.258389
 31
0.0
210
0.0
220
0.0
230
1.0
 73
     3
  0
TEXT
  8
11
  6
CONTINUOUS
 62
     7
  5
3EE
 10
913780.32
 20
7261042.089
 30
0.0
 40
8.0
  1
=
 50
71.057194
  7
ROMANS
 72
     1
 11
913773.835228
 21
7261047.838488
 31
0.0
210
0.0
220
0.0
230
1.0
 73
     3
  0
TEXT
  8
11
  6
CONTINUOUS
 62
     7
  5
3EF
 10
913783.05
 20
7261050.191
 30
0.0
 40
8.0
  1
1
 50
74.258278
  7
ROMANS
 72
     1
 11
913775.711961
 21
7261053.645379
 31
0.0
210
0.0
220
0.0
230
1.0
 73
     3
  0
TEXT
  8
11
  6
CONTINUOUS
 62
     7
  5
3F0
 10
913785.204
 20
7261057.832
 30
0.0
 40
8.0
  1
8
 50
74.258278
  7
ROMANS
 72
     1
 11
913778.136991
 21
7261062.247911
 31
0.0
210
0.0
220
0.0
230
1.0
 73
     3
  0
TEXT
  8
11
  6
CONTINUOUS
 62
     7
  5
3F1
 10
913787.238
 20
7261066.135
 30
0.0
 40
8.0
  1
5
 50
77.459358
  7
ROMANS
 72
     1
 11
913779.93782
 21
7261070.160134
 31
0.0
210
0.0
220
0.0
230
1.0
 73
     3
  0
TEXT
  8
11
  6
CONTINUOUS
 62
     7
  5
3F2
 10
913788.998
 20
7261074.501
 30
0.0
 40
8.0
  1
.
 50
80.660442
  7
ROMANS
 72
     1
 11
913781.31859
 21
7261077.103756
 31
0.0
210
0.0
220
0.0
230
1.0
 73
     3
  0
TEXT
  8
11
  6
CONTINUOUS
 62
     7
  5
3F3
 10
913790.482
 20
7261082.925
 30
0.0
 40
8.0
  1
8
 50
83.861525
  7
ROMANS
 72
     1
 11
913782.777341
 21
7261086.100078
 31
0.0
210
0.0
220
0.0
230
1.0
 73
     3
  0
TEXT
  8
11
  6
CONTINUOUS
 62
     7
  5
3F4
 10
913791.331
 20
7261090.817
 30
0.0
 40
8.0
  1
3
 50
83.861525
  7
ROMANS
 72
     1
 11
913783.626341
 21
7261093.992078
 31
0.0
210
0.0
220
0.0
230
1.0
 73
     3
  0
TEXT
  8
11
  6
CONTINUOUS
 62
     7
  5
3F5
 10
913792.105
 20
7261099.283
 30
0.0
 40
8.0
  1
'
 50
86.809781
  7
ROMANS
 72
     1
 11
913784.191636
 21
7261101.060141
 31
0.0
210
0.0
220
0.0
230
1.0
 73
     3
  0
TEXT
  8
11
  6
CONTINUOUS
 62
     7
  5
3F6
 10
912483.067
 20
7261137.159
 30
0.0
 40
6.0
  1
3
 50
40.515114
  7
ROMANS
 72
     1
 11
912484.397411
 21
7261138.295885
 31
0.0
210
0.0
220
0.0
230
1.0
  0
TEXT
  8
11
  6
CONTINUOUS
 62
     7
  5
3F7
 10
912487.593
 20
7261141.026
 30
0.0
 40
6.0
  1
0
 50
40.515114
  7
ROMANS
 72
     1
 11
912489.104346
 21
7261142.317501
 31
0.0
210
0.0
220
0.0
230
1.0
  0
TEXT
  8
11
  6
CONTINUOUS
 62
     7
  5
3F8
 10
912492.289
 20
7261144.872
 30
0.0
 40
6.0
  1
6
 50
38.248492
  7
ROMANS
 72
     1
 11
912493.77328
 21
7261146.042048
 31
0.0
210
0.0
220
0.0
230
1.0
  0
TEXT
  8
11
  6
CONTINUOUS
 62
     7
  5
3F9
 10
912496.965
 20
7261148.557
 30
0.0
 40
6.0
  1
.
 50
38.248492
  7
ROMANS
 72
     1
 11
912497.744051
 21
7261149.171121
 31
0.0
210
0.0
220
0.0
230
1.0
  0
TEXT
  8
11
  6
CONTINUOUS
 62
     7
  5
3FA
 10
912501.805
 20
7261152.22
 30
0.0
 40
6.0
  1
7
 50
35.981867
  7
ROMANS
 72
     1
 11
912503.221105
 21
7261153.248176
 31
0.0
210
0.0
220
0.0
230
1.0
  0
TEXT
  8
11
  6
CONTINUOUS
 62
     7
  5
3FB
 10
912506.621
 20
7261155.718
 30
0.0
 40
6.0
  1
2
 50
35.981867
  7
ROMANS
 72
     1
 11
912508.037105
 21
7261156.746176
 31
0.0
210
0.0
220
0.0
230
1.0
  0
TEXT
  8
11
  6
CONTINUOUS
 62
     7
  5
3FC
 10
912511.598
 20
7261159.195
 30
0.0
 40
6.0
  1
'
 50
33.715244
  7
ROMANS
 72
     1
 11
912512.429806
 21
7261159.750066
 31
0.0
210
0.0
220
0.0
230
1.0
  0
TEXT
  8
11
  6
CONTINUOUS
 62
     7
  5
3FD
 10
912487.602
 20
7261125.248
 30
0.0
 40
6.0
  1
C
 50
40.515114
  7
ROMANS
 72
     1
 11
912485.140952
 21
7261131.037244
 31
0.0
210
0.0
220
0.0
230
1.0
 73
     3
  0
TEXT
  8
11
  6
CONTINUOUS
 62
     7
  5
3FE
 10
912492.128
 20
7261129.116
 30
0.0
 40
6.0
  1
H
 50
40.515114
  7
ROMANS
 72
     1
 11
912489.560519
 21
7261134.814293
 31
0.0
210
0.0
220
0.0
230
1.0
 73
     3
  0
TEXT
  8
11
  6
CONTINUOUS
 62
     7
  5
3FF
 10
912496.35
 20
7261132.791
 30
0.0
 40
6.0
  1
=
 50
38.248492
  7
ROMANS
 72
     1
 11
912494.598893
 21
7261139.050683
 31
0.0
210
0.0
220
0.0
230
1.0
 73
     3
  0
TEXT
  8
11
  6
CONTINUOUS
 62
     7
  5
400
 10
912501.024
 20
7261136.475
 30
0.0
 40
6.0
  1
1
 50
38.248492
  7
ROMANS
 72
     1
 11
912498.094894
 21
7261141.806073
 31
0.0
210
0.0
220
0.0
230
1.0
 73
     3
  0
TEXT
  8
11
  6
CONTINUOUS
 62
     7
  5
401
 10
912505.383
 20
7261139.989
 30
0.0
 40
6.0
  1
0
 50
35.981867
  7
ROMANS
 72
     1
 11
912503.46652
 21
7261146.012226
 31
0.0
210
0.0
220
0.0
230
1.0
 73
     3
  0
TEXT
  8
11
  6
CONTINUOUS
 62
     7
  5
402
 10
912510.2
 20
7261143.487
 30
0.0
 40
6.0
  1
0
 50
35.981867
  7
ROMANS
 72
     1
 11
912508.28352
 21
7261149.510226
 31
0.0
210
0.0
220
0.0
230
1.0
 73
     3
  0
TEXT
  8
11
  6
CONTINUOUS
 62
     7
  5
403
 10
912515.018
 20
7261146.986
 30
0.0
 40
6.0
  1
.
 50
35.981867
  7
ROMANS
 72
     1
 11
912512.295554
 21
7261152.424047
 31
0.0
210
0.0
220
0.0
230
1.0
 73
     3
  0
TEXT
  8
11
  6
CONTINUOUS
 62
     7
  5
404
 10
912519.641
 20
7261150.136
 30
0.0
 40
6.0
  1
2
 50
33.715244
  7
ROMANS
 72
     1
 11
912517.766267
 21
7261156.098204
 31
0.0
210
0.0
220
0.0
230
1.0
 73
     3
  0
TEXT
  8
11
  6
CONTINUOUS
 62
     7
  5
405
 10
912524.592
 20
7261153.441
 30
0.0
 40
6.0
  1
8
 50
33.715244
  7
ROMANS
 72
     1
 11
912522.717267
 21
7261159.403204
 31
0.0
210
0.0
220
0.0
230
1.0
 73
     3
  0
TEXT
  8
11
  6
CONTINUOUS
 62
     7
  5
406
 10
912529.333
 20
7261156.415
 30
0.0
 40
6.0
  1
'
 50
31.448622
  7
ROMANS
 72
     1
 11
912527.055706
 21
7261162.055384
 31
0.0
210
0.0
220
0.0
230
1.0
 73
     3
  0
TEXT
  8
11
  6
CONTINUOUS
 62
     7
  5
407
 10
912551.944
 20
7261102.571
 30
0.0
 40
8.0
  1
R
 50
35.314094
  7
ROMANS
 72
     1
 11
912549.375841
 21
7261110.55567
 31
0.0
210
0.0
220
0.0
230
1.0
 73
     3
  0
TEXT
  8
11
  6
CONTINUOUS
 62
     7
  5
408
 10
912558.048
 20
7261106.716
 30
0.0
 40
8.0
  1
=
 50
32.415056
  7
ROMANS
 72
     1
 11
912556.573286
 21
7261115.256147
 31
0.0
210
0.0
220
0.0
230
1.0
 73
     3
  0
TEXT
  8
11
  6
CONTINUOUS
 62
     7
  5
409
 10
912564.232
 20
7261110.747
 30
0.0
 40
8.0
  1
2
 50
29.516014
  7
ROMANS
 72
     1
 11
912562.320884
 21
7261118.858136
 31
0.0
210
0.0
220
0.0
230
1.0
 73
     3
  0
TEXT
  8
11
  6
CONTINUOUS
 62
     7
  5
40A
 10
912571.139
 20
7261114.659
 30
0.0
 40
8.0
  1
5
 50
29.516014
  7
ROMANS
 72
     1
 11
912569.237457
 21
7261122.775555
 31
0.0
210
0.0
220
0.0
230
1.0
 73
     3
  0
TEXT
  8
11
  6
CONTINUOUS
 62
     7
  5
40B
 10
912577.596
 20
7261118.23
 30
0.0
 40
8.0
  1
0
 50
26.616975
  7
ROMANS
 72
     1
 11
912576.381859
 21
7261126.569884
 31
0.0
210
0.0
220
0.0
230
1.0
 73
     3
  0
TEXT
  8
11
  6
CONTINUOUS
 62
     7
  5
40C
 10
912584.692
 20
7261121.786
 30
0.0
 40
8.0
  1
.
 50
26.616975
  7
ROMANS
 72
     1
 11
912582.289705
 21
7261129.53046
 31
0.0
210
0.0
220
0.0
230
1.0
 73
     3
  0
TEXT
  8
11
  6
CONTINUOUS
 62
     7
  5
40D
 10
912591.391
 20
7261124.878
 30
0.0
 40
8.0
  1
7
 50
23.717936
  7
ROMANS
 72
     1
 11
912590.309072
 21
7261133.140707
 31
0.0
210
0.0
220
0.0
230
1.0
 73
     3
  0
TEXT
  8
11
  6
CONTINUOUS
 62
     7
  5
40E
 10
912598.147
 20
7261127.849
 30
0.0
 40
8.0
  1
2
 50
20.818894
  7
ROMANS
 72
     1
 11
912597.484353
 21
7261136.155852
 31
0.0
210
0.0
220
0.0
230
1.0
 73
     3
  0
TEXT
  8
11
  6
CONTINUOUS
 62
     7
  5
40F
 10
912605.566
 20
7261130.668
 30
0.0
 40
8.0
  1
'
 50
20.818894
  7
ROMANS
 72
     1
 11
912603.968645
 21
7261138.619437
 31
0.0
210
0.0
220
0.0
230
1.0
 73
     3
  0
TEXT
  8
11
  6
CONTINUOUS
 62
     7
  5
410
 10
912542.214
 20
7261112.836
 30
0.0
 40
8.0
  1
C
 50
35.314094
  7
ROMANS
 72
     1
 11
912544.270308
 21
7261114.292707
 31
0.0
210
0.0
220
0.0
230
1.0
  0
TEXT
  8
11
  6
CONTINUOUS
 62
     7
  5
411
 10
912548.851
 20
7261117.458
 30
0.0
 40
8.0
  1
H
 50
32.415056
  7
ROMANS
 72
     1
 11
912550.820488
 21
7261118.708601
 31
0.0
210
0.0
220
0.0
230
1.0
  0
TEXT
  8
11
  6
CONTINUOUS
 62
     7
  5
412
 10
912555.55
 20
7261121.713
 30
0.0
 40
8.0
  1
=
 50
32.415056
  7
ROMANS
 72
     1
 11
912558.363676
 21
7261123.49965
 31
0.0
210
0.0
220
0.0
230
1.0
  0
TEXT
  8
11
  6
CONTINUOUS
 62
     7
  5
413
 10
912562.496
 20
7261125.853
 30
0.0
 40
8.0
  1
1
 50
29.516014
  7
ROMANS
 72
     1
 11
912563.656001
 21
7261126.509725
 31
0.0
210
0.0
220
0.0
230
1.0
  0
TEXT
  8
11
  6
CONTINUOUS
 62
     7
  5
414
 10
912569.531
 20
7261129.848
 30
0.0
 40
8.0
  1
8
 50
26.616975
  7
ROMANS
 72
     1
 11
912571.616752
 21
7261130.89324
 31
0.0
210
0.0
220
0.0
230
1.0
  0
TEXT
  8
11
  6
CONTINUOUS
 62
     7
  5
415
 10
912576.626
 20
7261133.404
 30
0.0
 40
8.0
  1
5
 50
26.616975
  7
ROMANS
 72
     1
 11
912578.721586
 21
7261134.454168
 31
0.0
210
0.0
220
0.0
230
1.0
  0
TEXT
  8
11
  6
CONTINUOUS
 62
     7
  5
416
 10
912583.923
 20
7261136.89
 30
0.0
 40
8.0
  1
.
 50
23.717936
  7
ROMANS
 72
     1
 11
912585.13334
 21
7261137.421754
 31
0.0
210
0.0
220
0.0
230
1.0
  0
TEXT
  8
11
  6
CONTINUOUS
 62
     7
  5
417
 10
912591.296
 20
7261140.222
 30
0.0
 40
8.0
  1
7
 50
20.818894
  7
ROMANS
 72
     1
 11
912593.476675
 21
7261141.051184
 31
0.0
210
0.0
220
0.0
230
1.0
  0
TEXT
  8
11
  6
CONTINUOUS
 62
     7
  5
418
 10
912598.716
 20
7261143.043
 30
0.0
 40
8.0
  1
7
 50
20.818894
  7
ROMANS
 72
     1
 11
912600.896675
 21
7261143.872184
 31
0.0
210
0.0
220
0.0
230
1.0
  0
TEXT
  8
11
  6
CONTINUOUS
 62
     7
  5
419
 10
912606.302
 20
7261145.843
 30
0.0
 40
8.0
  1
'
 50
17.919856
  7
ROMANS
 72
     1
 11
912607.571285
 21
7261146.253454
 31
0.0
210
0.0
220
0.0
230
1.0
  0
TEXT
  8
11
  6
CONTINUOUS
 62
     7
  5
41A
 10
910209.431
 20
7260245.135
 30
0.0
 40
8.0
  1
C
 50
81.892436
  7
ROMANS
 72
     1
 11
910209.7864
 21
7260247.629813
 31
0.0
210
0.0
220
0.0
230
1.0
  0
TEXT
  8
11
  6
CONTINUOUS
 62
     7
  5
41B
 10
910211.031
 20
7260253.604
 30
0.0
 40
8.0
  1
H
 50
68.925361
  7
ROMANS
 72
     1
 11
910211.870269
 21
7260255.781885
 31
0.0
210
0.0
220
0.0
230
1.0
  0
TEXT
  8
11
  6
CONTINUOUS
 62
     7
  5
41C
 10
910214.109
 20
7260261.282
 30
0.0
 40
8.0
  1
=
 50
62.441825
  7
ROMANS
 72
     1
 11
910215.651009
 21
7260264.236843
 31
0.0
210
0.0
220
0.0
230
1.0
  0
TEXT
  8
11
  6
CONTINUOUS
 62
     7
  5
41D
 10
910218.256
 20
7260268.429
 30
0.0
 40
8.0
  1
7
 50
55.958289
  7
ROMANS
 72
     1
 11
910219.562005
 21
7260270.362194
 31
0.0
210
0.0
220
0.0
230
1.0
  0
TEXT
  8
11
  6
CONTINUOUS
 62
     7
  5
41E
 10
910223.604
 20
7260275.172
 30
0.0
 40
8.0
  1
0
 50
42.991214
  7
ROMANS
 72
     1
 11
910225.543096
 21
7260276.97968
 31
0.0
210
0.0
220
0.0
230
1.0
  0
TEXT
  8
11
  6
CONTINUOUS
 62
     7
  5
41F
 10
910229.816
 20
7260280.627
 30
0.0
 40
8.0
  1
.
 50
36.507675
  7
ROMANS
 72
     1
 11
910230.878593
 21
7260281.413498
 31
0.0
210
0.0
220
0.0
230
1.0
  0
TEXT
  8
11
  6
CONTINUOUS
 62
     7
  5
420
 10
910236.98
 20
7260285.416
 30
0.0
 40
8.0
  1
7
 50
23.540603
  7
ROMANS
 72
     1
 11
910239.118841
 21
7260286.347798
 31
0.0
210
0.0
220
0.0
230
1.0
  0
TEXT
  8
11
  6
CONTINUOUS
 62
     7
  5
421
 10
910244.611
 20
7260288.606
 30
0.0
 40
8.0
  1
1
 50
17.057064
  7
ROMANS
 72
     1
 11
910245.885365
 21
7260288.997001
 31
0.0
210
0.0
220
0.0
230
1.0
  0
TEXT
  8
11
  6
CONTINUOUS
 62
     7
  5
422
 10
910252.615
 20
7260290.661
 30
0.0
 40
8.0
  1
'
 50
10.573528
  7
ROMANS
 72
     1
 11
910253.926349
 21
7260290.905785
 31
0.0
210
0.0
220
0.0
230
1.0
  0
TEXT
  8
11
  6
CONTINUOUS
 62
     7
  5
423
 10
910201.988
 20
7260227.758
 30
0.0
 40
8.0
  1
C
 50
281.343047
  7
ROMANS
 72
     1
 11
910210.327378
 21
7260226.860685
 31
0.0
210
0.0
220
0.0
230
1.0
 73
     3
  0
TEXT
  8
11
  6
CONTINUOUS
 62
     7
  5
424
 10
910204.556
 20
7260217.654
 30
0.0
 40
8.0
  1
H
 50
294.310122
  7
ROMANS
 72
     1
 11
910212.807083
 21
7260218.821269
 31
0.0
210
0.0
220
0.0
230
1.0
 73
     3
  0
TEXT
  8
11
  6
CONTINUOUS
 62
     7
  5
425
 10
910208.455
 20
7260209.345
 30
0.0
 40
8.0
  1
=
 50
300.793661
  7
ROMANS
 72
     1
 11
910217.033454
 21
7260210.577481
 31
0.0
210
0.0
220
0.0
230
1.0
 73
     3
  0
TEXT
  8
11
  6
CONTINUOUS
 62
     7
  5
426
 10
910213.479
 20
7260201.677
 30
0.0
 40
8.0
  1
7
 50
307.277197
  7
ROMANS
 72
     1
 11
910221.257749
 21
7260204.665972
 31
0.0
210
0.0
220
0.0
230
1.0
 73
     3
  0
TEXT
  8
11
  6
CONTINUOUS
 62
     7
  5
427
 10
910220.403
 20
7260193.898
 30
0.0
 40
8.0
  1
0
 50
320.244272
  7
ROMANS
 72
     1
 11
910227.557157
 21
7260198.352867
 31
0.0
210
0.0
220
0.0
230
1.0
 73
     3
  0
TEXT
  8
11
  6
CONTINUOUS
 62
     7
  5
428
 10
910227.623
 20
7260188.24
 30
0.0
 40
8.0
  1
.
 50
326.727808
  7
ROMANS
 72
     1
 11
910233.117226
 21
7260194.203318
 31
0.0
210
0.0
220
0.0
230
1.0
 73
     3
  0
TEXT
  8
11
  6
CONTINUOUS
 62
     7
  5
429
 10
910236.631
 20
7260182.992
 30
0.0
 40
8.0
  1
7
 50
339.694883
  7
ROMANS
 72
     1
 11
910241.596116
 21
7260189.68492
 31
0.0
210
0.0
220
0.0
230
1.0
 73
     3
  0
TEXT
  8
11
  6
CONTINUOUS
 62
     7
  5
42A
 10
910245.286
 20
7260179.943
 30
0.0
 40
8.0
  1
1
 50
346.178422
  7
ROMANS
 72
     1
 11
910248.491596
 21
7260187.392902
 31
0.0
210
0.0
220
0.0
230
1.0
 73
     3
  0
TEXT
  8
11
  6
CONTINUOUS
 62
     7
  5
42B
 10
910254.277
 20
7260178.146
 30
0.0
 40
8.0
  1
'
 50
352.661958
  7
ROMANS
 72
     1
 11
910256.620868
 21
7260185.910224
 31
0.0
210
0.0
220
0.0
230
1.0
 73
     3
  0
TEXT
  8
11
  6
CONTINUOUS
 62
     7
  5
42C
 10
910267.774
 20
7260291.248
 30
0.0
 40
5.0
  1
C
 50
351.187969
  7
ROMANS
 72
     1
 11
910269.331397
 21
7260291.006567
 31
0.0
210
0.0
220
0.0
230
1.0
  0
TEXT
  8
11
  6
CONTINUOUS
 62
     7
  5
42D
 10
910272.931
 20
7260290.398
 30
0.0
 40
5.0
  1
H
 50
346.062539
  7
ROMANS
 72
     1
 11
910274.346075
 21
7260290.046822
 31
0.0
210
0.0
220
0.0
230
1.0
  0
TEXT
  8
11
  6
CONTINUOUS
 62
     7
  5
42E
 10
910277.98
 20
7260289.05
 30
0.0
 40
5.0
  1
=
 50
340.937108
  7
ROMANS
 72
     1
 11
910279.94877
 21
7260288.36968
 31
0.0
210
0.0
220
0.0
230
1.0
  0
TEXT
  8
11
  6
CONTINUOUS
 62
     7
  5
42F
 10
910282.87
 20
7260287.216
 30
0.0
 40
5.0
  1
4
 50
335.811681
  7
ROMANS
 72
     1
 11
910284.199993
 21
7260286.618603
 31
0.0
210
0.0
220
0.0
230
1.0
  0
TEXT
  8
11
  6
CONTINUOUS
 62
     7
  5
430
 10
910287.559
 20
7260284.912
 30
0.0
 40
5.0
  1
6
 50
330.68625
  7
ROMANS
 72
     1
 11
910288.933196
 21
7260284.140403
 31
0.0
210
0.0
220
0.0
230
1.0
  0
TEXT
  8
11
  6
CONTINUOUS
 62
     7
  5
431
 10
910292.001
 20
7260282.162
 30
0.0
 40
5.0
  1
.
 50
325.560819
  7
ROMANS
 72
     1
 11
910292.682224
 21
7260281.694871
 31
0.0
210
0.0
220
0.0
230
1.0
  0
TEXT
  8
11
  6
CONTINUOUS
 62
     7
  5
432
 10
910296.152
 20
7260278.99
 30
0.0
 40
5.0
  1
9
 50
320.435392
  7
ROMANS
 72
     1
 11
910297.275982
 21
7260278.06133
 31
0.0
210
0.0
220
0.0
230
1.0
  0
TEXT
  8
11
  6
CONTINUOUS
 62
     7
  5
433
 10
910300.23
 20
7260275.298
 30
0.0
 40
5.0
  1
0
 50
310.184531
  7
ROMANS
 72
     1
 11
910301.299182
 21
7260274.032101
 31
0.0
210
0.0
220
0.0
230
1.0
  0
TEXT
  8
11
  6
CONTINUOUS
 62
     7
  5
434
 10
910303.639
 20
7260271.33
 30
0.0
 40
5.0
  1
'
 50
305.0591
  7
ROMANS
 72
     1
 11
910304.117493
 21
7260270.64814
 31
0.0
210
0.0
220
0.0
230
1.0
  0
TEXT
  8
11
  6
CONTINUOUS
 62
     7
  5
435
 10
910265.11
 20
7260180.646
 30
0.0
 40
5.0
  1
C
 50
5.954303
  7
ROMANS
 72
     1
 11
910266.158821
 21
7260185.782511
 31
0.0
210
0.0
220
0.0
230
1.0
 73
     3
  0
TEXT
  8
11
  6
CONTINUOUS
 62
     7
  5
436
 10
910270.755
 20
7260181.256
 30
0.0
 40
5.0
  1
H
 50
11.079733
  7
ROMANS
 72
     1
 11
910271.22495
 21
7260186.442994
 31
0.0
210
0.0
220
0.0
230
1.0
 73
     3
  0
TEXT
  8
11
  6
CONTINUOUS
 62
     7
  5
437
 10
910276.309
 20
7260182.41
 30
0.0
 40
5.0
  1
=
 50
16.205161
  7
ROMANS
 72
     1
 11
910276.913851
 21
7260187.792661
 31
0.0
210
0.0
220
0.0
230
1.0
 73
     3
  0
TEXT
  8
11
  6
CONTINUOUS
 62
     7
  5
438
 10
910281.727
 20
7260184.094
 30
0.0
 40
5.0
  1
4
 50
21.330592
  7
ROMANS
 72
     1
 11
910281.26638
 21
7260189.281831
 31
0.0
210
0.0
220
0.0
230
1.0
 73
     3
  0
TEXT
  8
11
  6
CONTINUOUS
 62
     7
  5
439
 10
910286.953
 20
7260186.299
 30
0.0
 40
5.0
  1
6
 50
26.456022
  7
ROMANS
 72
     1
 11
910286.136402
 21
7260191.477508
 31
0.0
210
0.0
220
0.0
230
1.0
 73
     3
  0
TEXT
  8
11
  6
CONTINUOUS
 62
     7
  5
43A
 10
910291.94
 20
7260188.998
 30
0.0
 40
5.0
  1
.
 50
31.58145
  7
ROMANS
 72
     1
 11
910290.025116
 21
7260193.690067
 31
0.0
210
0.0
220
0.0
230
1.0
 73
     3
  0
TEXT
  8
11
  6
CONTINUOUS
 62
     7
  5
43B
 10
910296.642
 20
7260192.168
 30
0.0
 40
5.0
  1
9
 50
36.706881
  7
ROMANS
 72
     1
 11
910294.822277
 21
7260197.047997
 31
0.0
210
0.0
220
0.0
230
1.0
 73
     3
  0
TEXT
  8
11
  6
CONTINUOUS
 62
     7
  5
43C
 10
910301.013
 20
7260195.78
 30
0.0
 40
5.0
  1
0
 50
41.832311
  7
ROMANS
 72
     1
 11
910298.912867
 21
7260200.610641
 31
0.0
210
0.0
220
0.0
230
1.0
 73
     3
  0
TEXT
  8
11
  6
CONTINUOUS
 62
     7
  5
43D
 10
910305.016
 20
7260199.801
 30
0.0
 40
5.0
  1
'
 50
46.957742
  7
ROMANS
 72
     1
 11
910301.930301
 21
7260203.822486
 31
0.0
210
0.0
220
0.0
230
1.0
 73
     3
  0
TEXT
  8
19
  6
CONTINUOUS
 62
     1
  5
440
 10
912311.2
 20
7260027.766
 30
0.0
 40
24.0
  1
SANTA
 50
34.268244
  7
ROMANC
 72
     4
 11
912356.913638
 21
7260073.433246
 31
0.0
210
0.0
220
0.0
230
1.0
  0
TEXT
  8
19
  6
CONTINUOUS
 62
     1
  5
441
 10
912858.73
 20
7260397.099
 30
0.0
 40
24.0
  1
FE
 50
34.268244
  7
ROMANC
 72
     4
 11
912870.243466
 21
7260419.464236
 31
0.0
210
0.0
220
0.0
230
1.0
  0
TEXT
  8
19
  6
CONTINUOUS
 62
     1
  5
442
 10
911108.833
 20
7260399.956
 30
0.0
 40
24.0
  1
TRENTON AVE
 50
88.1488
  7
ROMANC
 72
     4
 11
911101.563969
 21
7260546.525314
 31
0.0
210
0.0
220
0.0
230
1.0
  0
TEXT
  8
19
  6
CONTINUOUS
 62
     1
  5
443
 10
910767.422
 20
7259698.852
 30
0.0
 40
24.0
  1
TRENTON AVE
 50
88.1488
  7
ROMANC
 72
     4
 11
910760.152969
 21
7259845.421314
 31
0.0
210
0.0
220
0.0
230
1.0
  0
TEXT
  8
19
  6
CONTINUOUS
 62
     1
  5
444
 10
910805.432
 20
7260961.539
 30
0.0
 40
24.0
  1
TRENTON AVE
 50
88.1488
 41
0.916667
  7
ROMANC
 72
     4
 11
910797.769249
 21
7261095.926675
 31
0.0
210
0.0
220
0.0
230
1.0
  0
TEXT
  8
15
  6
CONTINUOUS
 62
    30
  5
446
 10
910613.046
 20
7260429.806
 30
0.0
 40
50.0
  1
PINE GROVE ESTATES
 50
33.1488
  7
ROMANC
 72
     4
 11
910997.869669
 21
7260710.996245
 31
0.0
210
0.0
220
0.0
230
1.0
  0
TEXT
  8
15
  6
CONTINUOUS
 62
    30
  5
447
 10
912206.345
 20
7260256.337
 30
0.0
 40
50.0
  1
PINE GROVE ESTATES
 50
33.1488
  7
ROMANC
 72
     4
 11
912591.168669
 21
7260537.527245
 31
0.0
210
0.0
220
0.0
230
1.0
  0
TEXT
  8
15
  6
CONTINUOUS
 62
    30
  5
448
 10
910218.752
 20
7258906.555
 30
0.0
 40
50.0
  1
PINE GROVE ESTATES
 50
33.1488
  7
ROMANC
 72
     4
 11
910603.575669
 21
7259187.745245
 31
0.0
210
0.0
220
0.0
230
1.0
  0
TEXT
  8
15
  6
CONTINUOUS
 62
    30
  5
449
 10
911467.021
 20
7259251.418
 30
0.0
 40
50.0
  1
PINE GROVE ESTATES
 50
33.1488
  7
ROMANC
 72
     4
 11
911851.844669
 21
7259532.608245
 31
0.0
210
0.0
220
0.0
230
1.0
  0
TEXT
  8
19
  6
CONTINUOUS
 62
     1
  5
44A
 10
911487.235
 20
7258776.737
 30
0.0
 40
24.0
  1
U.S. HIGHWAY 62 & 82
 50
33.238042
  7
ROMANC
 72
     4
 11
911680.199333
 21
7258917.539575
 31
0.0
210
0.0
220
0.0
230
1.0
  0
TEXT
  8
19
  6
CONTINUOUS
 62
     1
  5
44B
 10
914774.254
 20
7260110.666
 30
0.0
 40
24.0
  1
SPUR 327
 50
1.628047
  7
ROMANC
 72
     4
 11
914873.931677
 21
7260125.503928
 31
0.0
210
0.0
220
0.0
230
1.0
  0
TEXT
  8
19
  6
CONTINUOUS
 62
     1
  5
44C
 10
913885.468
 20
7260408.941
 30
0.0
 40
24.0
  1
U.S. HIGHWAY 62 & 82 (BROWNFIELD RD.)
 50
36.25275
  7
ROMANC
 72
     4
 11
914234.954558
 21
7260680.101593
 31
0.0
210
0.0
220
0.0
230
1.0
  0
TEXT
  8
11
  6
CONTINUOUS
 62
     7
  5
44D
 10
911628.633
 20
7258609.558
 30
0.0
 40
8.0
  1
100'
 50
88.0697
  7
ROMANS
 72
     4
 11
911625.084375
 21
7258623.018169
 31
0.0
210
0.0
220
0.0
230
1.0
  0
INSERT
  8
11
  6
CONTINUOUS
 62
     7
  5
453
  2
*D30
 10
911619.114
 20
7258678.073
 30
0.0
 70
     0
 71
     0
  0
INSERT
  8
11
  6
CONTINUOUS
 62
     7
  5
459
  2
*D31
 10
914175.737
 20
7259844.361
 30
0.0
 70
     0
 71
     0
  0
INSERT
  8
11
  6
CONTINUOUS
 62
     7
  5
45F
  2
*D32
 10
914946.966
 20
7261173.55
 30
0.0
 70
     0
 71
     0
  0
INSERT
  8
11
  6
CONTINUOUS
 62
     7
  5
465
  2
*D33
 10
914946.966
 20
7261173.55
 30
0.0
 70
     0
 71
     0
  0
INSERT
  8
11
  6
CONTINUOUS
 62
     7
  5
46B
  2
*D34
 10
910946.043
 20
7258600.7
 30
0.0
 70
     0
 71
     0
  0
TEXT
  8
11
  6
CONTINUOUS
 62
     7
  5
46C
 10
914557.136
 20
7259944.957
 30
0.0
 40
8.0
  1
R
 50
12.283275
  7
ROMANS
 72
     1
 11
914557.89635
 21
7259953.30998
 31
0.0
210
0.0
220
0.0
230
1.0
 73
     3
  0
TEXT
  8
11
  6
CONTINUOUS
 62
     7
  5
46D
 10
914564.735
 20
7259946.542
 30
0.0
 40
8.0
  1
=
 50
11.373111
  7
ROMANS
 72
     1
 11
914566.424974
 21
7259955.042169
 31
0.0
210
0.0
220
0.0
230
1.0
 73
     3
  0
TEXT
  8
11
  6
CONTINUOUS
 62
     7
  5
46E
 10
914572.515
 20
7259948.105
 30
0.0
 40
8.0
  1
2
 50
11.373111
  7
ROMANS
 72
     1
 11
914573.224611
 21
7259956.407972
 31
0.0
210
0.0
220
0.0
230
1.0
 73
     3
  0
TEXT
  8
11
  6
CONTINUOUS
 62
     7
  5
46F
 10
914580.296
 20
7259949.671
 30
0.0
 40
8.0
  1
5
 50
11.373111
  7
ROMANS
 72
     1
 11
914581.016395
 21
7259957.976141
 31
0.0
210
0.0
220
0.0
230
1.0
 73
     3
  0
TEXT
  8
11
  6
CONTINUOUS
 62
     7
  5
470
 10
914588.077
 20
7259951.236
 30
0.0
 40
8.0
  1
3
 50
11.373111
  7
ROMANS
 72
     1
 11
914588.786611
 21
7259959.538972
 31
0.0
210
0.0
220
0.0
230
1.0
 73
     3
  0
TEXT
  8
11
  6
CONTINUOUS
 62
     7
  5
471
 10
914595.859
 20
7259952.802
 30
0.0
 40
8.0
  1
6
 50
11.373111
  7
ROMANS
 72
     1
 11
914596.751939
 21
7259961.141848
 31
0.0
210
0.0
220
0.0
230
1.0
 73
     3
  0
TEXT
  8
11
  6
CONTINUOUS
 62
     7
  5
472
 10
914603.481
 20
7259954.272
 30
0.0
 40
8.0
  1
.
 50
10.462947
  7
ROMANS
 72
     1
 11
914603.328222
 21
7259962.379055
 31
0.0
210
0.0
220
0.0
230
1.0
 73
     3
  0
TEXT
  8
11
  6
CONTINUOUS
 62
     7
  5
473
 10
914611.284
 20
7259955.713
 30
0.0
 40
8.0
  1
2
 50
10.462947
  7
ROMANS
 72
     1
 11
914612.126395
 21
7259964.003834
 31
0.0
210
0.0
220
0.0
230
1.0
 73
     3
  0
TEXT
  8
11
  6
CONTINUOUS
 62
     7
  5
474
 10
914619.089
 20
7259957.155
 30
0.0
 40
8.0
  1
3
 50
10.462947
  7
ROMANS
 72
     1
 11
914619.931395
 21
7259965.445834
 31
0.0
210
0.0
220
0.0
230
1.0
 73
     3
  0
TEXT
  8
11
  6
CONTINUOUS
 62
     7
  5
475
 10
914626.895
 20
7259958.596
 30
0.0
 40
8.0
  1
'
 50
10.462947
  7
ROMANS
 72
     1
 11
914626.754022
 21
7259966.705234
 31
0.0
210
0.0
220
0.0
230
1.0
 73
     3
  0
TEXT
  8
11
  6
CONTINUOUS
 62
     7
  5
476
 10
914891.707
 20
7259992.336
 30
0.0
 40
8.0
  1
1
 50
4.091806
  7
ROMANS
 72
     1
 11
914892.465764
 21
7260000.410724
 31
0.0
210
0.0
220
0.0
230
1.0
 73
     3
  0
TEXT
  8
11
  6
CONTINUOUS
 62
     7
  5
477
 10
914899.624
 20
7259992.902
 30
0.0
 40
8.0
  1
1
 50
4.091806
  7
ROMANS
 72
     1
 11
914900.382764
 21
7260000.976724
 31
0.0
210
0.0
220
0.0
230
1.0
 73
     3
  0
TEXT
  8
11
  6
CONTINUOUS
 62
     7
  5
478
 10
914907.54
 20
7259993.469
 30
0.0
 40
8.0
  1
5
 50
4.091806
  7
ROMANS
 72
     1
 11
914909.307187
 21
7260001.615864
 31
0.0
210
0.0
220
0.0
230
1.0
 73
     3
  0
TEXT
  8
11
  6
CONTINUOUS
 62
     7
  5
479
 10
914915.457
 20
7259994.036
 30
0.0
 40
8.0
  1
4
 50
4.091806
  7
ROMANS
 72
     1
 11
914917.213215
 21
7260002.182079
 31
0.0
210
0.0
220
0.0
230
1.0
 73
     3
  0
TEXT
  8
11
  6
CONTINUOUS
 62
     7
  5
47A
 10
914923.205
 20
7259994.505
 30
0.0
 40
8.0
  1
.
 50
3.181642
  7
ROMANS
 72
     1
 11
914924.08095
 21
7260002.566042
 31
0.0
210
0.0
220
0.0
230
1.0
 73
     3
  0
TEXT
  8
11
  6
CONTINUOUS
 62
     7
  5
47B
 10
914931.129
 20
7259994.945
 30
0.0
 40
8.0
  1
2
 50
3.181642
  7
ROMANS
 72
     1
 11
914933.014391
 21
7260003.062154
 31
0.0
210
0.0
220
0.0
230
1.0
 73
     3
  0
TEXT
  8
11
  6
CONTINUOUS
 62
     7
  5
47C
 10
914939.054
 20
7259995.385
 30
0.0
 40
8.0
  1
2
 50
3.181642
  7
ROMANS
 72
     1
 11
914940.939391
 21
7260003.502154
 31
0.0
210
0.0
220
0.0
230
1.0
 73
     3
  0
TEXT
  8
11
  6
CONTINUOUS
 62
     7
  5
47D
 10
914946.978
 20
7259995.826
 30
0.0
 40
8.0
  1
'
 50
3.181642
  7
ROMANS
 72
     1
 11
914947.864933
 21
7260003.887652
 31
0.0
210
0.0
220
0.0
230
1.0
 73
     3
  0
TEXT
  8
11
  6
CONTINUOUS
 62
     7
  5
47E
 10
915132.228
 20
7260162.448
 30
0.0
 40
8.0
  1
280'
 50
268.0697
  7
ROMANS
 72
     1
 11
915139.774355
 21
7260148.853096
 31
0.0
210
0.0
220
0.0
230
1.0
 73
     3
  0
TEXT
  8
11
  6
CONTINUOUS
 62
     7
  5
47F
 10
915274.955
 20
7261481.94
 30
0.0
 40
8.0
  1
120'
 50
300.0697
  7
ROMANS
 72
     4
 11
915285.097208
 21
7261472.405614
 31
0.0
210
0.0
220
0.0
230
1.0
  0
TEXT
  8
11
  6
CONTINUOUS
 62
     7
  5
480
 10
911901.211
 20
7259091.643
 30
0.0
 40
8.0
  1
250'
 50
300.0697
  7
ROMANS
 72
     4
 11
911911.353208
 21
7259082.108614
 31
0.0
210
0.0
220
0.0
230
1.0
  0
TEXT
  8
11
  6
CONTINUOUS
 62
     7
  5
481
 10
910890.924
 20
7258664.739
 30
0.0
 40
8.0
  1
50'
 50
300.0697
  7
ROMANS
 72
     4
 11
910899.061995
 21
7258658.66628
 31
0.0
210
0.0
220
0.0
230
1.0
  0
TEXT
  8
11
  6
CONTINUOUS
 62
     7
  5
482
 10
910920.047
 20
7258623.457
 30
0.0
 40
8.0
  1
50'
 50
300.0697
  7
ROMANS
 72
     4
 11
910928.184995
 21
7258617.38428
 31
0.0
210
0.0
220
0.0
230
1.0
  0
TEXT
  8
11
  6
CONTINUOUS
 62
     7
  5
483
 10
915305.501
 20
7261685.038
 30
0.0
 40
8.0
  1
50'
 50
300.0697
  7
ROMANS
 72
     4
 11
915313.638995
 21
7261678.96528
 31
0.0
210
0.0
220
0.0
230
1.0
  0
TEXT
  8
11
  6
CONTINUOUS
 62
     7
  5
484
 10
915333.137
 20
7261637.997
 30
0.0
 40
8.0
  1
50'
 50
300.0697
  7
ROMANS
 72
     4
 11
915341.274995
 21
7261631.92428
 31
0.0
210
0.0
220
0.0
230
1.0
  0
TEXT
  8
11
  6
CONTINUOUS
 62
     7
  5
485
 10
910737.479
 20
7258874.473
 30
0.0
 40
8.0
  1
20'
 50
28.1488
  7
ROMANS
 72
     4
 11
910743.821973
 21
7258882.403338
 31
0.0
210
0.0
220
0.0
230
1.0
  0
TEXT
  8
11
  6
CONTINUOUS
 62
     7
  5
486
 10
910649.283
 20
7259002.342
 30
0.0
 40
8.0
  1
20'
 50
28.1488
  7
ROMANS
 72
     4
 11
910655.625973
 21
7259010.272338
 31
0.0
210
0.0
220
0.0
230
1.0
  0
TEXT
  8
11
  6
CONTINUOUS
 62
     7
  5
487
 10
910844.096
 20
7258717.926
 30
0.0
 40
8.0
  1
20'
 50
28.1488
  7
ROMANS
 72
     4
 11
910850.438973
 21
7258725.856338
 31
0.0
210
0.0
220
0.0
230
1.0
  0
TEXT
  8
11
  6
CONTINUOUS
 62
     7
  5
488
 10
910204.393
 20
7261246.191
 30
0.0
 40
8.0
  1
20'
 50
88.1488
  7
ROMANS
 72
     4
 11
910200.696612
 21
7261255.649344
 31
0.0
210
0.0
220
0.0
230
1.0
  0
TEXT
  8
11
  6
CONTINUOUS
 62
     7
  5
489
 10
910812.0
 20
7258652.462
 30
0.0
 40
8.0
  1
20'
 50
300.0697
  7
ROMANS
 72
     4
 11
910820.137995
 21
7258646.38928
 31
0.0
210
0.0
220
0.0
230
1.0
  0
TEXT
  8
11
  6
CONTINUOUS
 62
     7
  5
48A
 10
914388.505
 20
7261082.318
 30
0.0
 40
8.0
  1
20'
 50
300.0697
  7
ROMANS
 72
     4
 11
914396.642995
 21
7261076.24528
 31
0.0
210
0.0
220
0.0
230
1.0
  0
TEXT
  8
11
  6
CONTINUOUS
 62
     7
  5
48B
 10
912462.948
 20
7261173.428
 30
0.0
 40
8.0
  1
20'
 50
88.1488
  7
ROMANS
 72
     4
 11
912459.251612
 21
7261182.886344
 31
0.0
210
0.0
220
0.0
230
1.0
  0
TEXT
  8
11
  6
CONTINUOUS
 62
     7
  5
48C
 10
912777.963
 20
7261157.625
 30
0.0
 40
8.0
  1
30'
 50
88.1488
  7
ROMANS
 72
     4
 11
912774.266612
 21
7261167.083344
 31
0.0
210
0.0
220
0.0
230
1.0
  0
TEXT
  8
11
  6
CONTINUOUS
 62
     7
  5
48D
 10
913636.569
 20
7261130.946
 30
0.0
 40
8.0
  1
30'
 50
88.1488
  7
ROMANS
 72
     4
 11
913632.872612
 21
7261140.404344
 31
0.0
210
0.0
220
0.0
230
1.0
  0
TEXT
  8
11
  6
CONTINUOUS
 62
     7
  5
48E
 10
914767.298
 20
7263643.05
 30
0.0
 40
8.0
  1
660'
 50
3.4791
  7
ROMANS
 72
     4
 11
914780.364688
 21
7263647.851794
 31
0.0
210
0.0
220
0.0
230
1.0
  0
TEXT
  8
11
  6
CONTINUOUS
 62
     7
  5
48F
 10
914627.584
 20
7258479.842
 30
0.0
 40
8.0
  1
660'
 50
358.0697
  7
ROMANS
 72
     4
 11
914641.044169
 21
7258483.390625
 31
0.0
210
0.0
220
0.0
230
1.0
  0
TEXT
  8
11
  6
CONTINUOUS
 62
     7
  5
490
 10
911743.19
 20
7258826.378
 30
0.0
 40
8.0
  1
R
 50
33.610061
  7
ROMANS
 72
     1
 11
911740.860414
 21
7258834.435508
 31
0.0
210
0.0
220
0.0
230
1.0
 73
     3
  0
TEXT
  8
11
  6
CONTINUOUS
 62
     7
  5
491
 10
911749.799
 20
7258830.77
 30
0.0
 40
8.0
  1
=
 50
33.610061
  7
ROMANS
 72
     1
 11
911748.1465
 21
7258839.277534
 31
0.0
210
0.0
220
0.0
230
1.0
 73
     3
  0
TEXT
  8
11
  6
CONTINUOUS
 62
     7
  5
492
 10
911756.301
 20
7258835.074
 30
0.0
 40
8.0
  1
3
 50
32.881044
  7
ROMANS
 72
     1
 11
911753.917079
 21
7258843.058974
 31
0.0
210
0.0
220
0.0
230
1.0
 73
     3
  0
TEXT
  8
11
  6
CONTINUOUS
 62
     7
  5
493
 10
911762.966
 20
7258839.383
 30
0.0
 40
8.0
  1
9
 50
32.881044
  7
ROMANS
 72
     1
 11
911760.582079
 21
7258847.367974
 31
0.0
210
0.0
220
0.0
230
1.0
 73
     3
  0
TEXT
  8
11
  6
CONTINUOUS
 62
     7
  5
494
 10
911769.632
 20
7258843.692
 30
0.0
 40
8.0
  1
5
 50
32.881044
  7
ROMANS
 72
     1
 11
911767.257317
 21
7258851.682946
 31
0.0
210
0.0
220
0.0
230
1.0
 73
     3
  0
TEXT
  8
11
  6
CONTINUOUS
 62
     7
  5
495
 10
911776.298
 20
7258848.001
 30
0.0
 40
8.0
  1
3
 50
32.881044
  7
ROMANS
 72
     1
 11
911773.914079
 21
7258855.985974
 31
0.0
210
0.0
220
0.0
230
1.0
 73
     3
  0
TEXT
  8
11
  6
CONTINUOUS
 62
     7
  5
496
 10
911782.963
 20
7258852.311
 30
0.0
 40
8.0
  1
.
 50
32.881044
  7
ROMANS
 72
     1
 11
911779.730042
 21
7258859.747106
 31
0.0
210
0.0
220
0.0
230
1.0
 73
     3
  0
TEXT
  8
11
  6
CONTINUOUS
 62
     7
  5
497
 10
911789.628
 20
7258856.62
 30
0.0
 40
8.0
  1
3
 50
32.881044
  7
ROMANS
 72
     1
 11
911787.244079
 21
7258864.604974
 31
0.0
210
0.0
220
0.0
230
1.0
 73
     3
  0
TEXT
  8
11
  6
CONTINUOUS
 62
     7
  5
498
 10
911796.294
 20
7258860.928
 30
0.0
 40
8.0
  1
1
 50
32.881044
  7
ROMANS
 72
     1
 11
911793.071119
 21
7258868.37062
 31
0.0
210
0.0
220
0.0
230
1.0
 73
     3
  0
TEXT
  8
11
  6
CONTINUOUS
 62
     7
  5
499
 10
911802.885
 20
7258865.093
 30
0.0
 40
8.0
  1
'
 50
32.152025
  7
ROMANS
 72
     1
 11
911799.756229
 21
7258872.575492
 31
0.0
210
0.0
220
0.0
230
1.0
 73
     3
  0
TEXT
  8
11
  6
CONTINUOUS
 62
     7
  5
49A
 10
912143.033
 20
7259058.183
 30
0.0
 40
8.0
  1
9
 50
27.048897
  7
ROMANS
 72
     1
 11
912141.472808
 21
7259066.368884
 31
0.0
210
0.0
220
0.0
230
1.0
 73
     3
  0
TEXT
  8
11
  6
CONTINUOUS
 62
     7
  5
49B
 10
912150.001
 20
7259061.681
 30
0.0
 40
8.0
  1
9
 50
26.319881
  7
ROMANS
 72
     1
 11
912148.545086
 21
7259069.886072
 31
0.0
210
0.0
220
0.0
230
1.0
 73
     3
  0
TEXT
  8
11
  6
CONTINUOUS
 62
     7
  5
49C
 10
912157.114
 20
7259065.201
 30
0.0
 40
8.0
  1
7
 50
26.319881
  7
ROMANS
 72
     1
 11
912155.658086
 21
7259073.406072
 31
0.0
210
0.0
220
0.0
230
1.0
 73
     3
  0
TEXT
  8
11
  6
CONTINUOUS
 62
     7
  5
49D
 10
912164.229
 20
7259068.719
 30
0.0
 40
8.0
  1
.
 50
26.319881
  7
ROMANS
 72
     1
 11
912161.866894
 21
7259076.475812
 31
0.0
210
0.0
220
0.0
230
1.0
 73
     3
  0
TEXT
  8
11
  6
CONTINUOUS
 62
     7
  5
49E
 10
912171.343
 20
7259072.238
 30
0.0
 40
8.0
  1
0
 50
26.319881
  7
ROMANS
 72
     1
 11
912170.17212
 21
7259080.584067
 31
0.0
210
0.0
220
0.0
230
1.0
 73
     3
  0
TEXT
  8
11
  6
CONTINUOUS
 62
     7
  5
49F
 10
912178.457
 20
7259075.759
 30
0.0
 40
8.0
  1
9
 50
26.319881
  7
ROMANS
 72
     1
 11
912177.001086
 21
7259083.964072
 31
0.0
210
0.0
220
0.0
230
1.0
 73
     3
  0
TEXT
  8
11
  6
CONTINUOUS
 62
     7
  5
4A0
 10
912185.571
 20
7259079.277
 30
0.0
 40
8.0
  1
'
 50
26.319881
  7
ROMANS
 72
     1
 11
912183.21965
 21
7259087.039133
 31
0.0
210
0.0
220
0.0
230
1.0
 73
     3
  0
TEXT
  8
11
  6
CONTINUOUS
 62
     7
  5
4A1
 10
912652.195
 20
7259283.578
 30
0.0
 40
8.0
  1
R
 50
22.280667
  7
ROMANS
 72
     1
 11
912651.493699
 21
7259291.936144
 31
0.0
210
0.0
220
0.0
230
1.0
 73
     3
  0
TEXT
  8
11
  6
CONTINUOUS
 62
     7
  5
4A2
 10
912659.54
 20
7259286.586
 30
0.0
 40
8.0
  1
=
 50
22.280667
  7
ROMANS
 72
     1
 11
912659.590999
 21
7259295.252388
 31
0.0
210
0.0
220
0.0
230
1.0
 73
     3
  0
TEXT
  8
11
  6
CONTINUOUS
 62
     7
  5
4A3
 10
912666.883
 20
7259289.596
 30
0.0
 40
8.0
  1
6
 50
22.280667
  7
ROMANS
 72
     1
 11
912666.181699
 21
7259297.954144
 31
0.0
210
0.0
220
0.0
230
1.0
 73
     3
  0
TEXT
  8
11
  6
CONTINUOUS
 62
     7
  5
4A4
 10
912674.227
 20
7259292.606
 30
0.0
 40
8.0
  1
6
 50
22.280667
  7
ROMANS
 72
     1
 11
912673.525699
 21
7259300.964144
 31
0.0
210
0.0
220
0.0
230
1.0
 73
     3
  0
TEXT
  8
11
  6
CONTINUOUS
 62
     7
  5
4A5
 10
912681.573
 20
7259295.616
 30
0.0
 40
8.0
  1
4
 50
22.280667
  7
ROMANS
 72
     1
 11
912680.699587
 21
7259303.903624
 31
0.0
210
0.0
220
0.0
230
1.0
 73
     3
  0
TEXT
  8
11
  6
CONTINUOUS
 62
     7
  5
4A6
 10
912688.916
 20
7259298.624
 30
0.0
 40
8.0
  1
6
 50
22.280667
  7
ROMANS
 72
     1
 11
912688.214699
 21
7259306.982144
 31
0.0
210
0.0
220
0.0
230
1.0
 73
     3
  0
TEXT
  8
11
  6
CONTINUOUS
 62
     7
  5
4A7
 10
912696.261
 20
7259301.633
 30
0.0
 40
8.0
  1
.
 50
22.280667
  7
ROMANS
 72
     1
 11
912694.451145
 21
7259309.53693
 31
0.0
210
0.0
220
0.0
230
1.0
 73
     3
  0
TEXT
  8
11
  6
CONTINUOUS
 62
     7
  5
4A8
 10
912703.521
 20
7259304.567
 30
0.0
 40
8.0
  1
4
 50
21.718433
  7
ROMANS
 72
     1
 11
912702.728023
 21
7259312.862425
 31
0.0
210
0.0
220
0.0
230
1.0
 73
     3
  0
TEXT
  8
11
  6
CONTINUOUS
 62
     7
  5
4A9
 10
912710.894
 20
7259307.504
 30
0.0
 40
8.0
  1
5
 50
21.718433
  7
ROMANS
 72
     1
 11
912710.111243
 21
7259315.803496
 31
0.0
210
0.0
220
0.0
230
1.0
 73
     3
  0
TEXT
  8
11
  6
CONTINUOUS
 62
     7
  5
4AA
 10
912718.267
 20
7259310.44
 30
0.0
 40
8.0
  1
'
 50
21.718433
  7
ROMANS
 72
     1
 11
912716.54501
 21
7259318.365379
 31
0.0
210
0.0
220
0.0
230
1.0
 73
     3
  0
TEXT
  8
11
  6
CONTINUOUS
 62
     7
  5
4AB
 10
913009.96
 20
7259419.451
 30
0.0
 40
8.0
  1
1
 50
18.907256
  7
ROMANS
 72
     1
 11
913008.628779
 21
7259427.451296
 31
0.0
210
0.0
220
0.0
230
1.0
 73
     3
  0
TEXT
  8
11
  6
CONTINUOUS
 62
     7
  5
4AC
 10
913017.469
 20
7259422.023
 30
0.0
 40
8.0
  1
0
 50
18.907256
  7
ROMANS
 72
     1
 11
913017.384666
 21
7259430.450377
 31
0.0
210
0.0
220
0.0
230
1.0
 73
     3
  0
TEXT
  8
11
  6
CONTINUOUS
 62
     7
  5
4AD
 10
913024.977
 20
7259424.593
 30
0.0
 40
8.0
  1
4
 50
18.907256
  7
ROMANS
 72
     1
 11
913024.591824
 21
7259432.917333
 31
0.0
210
0.0
220
0.0
230
1.0
 73
     3
  0
TEXT
  8
11
  6
CONTINUOUS
 62
     7
  5
4AE
 10
913032.486
 20
7259427.166
 30
0.0
 40
8.0
  1
1
 50
18.907256
  7
ROMANS
 72
     1
 11
913031.154779
 21
7259435.166296
 31
0.0
210
0.0
220
0.0
230
1.0
 73
     3
  0
TEXT
  8
11
  6
CONTINUOUS
 62
     7
  5
4AF
 10
913039.996
 20
7259429.738
 30
0.0
 40
8.0
  1
.
 50
18.907256
  7
ROMANS
 72
     1
 11
913038.654373
 21
7259437.734732
 31
0.0
210
0.0
220
0.0
230
1.0
 73
     3
  0
TEXT
  8
11
  6
CONTINUOUS
 62
     7
  5
4B0
 10
913047.503
 20
7259432.31
 30
0.0
 40
8.0
  1
4
 50
18.907256
  7
ROMANS
 72
     1
 11
913047.117824
 21
7259440.634333
 31
0.0
210
0.0
220
0.0
230
1.0
 73
     3
  0
TEXT
  8
11
  6
CONTINUOUS
 62
     7
  5
4B1
 10
913055.013
 20
7259434.882
 30
0.0
 40
8.0
  1
8
 50
18.907256
  7
ROMANS
 72
     1
 11
913054.627824
 21
7259443.206333
 31
0.0
210
0.0
220
0.0
230
1.0
 73
     3
  0
TEXT
  8
11
  6
CONTINUOUS
 62
     7
  5
4B2
 10
913062.522
 20
7259437.453
 30
0.0
 40
8.0
  1
'
 50
18.907256
  7
ROMANS
 72
     1
 11
913061.190779
 21
7259445.453296
 31
0.0
210
0.0
220
0.0
230
1.0
 73
     3
  0
TEXT
  8
11
  6
CONTINUOUS
 62
     7
  5
4B3
 10
910079.667
 20
7260840.604
 30
0.0
 40
8.0
  1
55'
 50
358.1488
  7
ROMANS
 72
     4
 11
910089.125344
 21
7260844.300388
 31
0.0
210
0.0
220
0.0
230
1.0
  0
TEXT
  8
11
  6
CONTINUOUS
 62
     7
  5
4B4
 10
910040.994
 20
7259670.017
 30
0.0
 40
8.0
  1
55'
 50
358.1488
  7
ROMANS
 72
     4
 11
910050.452344
 21
7259673.713388
 31
0.0
210
0.0
220
0.0
230
1.0
  0
TEXT
  8
11
  6
CONTINUOUS
 62
     7
  5
4B5
 10
910011.309
 20
7258726.634
 30
0.0
 40
8.0
  1
55'
 50
358.1488
  7
ROMANS
 72
     4
 11
910020.767344
 21
7258730.330388
 31
0.0
210
0.0
220
0.0
230
1.0
  0
TEXT
  8
11
  6
CONTINUOUS
 62
     7
  5
4B6
 10
912162.942
 20
7260875.079
 30
0.0
 40
8.0
  1
R
 50
9.648019
  7
ROMANS
 72
     1
 11
912164.085597
 21
7260883.388187
 31
0.0
210
0.0
220
0.0
230
1.0
 73
     3
  0
TEXT
  8
11
  6
CONTINUOUS
 62
     7
  5
4B7
 10
912171.35
 20
7260876.713
 30
0.0
 40
8.0
  1
=
 50
12.933511
  7
ROMANS
 72
     1
 11
912172.807882
 21
7260885.256036
 31
0.0
210
0.0
220
0.0
230
1.0
 73
     3
  0
TEXT
  8
11
  6
CONTINUOUS
 62
     7
  5
4B8
 10
912179.697
 20
7260878.647
 30
0.0
 40
8.0
  1
1
 50
16.219
  7
ROMANS
 72
     1
 11
912178.742472
 21
7260886.700929
 31
0.0
210
0.0
220
0.0
230
1.0
 73
     3
  0
TEXT
  8
11
  6
CONTINUOUS
 62
     7
  5
4B9
 10
912187.317
 20
7260880.864
 30
0.0
 40
8.0
  1
9
 50
16.219
  7
ROMANS
 72
     1
 11
912187.322673
 21
7260889.197238
 31
0.0
210
0.0
220
0.0
230
1.0
 73
     3
  0
TEXT
  8
11
  6
CONTINUOUS
 62
     7
  5
4BA
 10
912195.456
 20
7260883.53
 30
0.0
 40
8.0
  1
4
 50
19.504492
  7
ROMANS
 72
     1
 11
912194.984075
 21
7260891.849866
 31
0.0
210
0.0
220
0.0
230
1.0
 73
     3
  0
TEXT
  8
11
  6
CONTINUOUS
 62
     7
  5
4BB
 10
912203.496
 20
7260886.486
 30
0.0
 40
8.0
  1
.
 50
22.789983
  7
ROMANS
 72
     1
 11
912201.615957
 21
7260894.37353
 31
0.0
210
0.0
220
0.0
230
1.0
 73
     3
  0
TEXT
  8
11
  6
CONTINUOUS
 62
     7
  5
4BC
 10
912211.429
 20
7260889.73
 30
0.0
 40
8.0
  1
6
 50
26.075475
  7
ROMANS
 72
     1
 11
912210.176066
 21
7260898.023404
 31
0.0
210
0.0
220
0.0
230
1.0
 73
     3
  0
TEXT
  8
11
  6
CONTINUOUS
 62
     7
  5
4BD
 10
912218.557
 20
7260893.218
 30
0.0
 40
8.0
  1
5
 50
26.075475
  7
ROMANS
 72
     1
 11
912217.14598
 21
7260901.434043
 31
0.0
210
0.0
220
0.0
230
1.0
 73
     3
  0
TEXT
  8
11
  6
CONTINUOUS
 62
     7
  5
4BE
 10
912226.167
 20
7260897.15
 30
0.0
 40
8.0
  1
'
 50
29.360964
  7
ROMANS
 72
     1
 11
912223.406293
 21
7260904.775968
 31
0.0
210
0.0
220
0.0
230
1.0
 73
     3
  0
TEXT
  8
11
  6
CONTINUOUS
 62
     7
  5
4BF
 10
912180.398
 20
7260835.591
 30
0.0
 40
8.0
  1
R
 50
14.072831
  7
ROMANS
 72
     1
 11
912182.843338
 21
7260836.203994
 31
0.0
210
0.0
220
0.0
230
1.0
  0
TEXT
  8
11
  6
CONTINUOUS
 62
     7
  5
4C0
 10
912188.097
 20
7260837.521
 30
0.0
 40
8.0
  1
=
 50
14.072831
  7
ROMANS
 72
     1
 11
912191.329968
 21
7260838.331436
 31
0.0
210
0.0
220
0.0
230
1.0
  0
TEXT
  8
11
  6
CONTINUOUS
 62
     7
  5
4C1
 10
912195.626
 20
7260839.5
 30
0.0
 40
8.0
  1
2
 50
16.968108
  7
ROMANS
 72
     1
 11
912197.857438
 21
7260840.180861
 31
0.0
210
0.0
220
0.0
230
1.0
  0
TEXT
  8
11
  6
CONTINUOUS
 62
     7
  5
4C2
 10
912203.216
 20
7260841.817
 30
0.0
 40
8.0
  1
5
 50
16.968108
  7
ROMANS
 72
     1
 11
912205.457959
 21
7260842.501071
 31
0.0
210
0.0
220
0.0
230
1.0
  0
TEXT
  8
11
  6
CONTINUOUS
 62
     7
  5
4C3
 10
912210.583
 20
7260844.329
 30
0.0
 40
8.0
  1
0
 50
19.863386
  7
ROMANS
 72
     1
 11
912213.07628
 21
7260845.229753
 31
0.0
210
0.0
220
0.0
230
1.0
  0
TEXT
  8
11
  6
CONTINUOUS
 62
     7
  5
4C4
 10
912217.9
 20
7260846.985
 30
0.0
 40
8.0
  1
.
 50
22.758667
  7
ROMANS
 72
     1
 11
912219.119072
 21
7260847.496416
 31
0.0
210
0.0
220
0.0
230
1.0
  0
TEXT
  8
11
  6
CONTINUOUS
 62
     7
  5
4C5
 10
912225.22
 20
7260850.056
 30
0.0
 40
8.0
  1
6
 50
22.758667
  7
ROMANS
 72
     1
 11
912227.543799
 21
7260851.030863
 31
0.0
210
0.0
220
0.0
230
1.0
  0
TEXT
  8
11
  6
CONTINUOUS
 62
     7
  5
4C6
 10
912232.326
 20
7260853.227
 30
0.0
 40
8.0
  1
5
 50
25.653944
  7
ROMANS
 72
     1
 11
912234.438941
 21
7260854.241799
 31
0.0
210
0.0
220
0.0
230
1.0
  0
TEXT
  8
11
  6
CONTINUOUS
 62
     7
  5
4C7
 10
912239.374
 20
7260856.542
 30
0.0
 40
8.0
  1
'
 50
28.549222
  7
ROMANS
 72
     1
 11
912240.545795
 21
7260857.179537
 31
0.0
210
0.0
220
0.0
230
1.0
  0
TEXT
  8
11
  6
CONTINUOUS
 62
     7
  5
4C8
 10
912167.298
 20
7260890.146
 30
0.0
 40
8.0
  1
1
 50
12.933511
  7
ROMANS
 72
     1
 11
912168.597182
 21
7260890.444352
 31
0.0
210
0.0
220
0.0
230
1.0
  0
TEXT
  8
11
  6
CONTINUOUS
 62
     7
  5
4C9
 10
912174.879
 20
7260891.826
 30
0.0
 40
8.0
  1
4
 50
16.219
  7
ROMANS
 72
     1
 11
912177.119149
 21
7260892.477629
 31
0.0
210
0.0
220
0.0
230
1.0
  0
TEXT
  8
11
  6
CONTINUOUS
 62
     7
  5
4CA
 10
912182.501
 20
7260894.043
 30
0.0
 40
8.0
  1
4
 50
16.219
  7
ROMANS
 72
     1
 11
912184.741149
 21
7260894.694629
 31
0.0
210
0.0
220
0.0
230
1.0
  0
TEXT
  8
11
  6
CONTINUOUS
 62
     7
  5
4CB
 10
912189.894
 20
7260896.411
 30
0.0
 40
8.0
  1
.
 50
19.504492
  7
ROMANS
 72
     1
 11
912191.140137
 21
7260896.85239
 31
0.0
210
0.0
220
0.0
230
1.0
  0
TEXT
  8
11
  6
CONTINUOUS
 62
     7
  5
4CC
 10
912197.203
 20
7260899.028
 30
0.0
 40
8.0
  1
3
 50
22.789983
  7
ROMANS
 72
     1
 11
912199.353865
 21
7260899.931698
 31
0.0
210
0.0
220
0.0
230
1.0
  0
TEXT
  8
11
  6
CONTINUOUS
 62
     7
  5
4CD
 10
912204.519
 20
7260902.102
 30
0.0
 40
8.0
  1
2
 50
22.789983
  7
ROMANS
 72
     1
 11
912206.669865
 21
7260903.005698
 31
0.0
210
0.0
220
0.0
230
1.0
  0
TEXT
  8
11
  6
CONTINUOUS
 62
     7
  5
4CE
 10
912211.557
 20
7260905.378
 30
0.0
 40
8.0
  1
'
 50
26.075475
  7
ROMANS
 72
     1
 11
912212.754322
 21
7260905.963926
 31
0.0
210
0.0
220
0.0
230
1.0
  0
TEXT
  8
11
  6
CONTINUOUS
 62
     7
  5
4CF
 10
912188.508
 20
7260823.19
 30
0.0
 40
8.0
  1
1
 50
14.072831
  7
ROMANS
 72
     1
 11
912187.856723
 21
7260831.274268
 31
0.0
210
0.0
220
0.0
230
1.0
 73
     3
  0
TEXT
  8
11
  6
CONTINUOUS
 62
     7
  5
4D0
 10
912196.759
 20
7260825.21
 30
0.0
 40
8.0
  1
8
 50
16.968108
  7
ROMANS
 72
     1
 11
912196.655723
 21
7260833.5426
 31
0.0
210
0.0
220
0.0
230
1.0
 73
     3
  0
TEXT
  8
11
  6
CONTINUOUS
 62
     7
  5
4D1
 10
912204.35
 20
7260827.526
 30
0.0
 40
8.0
  1
2
 50
16.968108
  7
ROMANS
 72
     1
 11
912204.246723
 21
7260835.8586
 31
0.0
210
0.0
220
0.0
230
1.0
 73
     3
  0
TEXT
  8
11
  6
CONTINUOUS
 62
     7
  5
4D2
 10
912212.438
 20
7260830.112
 30
0.0
 40
8.0
  1
.
 50
19.863386
  7
ROMANS
 72
     1
 11
912210.963119
 21
7260838.085231
 31
0.0
210
0.0
220
0.0
230
1.0
 73
     3
  0
TEXT
  8
11
  6
CONTINUOUS
 62
     7
  5
4D3
 10
912219.903
 20
7260832.809
 30
0.0
 40
8.0
  1
4
 50
19.863386
  7
ROMANS
 72
     1
 11
912219.37897
 21
7260841.125747
 31
0.0
210
0.0
220
0.0
230
1.0
 73
     3
  0
TEXT
  8
11
  6
CONTINUOUS
 62
     7
  5
4D4
 10
912227.79
 20
7260835.953
 30
0.0
 40
8.0
  1
8
 50
22.758667
  7
ROMANS
 72
     1
 11
912226.846555
 21
7260844.232662
 31
0.0
210
0.0
220
0.0
230
1.0
 73
     3
  0
TEXT
  8
11
  6
CONTINUOUS
 62
     7
  5
4D5
 10
912235.606
 20
7260839.271
 30
0.0
 40
8.0
  1
'
 50
25.653944
  7
ROMANS
 72
     1
 11
912233.345024
 21
7260847.059937
 31
0.0
210
0.0
220
0.0
230
1.0
 73
     3
  0
TEXT
  8
11
  6
CONTINUOUS
 62
     7
  5
4D6
 10
910350.637
 20
7260944.062
 30
0.0
 40
8.0
  1
160'
 50
358.1488
  7
ROMANS
 72
     4
 11
910364.093257
 21
7260947.629172
 31
0.0
210
0.0
220
0.0
230
1.0
  0
TEXT
  8
11
  6
CONTINUOUS
 62
     7
  5
4D7
 10
910505.632
 20
7260866.572
 30
0.0
 40
8.0
  1
160'
 50
358.1488
  7
ROMANS
 72
     4
 11
910519.088257
 21
7260870.139172
 31
0.0
210
0.0
220
0.0
230
1.0
  0
TEXT
  8
11
  6
CONTINUOUS
 62
     7
  5
4D8
 10
910670.346
 20
7260862.082
 30
0.0
 40
8.0
  1
160'
 50
358.1488
  7
ROMANS
 72
     4
 11
910683.802257
 21
7260865.649172
 31
0.0
210
0.0
220
0.0
230
1.0
  0
TEXT
  8
11
  6
CONTINUOUS
 62
     7
  5
4D9
 10
910826.744
 20
7260857.86
 30
0.0
 40
8.0
  1
160'
 50
358.1488
  7
ROMANS
 72
     4
 11
910840.200257
 21
7260861.427172
 31
0.0
210
0.0
220
0.0
230
1.0
  0
TEXT
  8
11
  6
CONTINUOUS
 62
     7
  5
4DA
 10
910985.485
 20
7260851.796
 30
0.0
 40
8.0
  1
145'
 50
358.1488
  7
ROMANS
 72
     4
 11
910998.941257
 21
7260855.363172
 31
0.0
210
0.0
220
0.0
230
1.0
  0
TEXT
  8
11
  6
CONTINUOUS
 62
     7
  5
4DB
 10
911222.563
 20
7260844.967
 30
0.0
 40
8.0
  1
145'
 50
358.1488
  7
ROMANS
 72
     4
 11
911236.019257
 21
7260848.534172
 31
0.0
210
0.0
220
0.0
230
1.0
  0
TEXT
  8
11
  6
CONTINUOUS
 62
     7
  5
4DC
 10
912308.712
 20
7260523.813
 30
0.0
 40
8.0
  1
130.58'
 50
358.1488
  7
ROMANS
 72
     1
 11
912334.032778
 21
7260522.994613
 31
0.0
210
0.0
220
0.0
230
1.0
  0
TEXT
  8
11
  6
CONTINUOUS
 62
     7
  5
4DD
 10
913231.044
 20
7261092.664
 30
0.0
 40
8.0
  1
52.11'
 50
88.1488
  7
ROMANS
 72
     1
 11
913231.733172
 21
7261113.986866
 31
0.0
210
0.0
220
0.0
230
1.0
  0
TEXT
  8
11
  6
CONTINUOUS
 62
     7
  5
4DE
 10
913264.736
 20
7261084.076
 30
0.0
 40
8.0
  1
62.28'
 50
88.1488
  7
ROMANS
 72
     1
 11
913257.429347
 21
7261105.657297
 31
0.0
210
0.0
220
0.0
230
1.0
 73
     3
  0
INSERT
  8
11
  6
CONTINUOUS
 62
     7
  5
4E4
  2
*D35
 10
912168.817
 20
7259979.075
 30
0.0
 70
     0
 71
     0
  0
INSERT
  8
11
  6
CONTINUOUS
 62
     7
  5
4EA
  2
*D36
 10
914480.405
 20
7261122.565
 30
0.0
 70
     0
 71
     0
  0
INSERT
  8
11
  6
CONTINUOUS
 62
     7
  5
4F0
  2
*D37
 10
914476.252
 20
7261127.712
 30
0.0
 70
     0
 71
     0
  0
LINE
  8
21
  6
DASHDOT
 62
     7
  5
4F2
 10
910096.541
 20
7260234.124
 30
0.0
 11
910211.662
 21
7260230.403
 31
0.0
  0
LINE
  8
21
  6
DASHDOT
 62
     7
  5
4F3
 10
910097.187
 20
7260254.113
 30
0.0
 11
910129.433
 21
7260253.07
 31
0.0
  0
LINE
  8
21
  6
DASHDOT
 62
     7
  5
4F4
 10
910183.193
 20
7260251.332
 30
0.0
 11
910212.308
 21
7260250.393
 31
0.0
  0
LINE
  8
21
  6
DASHDOT
 62
     7
  5
4F5
 10
911449.789
 20
7260528.562
 30
0.0
 11
911440.098
 21
7260228.719
 31
0.0
  0
LINE
  8
21
  6
DASHDOT
 62
     7
  5
4F6
 10
910826.716
 20
7259064.643
 30
0.0
 11
910660.047
 21
7259309.26
 31
0.0
  0
LINE
  8
21
  6
DASHDOT
 62
     7
  5
4F7
 10
911590.344
 20
7259584.932
 30
0.0
 11
911423.676
 21
7259829.551
 31
0.0
  0
LINE
  8
21
  6
DASHDOT
 62
     7
  5
4F8
 10
911704.388
 20
7259662.637
 30
0.0
 11
911537.719
 21
7259907.254
 31
0.0
  0
LINE
  8
21
  6
DASHDOT
 62
     7
  5
4F9
 10
911514.982
 20
7259134.273
 30
0.0
 11
911362.955
 21
7259357.404
 31
0.0
  0
LINE
  8
21
  6
DASHDOT
 62
     7
  5
4FA
 10
912291.806
 20
7259663.558
 30
0.0
 11
912139.777
 21
7259886.688
 31
0.0
  0
LINE
  8
21
  6
DASHDOT
 62
     7
  5
4FB
 10
912536.57
 20
7260229.641
 30
0.0
 11
912369.903
 21
7260474.259
 31
0.0
  0
LINE
  8
21
  6
DASHDOT
 62
     7
  5
4FC
 10
913781.947
 20
7261120.137
 30
0.0
 11
914400.283
 21
7261100.152
 31
0.0
  0
LINE
  8
21
  6
DASHDOT
 62
     7
  5
4FD
 10
912690.15
 20
7260716.608
 30
0.0
 11
912704.352
 21
7261155.99
 31
0.0
  0
LINE
  8
21
  6
DASHDOT
 62
     7
  5
4FE
 10
912613.864
 20
7260209.7
 30
0.0
 11
912603.949
 21
7259902.911
 31
0.0
  0
LINE
  8
21
  6
DASHDOT
 62
     7
  5
4FF
 10
912090.101
 20
7260527.877
 30
0.0
 11
912099.793
 21
7260827.721
 31
0.0
  0
TEXT
  8
22
  6
CONTINUOUS
 62
     3
  5
502
 10
910434.246
 20
7260780.609
 30
0.0
 40
6.0
  1
2'USE-LPL
 50
88.1488
  7
txt
 72
     4
 11
910431.990007
 21
7260803.676917
 31
0.0
210
0.0
220
0.0
230
1.0
  0
TEXT
  8
22
  6
CONTINUOUS
 62
     3
  5
503
 10
911608.965
 20
7260731.539
 30
0.0
 40
8.0
  1
2'USE-LPL
 50
88.1488
  7
ROMANS
 72
     4
 11
911606.076178
 21
7260765.983297
 31
0.0
210
0.0
220
0.0
230
1.0
  0
TEXT
  8
22
  6
CONTINUOUS
 62
     3
  5
504
 10
911457.123
 20
7260349.67
 30
0.0
 40
8.0
  1
2'USE-LPL
 50
88.1488
  7
ROMANS
 72
     4
 11
911454.234178
 21
7260384.114297
 31
0.0
210
0.0
220
0.0
230
1.0
  0
TEXT
  8
22
  6
CONTINUOUS
 62
     3
  5
505
 10
910391.26
 20
7259429.167
 30
0.0
 40
8.0
  1
2'USE-LPL
 50
88.1488
  7
ROMANS
 72
     4
 11
910388.371178
 21
7259463.611297
 31
0.0
210
0.0
220
0.0
230
1.0
  0
LINE
  8
21
  6
DASHDOT
 62
     7
  5
506
 10
910397.563
 20
7259530.584
 30
0.0
 11
910393.816
 21
7259414.643
 31
0.0
  0
LINE
  8
21
  6
DASHDOT
 62
     7
  5
507
 10
910392.558
 20
7259375.735
 30
0.0
 11
910387.872
 21
7259230.74
 31
0.0
  0
LINE
  8
21
  6
DASHDOT
 62
     7
  5
508
 10
911616.046
 20
7260843.355
 30
0.0
 11
911611.79
 21
7260711.732
 31
0.0
  0
LINE
  8
21
  6
DASHDOT
 62
     7
  5
509
 10
911610.65
 20
7260676.415
 30
0.0
 11
911606.355
 21
7260543.512
 31
0.0
  0
LINE
  8
21
  6
DASHDOT
 62
     7
  5
50A
 10
910574.773
 20
7258644.925
 30
0.0
 11
910776.215
 21
7258782.176
 31
0.0
  0
LINE
  8
21
  6
DASHDOT
 62
     7
  5
50B
 10
910821.582
 20
7258813.086
 30
0.0
 11
910924.216
 21
7258883.016
 31
0.0
  0
LINE
  8
21
  6
DASHDOT
 62
     7
  5
50C
 10
910936.651
 20
7258891.487
 30
0.0
 11
911056.955
 21
7258973.454
 31
0.0
  0
LINE
  8
21
  6
DASHDOT
 62
     7
  5
50D
 10
911068.696
 20
7258981.456
 30
0.0
 11
911180.885
 21
7259057.895
 31
0.0
  0
LINE
  8
21
  6
DASHDOT
 62
     7
  5
50E
 10
911194.127
 20
7259066.916
 30
0.0
 11
911330.927
 21
7259160.125
 31
0.0
  0
LINE
  8
21
  6
DASHDOT
 62
     7
  5
50F
 10
911341.632
 20
7259167.418
 30
0.0
 11
911456.079
 21
7259245.394
 31
0.0
  0
LINE
  8
21
  6
DASHDOT
 62
     7
  5
510
 10
911469.722
 20
7259254.69
 30
0.0
 11
911588.108
 21
7259335.351
 31
0.0
  0
LINE
  8
21
  6
DASHDOT
 62
     7
  5
511
 10
911601.826
 20
7259344.697
 30
0.0
 11
911712.348
 21
7259420.0
 31
0.0
  0
LINE
  8
21
  6
DASHDOT
 62
     7
  5
512
 10
911725.229
 20
7259428.777
 30
0.0
 11
911842.866
 21
7259508.928
 31
0.0
  0
LINE
  8
21
  6
DASHDOT
 62
     7
  5
513
 10
911858.992
 20
7259519.916
 30
0.0
 11
911966.911
 21
7259593.445
 31
0.0
  0
LINE
  8
21
  6
DASHDOT
 62
     7
  5
514
 10
911980.703
 20
7259602.843
 30
0.0
 11
912100.04
 21
7259684.152
 31
0.0
  0
LINE
  8
21
  6
DASHDOT
 62
     7
  5
515
 10
912113.279
 20
7259693.172
 30
0.0
 11
912233.573
 21
7259775.134
 31
0.0
  0
LINE
  8
21
  6
DASHDOT
 62
     7
  5
516
 10
912227.185
 20
7259793.92
 30
0.0
 11
912156.305
 21
7259897.949
 31
0.0
  0
LINE
  8
21
  6
DASHDOT
 62
     7
  5
517
 10
912308.335
 20
7259674.819
 30
0.0
 11
912246.017
 21
7259766.281
 31
0.0
  0
LINE
  8
21
  6
DASHDOT
 62
     7
  5
518
 10
912248.768
 20
7259785.486
 30
0.0
 11
912364.33
 21
7259864.224
 31
0.0
  0
LINE
  8
21
  6
DASHDOT
 62
     7
  5
519
 10
912377.72
 20
7259873.346
 30
0.0
 11
912481.271
 21
7259943.9
 31
0.0
  0
LINE
  8
21
  6
DASHDOT
 62
     7
  5
51A
 10
912508.951
 20
7259962.76
 30
0.0
 11
912851.018
 21
7260195.824
 31
0.0
  0
LINE
  8
21
  6
DASHDOT
 62
     7
  5
51B
 10
912878.549
 20
7260214.583
 30
0.0
 11
912971.91
 21
7260278.194
 31
0.0
  0
LINE
  8
21
  6
DASHDOT
 62
     7
  5
51C
 10
912985.353
 20
7260287.353
 30
0.0
 11
913096.536
 21
7260363.108
 31
0.0
  0
LINE
  8
21
  6
DASHDOT
 62
     7
  5
51D
 10
913111.03
 20
7260372.983
 30
0.0
 11
913219.12
 21
7260446.629
 31
0.0
  0
LINE
  8
21
  6
DASHDOT
 62
     7
  5
51E
 10
913234.568
 20
7260457.154
 30
0.0
 11
913342.203
 21
7260530.49
 31
0.0
  0
LINE
  8
21
  6
DASHDOT
 62
     7
  5
51F
 10
913358.204
 20
7260541.392
 30
0.0
 11
913466.133
 21
7260614.929
 31
0.0
  0
LINE
  8
21
  6
DASHDOT
 62
     7
  5
520
 10
913481.73
 20
7260625.556
 30
0.0
 11
913590.057
 21
7260699.363
 31
0.0
  0
LINE
  8
21
  6
DASHDOT
 62
     7
  5
521
 10
913604.327
 20
7260709.086
 30
0.0
 11
913719.897
 21
7260787.83
 31
0.0
  0
LINE
  8
21
  6
DASHDOT
 62
     7
  5
522
 10
913745.765
 20
7260805.454
 30
0.0
 11
913940.142
 21
7260937.891
 31
0.0
  0
LINE
  8
21
  6
DASHDOT
 62
     7
  5
523
 10
913976.894
 20
7260962.932
 30
0.0
 11
914230.403
 21
7261135.659
 31
0.0
  0
LINE
  8
21
  6
DASHDOT
 62
     7
  5
524
 10
913205.939
 20
7260912.907
 30
0.0
 11
913144.992
 21
7261002.358
 31
0.0
  0
LINE
  8
21
  6
DASHDOT
 62
     7
  5
525
 10
913311.66
 20
7260757.741
 30
0.0
 11
913257.909
 21
7260836.632
 31
0.0
  0
LINE
  8
21
  6
DASHDOT
 62
     7
  5
526
 10
912815.547
 20
7260633.413
 30
0.0
 11
912748.315
 21
7260732.086
 31
0.0
  0
LINE
  8
21
  6
DASHDOT
 62
     7
  5
527
 10
912914.983
 20
7260487.469
 30
0.0
 11
912868.748
 21
7260555.331
 31
0.0
  0
LINE
  8
21
  6
DASHDOT
 62
     7
  5
528
 10
912628.1
 20
7260650.172
 30
0.0
 11
912616.821
 21
7260301.177
 31
0.0
  0
LINE
  8
21
  6
DASHDOT
 62
     7
  5
529
 10
912616.353
 20
7260286.71
 30
0.0
 11
912616.264
 21
7260283.939
 31
0.0
  0
LINE
  8
21
  6
DASHDOT
 62
     7
  5
52A
 10
911449.155
 20
7259266.409
 30
0.0
 11
911379.482
 21
7259368.665
 31
0.0
  0
LINE
  8
21
  6
DASHDOT
 62
     7
  5
52B
 10
911531.511
 20
7259145.535
 30
0.0
 11
911470.872
 21
7259234.534
 31
0.0
  0
TEXT
  8
22
  6
CONTINUOUS
 62
     3
  5
52C
 10
910777.612
 20
7259149.508
 30
0.0
 40
8.0
  1
2'USE-LPL
 50
304.268244
  7
ROMANS
 72
     4
 11
910800.249459
 21
7259123.387121
 31
0.0
210
0.0
220
0.0
230
1.0
  0
TEXT
  8
22
  6
CONTINUOUS
 62
     3
  5
52D
 10
911643.66
 20
7259728.99
 30
0.0
 40
8.0
  1
2'USE-LPL
 50
304.268244
  7
ROMANS
 72
     4
 11
911666.297459
 21
7259702.869121
 31
0.0
210
0.0
220
0.0
230
1.0
  0
TEXT
  8
22
  6
CONTINUOUS
 62
     3
  5
52E
 10
911456.206
 20
7259757.115
 30
0.0
 40
8.0
  1
20' DRAINAGE EASEMENT
 50
304.268244
  7
ROMANS
 72
     4
 11
911506.05823
 21
7259691.051222
 31
0.0
210
0.0
220
0.0
230
1.0
  0
TEXT
  8
22
  6
CONTINUOUS
 62
     3
  5
52F
 10
911363.727
 20
7259331.063
 30
0.0
 40
8.0
  1
20' DRAINAGE EASEMENT
 50
304.268244
  7
ROMANS
 72
     4
 11
911413.57923
 21
7259264.999222
 31
0.0
210
0.0
220
0.0
230
1.0
  0
INSERT
  8
22
  6
CONTINUOUS
 62
     3
  5
539
  2
*D38
 10
911373.887
 20
7259358.941
 30
0.0
 70
     0
 71
     0
  0
INSERT
  8
22
  6
CONTINUOUS
 62
     3
  5
543
  2
*D39
 10
911482.324
 20
7259199.414
 30
0.0
 70
     0
 71
     0
  0
TEXT
  8
22
  6
CONTINUOUS
 62
     3
  5
544
 10
912138.143
 20
7259865.599
 30
0.0
 40
8.0
  1
20' DRAINAGE EASEMENT
 50
304.268244
  7
ROMANS
 72
     4
 11
912187.99523
 21
7259799.535222
 31
0.0
210
0.0
220
0.0
230
1.0
  0
INSERT
  8
22
  6
CONTINUOUS
 62
     3
  5
54E
  2
*D40
 10
912149.355
 20
7259889.672
 30
0.0
 70
     0
 71
     0
  0
INSERT
  8
22
  6
CONTINUOUS
 62
     3
  5
558
  2
*D41
 10
912254.62
 20
7259736.118
 30
0.0
 70
     0
 71
     0
  0
TEXT
  8
22
  6
CONTINUOUS
 62
     3
  5
559
 10
912416.696
 20
7260382.689
 30
0.0
 40
6.0
  1
20' DRAINAGE EASEMENT
 50
304.268244
  7
txt
 72
     4
 11
912451.082049
 21
7260337.548827
 31
0.0
210
0.0
220
0.0
230
1.0
  0
TEXT
  8
22
  6
CONTINUOUS
 62
     3
  5
55A
 10
912760.265
 20
7260694.828
 30
0.0
 40
6.0
  1
2'USE-LPL
 50
304.268244
  7
txt
 72
     4
 11
912775.685226
 21
7260677.523812
 31
0.0
210
0.0
220
0.0
230
1.0
  0
TEXT
  8
22
  6
CONTINUOUS
 62
     3
  5
55B
 10
913157.603
 20
7260964.341
 30
0.0
 40
6.0
  1
2'USE-LPL
 50
304.268244
  7
txt
 72
     4
 11
913173.023226
 21
7260947.036812
 31
0.0
210
0.0
220
0.0
230
1.0
  0
TEXT
  8
22
  6
CONTINUOUS
 62
     3
  5
55C
 10
912104.665
 20
7260654.305
 30
0.0
 40
6.0
  1
2'USE-LPL
 50
88.1488
  7
txt
 72
     4
 11
912102.409007
 21
7260677.372917
 31
0.0
210
0.0
220
0.0
230
1.0
  0
TEXT
  8
22
  6
CONTINUOUS
 62
     3
  5
55D
 10
912642.232
 20
7259982.399
 30
0.0
 40
8.0
  1
60'
 50
88.1488
  7
ROMANS
 72
     4
 11
912638.535612
 21
7259991.857344
 31
0.0
210
0.0
220
0.0
230
1.0
  0
TEXT
  8
22
  6
CONTINUOUS
 62
     3
  5
55E
 10
912647.33
 20
7260140.136
 30
0.0
 40
8.0
  1
OVERHEAD
 50
88.1488
  7
ROMANS
 72
     4
 11
912644.318843
 21
7260170.795273
 31
0.0
210
0.0
220
0.0
230
1.0
  0
INSERT
  8
22
  6
CONTINUOUS
 62
     3
  5
568
  2
*D42
 10
912604.636
 20
7259920.97
 30
0.0
 70
     0
 71
     0
  0
TEXT
  8
22
  6
CONTINUOUS
 62
     3
  5
569
 10
913911.472
 20
7261121.213
 30
0.0
 40
6.0
  1
30' DRAINAGE AND UTILITY EASEMENT
 50
358.1488
  7
txt
 72
     4
 11
914002.201585
 21
7261121.282115
 31
0.0
210
0.0
220
0.0
230
1.0
  0
TEXT
  8
19
  6
CONTINUOUS
 62
     1
  5
56A
 10
910036.06
 20
7258814.289
 30
0.0
 40
24.0
  1
UPLAND AVE
 50
88.1488
  7
ROMANC
 72
     4
 11
910028.424707
 21
7258949.526231
 31
0.0
210
0.0
220
0.0
230
1.0
  0
TEXT
  8
19
  6
CONTINUOUS
 62
     1
  5
56B
 10
910537.737
 20
7258618.804
 30
0.0
 40
24.0
  1
66TH ST
 50
358.1488
  7
ROMANC
 72
     4
 11
910625.570984
 21
7258627.971403
 31
0.0
210
0.0
220
0.0
230
1.0
  0
TEXT
  8
19
  6
CONTINUOUS
 62
     1
  5
56C
 10
910103.437
 20
7260983.18
 30
0.0
 40
24.0
  1
UPLAND AVE
 50
88.1488
  7
ROMANC
 72
     4
 11
910095.801707
 21
7261118.417231
 31
0.0
210
0.0
220
0.0
230
1.0
  0
TEXT
  8
19
  6
CONTINUOUS
 62
     1
  5
56D
 10
912336.895
 20
7260951.784
 30
0.0
 40
24.0
  1
59TH ST
 50
41.888214
  7
ROMANC
 72
     4
 11
912394.016171
 21
7261019.133996
 31
0.0
210
0.0
220
0.0
230
1.0
  0
TEXT
  8
19
  6
CONTINUOUS
 62
     1
  5
56E
 10
910252.435
 20
7260905.654
 30
0.0
 40
24.0
  1
59TH ST
 50
358.1488
  7
ROMANC
 72
     4
 11
910340.268984
 21
7260914.821403
 31
0.0
210
0.0
220
0.0
230
1.0
  0
TEXT
  8
19
  6
CONTINUOUS
 62
     1
  5
56F
 10
911519.823
 20
7260862.21
 30
0.0
 40
24.0
  1
59TH ST
 50
358.1488
  7
ROMANC
 72
     4
 11
911607.656984
 21
7260871.377403
 31
0.0
210
0.0
220
0.0
230
1.0
  0
TEXT
  8
19
  6
CONTINUOUS
 62
     1
  5
570
 10
910443.493
 20
7260219.389
 30
0.0
 40
24.0
  1
61ST ST
 50
358.1488
  7
ROMANC
 72
     4
 11
910522.165768
 21
7260228.852501
 31
0.0
210
0.0
220
0.0
230
1.0
  0
TEXT
  8
19
  6
CONTINUOUS
 62
     1
  5
571
 10
911520.137
 20
7260185.802
 30
0.0
 40
24.0
  1
61ST ST
 50
358.1488
  7
ROMANC
 72
     4
 11
911598.809768
 21
7260195.265501
 31
0.0
210
0.0
220
0.0
230
1.0
  0
TEXT
  8
19
  6
CONTINUOUS
 62
     1
  5
572
 10
913317.321
 20
7260713.314
 30
0.0
 40
24.0
  1
DR
 50
34.268244
  7
ROMANC
 72
     4
 11
913330.241017
 21
7260736.637578
 31
0.0
210
0.0
220
0.0
230
1.0
  0
LINE
  8
6
  6
CONTINUOUS
 62
     7
  5
573
 10
911615.745
 20
7258578.129
 30
0.0
 11
911619.114
 21
7258678.073
 31
0.0
  0
LINE
  8
6
  6
CONTINUOUS
 62
     7
  5
574
 10
911619.114
 20
7258678.073
 30
0.0
 11
911583.935
 21
7258729.126
 31
0.0
  0
POLYLINE
  8
21
  6
DASHDOT
 62
     7
  5
575
 66
     1
 10
0.0
 20
0.0
 30
0.0
  0
VERTEX
  8
21
  6
DASHDOT
 62
     7
  5
576
 10
912749.969
 20
7260733.213
 30
0.0
  0
VERTEX
  8
21
  6
DASHDOT
 62
     7
  5
577
 10
912758.233
 20
7260738.844
 30
0.0
  0
VERTEX
  8
21
  6
DASHDOT
 62
     7
  5
578
 10
912924.901
 20
7260494.226
 30
0.0
  0
VERTEX
  8
21
  6
DASHDOT
 62
     7
  5
579
 10
912916.637
 20
7260488.595
 30
0.0
  0
VERTEX
  8
21
  6
DASHDOT
 62
     7
  5
57A
 10
912749.969
 20
7260733.213
 30
0.0
  0
SEQEND
  8
21
  6
DASHDOT
 62
     7
  5
57B
  0
TEXT
  8
22
  6
CONTINUOUS
 62
     3
  5
57C
 10
912776.614
 20
7260714.43
 30
0.0
 40
6.0
  1
10'UWE
 50
304.1488
  7
txt
 72
     4
 11
912787.437198
 21
7260703.817811
 31
0.0
210
0.0
220
0.0
230
1.0
  0
TEXT
  8
22
  6
CONTINUOUS
 62
     3
  5
57D
 10
911506.996
 20
7259640.252
 30
0.0
 40
6.0
  1
10'UWE
 50
304.1488
  7
ROMANS
 72
     4
 11
911518.951429
 21
7259627.970577
 31
0.0
210
0.0
220
0.0
230
1.0
  0
POLYLINE
  8
21
  6
DASHDOT
 62
     7
  5
57E
 66
     1
 10
0.0
 20
0.0
 30
0.0
  0
VERTEX
  8
21
  6
DASHDOT
 62
     7
  5
57F
 10
911407.148
 20
7259818.29
 30
0.0
  0
VERTEX
  8
21
  6
DASHDOT
 62
     7
  5
580
 10
911573.816
 20
7259573.673
 30
0.0
  0
VERTEX
  8
21
  6
DASHDOT
 62
     7
  5
581
 10
911565.551
 20
7259568.041
 30
0.0
  0
VERTEX
  8
21
  6
DASHDOT
 62
     7
  5
582
 10
911398.883
 20
7259812.659
 30
0.0
  0
VERTEX
  8
21
  6
DASHDOT
 62
     7
  5
583
 10
911407.148
 20
7259818.29
 30
0.0
  0
SEQEND
  8
21
  6
DASHDOT
 62
     7
  5
584
  0
TEXT
  8
11
  6
CONTINUOUS
 62
     7
  5
585
 10
914923.023
 20
7261664.532
 30
0.0
 40
8.0
  1
372.9'
 50
88.508022
  7
ROMANS
 72
     1
 11
914923.578473
 21
7261685.858767
 31
0.0
210
0.0
220
0.0
230
1.0
  0
TEXT
  8
11
  6
CONTINUOUS
 62
     7
  5
586
 10
915012.969
 20
7261703.379
 30
0.0
 40
8.0
  1
539.52   R=1323.24'
 50
77.815825
  7
ROMANS
 72
     1
 11
915028.446284
 21
7261775.060117
 31
0.0
210
0.0
220
0.0
230
1.0
  0
TEXT
  8
11
  6
CONTINUOUS
 62
     7
  5
587
 10
914930.072
 20
7261859.195
 30
0.0
 40
8.0
  1
155.46'    R=1223.24'
 50
84.998561
  7
ROMANS
 72
     1
 11
914929.193133
 21
7261940.915771
 31
0.0
210
0.0
220
0.0
230
1.0
 73
     3
  0
TEXT
  8
11
  6
CONTINUOUS
 62
     7
  5
588
 10
914993.011
 20
7263516.203
 30
0.0
 40
8.0
  1
3143.85'
 50
88.512436
  7
ROMANS
 72
     1
 11
914985.77518
 21
7263545.733794
 31
0.0
210
0.0
220
0.0
230
1.0
 73
     3
  0
TEXT
  8
11
  6
CONTINUOUS
 62
     7
  5
589
 10
915081.123
 20
7263515.99
 30
0.0
 40
8.0
  1
3144.05'
 50
88.512431
  7
ROMANS
 72
     1
 11
915081.884513
 21
7263545.314114
 31
0.0
210
0.0
220
0.0
230
1.0
  0
TEXT
  8
19
  6
CONTINUOUS
 62
     1
  5
58A
 10
910103.779
 20
7259555.548
 30
0.0
 40
24.0
  1
63RD ST
 50
358.1488
  7
ROMANC
 72
     4
 11
910189.346168
 21
7259564.788668
 31
0.0
210
0.0
220
0.0
230
1.0
  0
TEXT
  8
19
  6
CONTINUOUS
 62
     1
  5
58B
 10
910873.497
 20
7259047.776
 30
0.0
 40
24.0
  1
SANTA FE DR
 50
34.268244
  7
ROMANC
 72
     4
 11
910986.204431
 21
7259139.088925
 31
0.0
210
0.0
220
0.0
230
1.0
  0
POLYLINE
  8
21
  6
DASHDOT
 62
     7
  5
58C
 66
     1
 10
0.0
 20
0.0
 30
0.0
  0
VERTEX
  8
21
  6
DASHDOT
 62
     7
  5
58D
 10
914988.21
 20
7263687.946
 30
0.0
  0
VERTEX
  8
21
  6
DASHDOT
 62
     7
  5
58E
 10
914981.347
 20
7263423.669
 30
0.0
  0
VERTEX
  8
21
  6
DASHDOT
 62
     7
  5
58F
 10
914971.59
 20
7263423.923
 30
0.0
  0
VERTEX
  8
21
  6
DASHDOT
 62
     7
  5
590
 10
914971.59
 20
7263423.924
 30
0.0
  0
VERTEX
  8
21
  6
DASHDOT
 62
     7
  5
591
 10
914978.461
 20
7263687.778
 30
0.0
  0
SEQEND
  8
21
  6
DASHDOT
 62
     7
  5
592
  0
ARC
  8
6
  6
CONTINUOUS
 62
     7
  5
593
 10
913721.25923
 20
7262045.883706
 30
0.0
 40
1323.24
 50
334.986381
 51
358.512317
210
0.0
220
0.0
230
1.0
  0
LINE
  8
6
  6
CONTINUOUS
 62
     7
  5
594
 10
914920.39
 20
7261486.373
 30
0.0
 11
914920.382
 21
7261486.364
 31
0.0
  0
LINE
  8
6
  6
CONTINUOUS
 62
     7
  5
595
 10
914920.382
 20
7261486.364
 30
0.0
 11
914930.093
 21
7261859.138
 31
0.0
  0
LINE
  8
6
  6
CONTINUOUS
 62
     7
  5
596
 10
914930.093
 20
7261859.138
 30
0.0
 11
914943.996
 21
7262013.976
 31
0.0
  0
LINE
  8
6
  6
CONTINUOUS
 62
     7
  5
597
 10
914943.996
 20
7262013.976
 30
0.0
 11
914989.311
 21
7263758.974
 31
0.0
  0
LINE
  8
6
  6
CONTINUOUS
 62
     7
  5
598
 10
915089.352
 20
7263755.865
 30
0.0
 11
915044.053
 21
7262011.53
 31
0.0
  0
TEXT
  8
10
  6
CONTINUOUS
 62
   134
  5
599
 10
910994.553
 20
7258935.092
 30
0.0
 40
13.999
  1
65
 50
34.268244
  7
ROMANS
 11
910986.67061
 21
7258946.660921
 31
0.0
210
0.0
220
0.0
230
1.0
 73
     3
  0
TEXT
  8
10
  6
CONTINUOUS
 62
   134
  5
59A
 10
911124.011
 20
7259022.68
 30
0.0
 40
13.999
  1
64
 50
34.268244
  7
ROMANS
 11
911116.12861
 21
7259034.248921
 31
0.0
210
0.0
220
0.0
230
1.0
 73
     3
  0
TEXT
  8
10
  6
CONTINUOUS
 62
   134
  5
59B
 10
911251.576
 20
7259108.493
 30
0.0
 40
13.999
  1
63
 50
34.268244
  7
ROMANS
 11
911243.69361
 21
7259120.061921
 31
0.0
210
0.0
220
0.0
230
1.0
 73
     3
  0
TEXT
  8
10
  6
CONTINUOUS
 62
   134
  5
59C
 10
911375.594
 20
7259198.091
 30
0.0
 40
13.999
  1
62
 50
34.268244
  7
ROMANS
 11
911367.71161
 21
7259209.659921
 31
0.0
210
0.0
220
0.0
230
1.0
 73
     3
  0
TEXT
  8
10
  6
CONTINUOUS
 62
   134
  5
59D
 10
911514.276
 20
7259287.216
 30
0.0
 40
13.999
  1
61
 50
34.268244
  7
ROMANS
 11
911506.39361
 21
7259298.784921
 31
0.0
210
0.0
220
0.0
230
1.0
 73
     3
  0
TEXT
  8
10
  6
CONTINUOUS
 62
   134
  5
59E
 10
911638.293
 20
7259376.814
 30
0.0
 40
13.999
  1
60
 50
34.268244
  7
ROMANS
 11
911630.41061
 21
7259388.382921
 31
0.0
210
0.0
220
0.0
230
1.0
 73
     3
  0
TEXT
  8
10
  6
CONTINUOUS
 62
   134
  5
59F
 10
911767.811
 20
7259466.235
 30
0.0
 40
13.999
  1
59
 50
34.268244
  7
ROMANS
 11
911759.92861
 21
7259477.803921
 31
0.0
210
0.0
220
0.0
230
1.0
 73
     3
  0
TEXT
  8
10
  6
CONTINUOUS
 62
   134
  5
5A0
 10
911897.21
 20
7259551.989
 30
0.0
 40
13.999
  1
58
 50
34.268244
  7
ROMANS
 11
911889.32761
 21
7259563.557921
 31
0.0
210
0.0
220
0.0
230
1.0
 73
     3
  0
TEXT
  8
10
  6
CONTINUOUS
 62
   134
  5
5A1
 10
912024.775
 20
7259637.802
 30
0.0
 40
13.999
  1
57
 50
34.268244
  7
ROMANS
 11
912016.89261
 21
7259649.370921
 31
0.0
210
0.0
220
0.0
230
1.0
 73
     3
  0
ARC
  8
6
  6
CONTINUOUS
 62
     7
  5
5A2
 10
910823.373491
 20
7264991.807855
 30
0.0
 40
5623.833717
 50
307.508483
 51
313.863031
210
0.0
220
0.0
230
1.0
  0
ARC
  8
6
  6
CONTINUOUS
 62
     7
  5
5A3
 10
914338.936521
 20
7260411.639399
 30
0.0
 40
149.997464
 50
127.508028
 51
177.862147
210
0.0
220
0.0
230
1.0
  0
ARC
  8
6
  6
CONTINUOUS
 62
     7
  5
5A4
 10
914908.697743
 20
7256379.364168
 30
0.0
 40
3915.445324
 50
88.004311
 51
98.245983
210
0.0
220
0.0
230
1.0
  0
LINE
  8
6
  6
CONTINUOUS
 62
     7
  5
5A5
 10
915045.051
 20
7260292.434
 30
0.0
 11
915326.27
 21
7260282.636
 31
0.0
  0
LINE
  8
6
  6
CONTINUOUS
 62
     7
  5
5A6
 10
914189.043
 20
7260417.235
 30
0.0
 11
914186.417
 21
7260346.895
 31
0.0
  0
ARC
  8
6
  6
CONTINUOUS
 62
     7
  5
5A7
 10
914325.616925
 20
7260402.776377
 30
0.0
 40
149.997954
 50
201.872631
 51
278.246672
210
0.0
220
0.0
230
1.0
  0
TEXT
  8
22
  6
CONTINUOUS
 62
     3
  5
5A8
 10
915028.059
 20
7261593.882
 30
0.0
 40
6.0
  1
10' OPE
 50
88.512431
  7
txt
 72
     1
 11
915022.455304
 21
7261609.220642
 31
0.0
210
0.0
220
0.0
230
1.0
 73
     3
  0
TEXT
  8
13
  6
CONTINUOUS
 62
    14
  5
5AA
 10
915030.424
 20
7261651.822
 30
0.0
 40
8.0
  1
V7030 P255
 50
88.512431
  7
txt
 72
     1
 11
915023.438905
 21
7261691.00754
 31
0.0
210
0.0
220
0.0
230
1.0
 73
     3
  0
TEXT
  8
13
  6
CONTINUOUS
 62
    14
  5
5AB
 10
915042.03
 20
7263598.362
 30
0.0
 40
8.0
  1
V6299 P024
 50
88.512436
  7
ROMANS
 72
     1
 11
915035.02782
 21
7263636.889761
 31
0.0
210
0.0
220
0.0
230
1.0
 73
     3
  0
LINE
  8
6
  6
CONTINUOUS
 62
     7
  5
5AC
 10
915256.621
 20
7258506.038
 30
0.0
 11
912849.356
 21
7258577.216
 31
0.0
  0
POLYLINE
  8
1
  6
HIDDEN
 62
   253
  5
5AE
 66
     1
 10
0.0
 20
0.0
 30
0.0
 70
     1
  0
VERTEX
  8
1
  6
HIDDEN
 62
   253
  5
5AF
 10
910147.867
 20
7263912.206
 30
0.0
  0
VERTEX
  8
1
  6
HIDDEN
 62
   253
  5
5B0
 10
915448.32
 20
7263743.983
 30
0.0
  0
VERTEX
  8
1
  6
HIDDEN
 62
   253
  5
5B1
 10
915281.989
 20
7258475.322
 30
0.0
  0
VERTEX
  8
1
  6
HIDDEN
 62
   253
  5
5B2
 10
909978.354
 20
7258641.426
 30
0.0
  0
SEQEND
  8
1
  6
HIDDEN
 62
   253
  5
5B3
  0
POLYLINE
  8
21
  6
DASHDOT
 62
     7
  5
5B4
 66
     1
 10
0.0
 20
0.0
 30
0.0
  0
VERTEX
  8
21
  6
DASHDOT
 62
     7
  5
5B5
 10
915085.938
 20
7263755.971
 30
0.0
  0
VERTEX
  8
21
  6
DASHDOT
 62
     7
  5
5B6
 10
915027.402
 20
7261501.842
 30
0.0
  0
VERTEX
  8
21
  6
DASHDOT
 62
     7
  5
5B7
 10
915017.214
 20
7261494.787
 30
0.0
  0
VERTEX
  8
21
  6
DASHDOT
 62
     7
  5
5B8
 10
915030.621
 20
7262011.014
 30
0.0
  0
VERTEX
  8
21
  6
DASHDOT
 62
     7
  5
5B9
 10
915075.943
 20
7263756.282
 30
0.0
  0
SEQEND
  8
21
  6
DASHDOT
 62
     7
  5
5BA
  0
TEXT
  8
11
  6
CONTINUOUS
 62
     7
  5
5BB
 10
910232.689
 20
7260207.199
 30
0.0
 40
8.0
  1
R=50'
 50
45.0
  7
txt
 72
     4
 11
910241.79795
 21
7260221.964804
 31
0.0
210
0.0
220
0.0
230
1.0
  0
POLYLINE
  8
21
  6
DASHDOT
 62
     7
  5
5BC
 66
     1
 10
0.0
 20
0.0
 30
0.0
 70
     1
  0
VERTEX
  8
21
  6
DASHDOT
 62
     7
  5
5BD
 10
910440.658
 20
7260881.346
 30
0.0
  0
VERTEX
  8
21
  6
DASHDOT
 62
     7
  5
5BE
 10
910430.967
 20
7260581.502
 30
0.0
  0
VERTEX
  8
21
  6
DASHDOT
 62
     7
  5
5BF
 10
910432.966
 20
7260581.437
 30
0.0
  0
VERTEX
  8
21
  6
DASHDOT
 62
     7
  5
5C0
 10
910442.657
 20
7260881.281
 30
0.0
  0
SEQEND
  8
21
  6
DASHDOT
 62
     7
  5
5C1
  0
TEXT
  8
28
  6
CONTINUOUS
 62
    32
  5
5C3
 10
910921.35
 20
7258658.876
 30
0.0
 40
24.0
  1
PANHANDLE & SANTA FE
 50
34.18755
  7
ROMANC
 72
     1
 11
911142.062568
 21
7258808.802007
 31
0.0
210
0.0
220
0.0
230
1.0
  0
TEXT
  8
22
  6
CONTINUOUS
 62
     3
  5
5C4
 10
913418.282
 20
7260497.958
 30
0.0
 40
8.0
  1
125' DRAINAGE EASEMENT
 50
34.268244
  7
ROMANS
 72
     4
 11
913487.65142
 21
7260550.062503
 31
0.0
210
0.0
220
0.0
230
1.0
  0
TEXT
  8
22
  6
CONTINUOUS
 62
     3
  5
5C5
 10
912296.934
 20
7259781.75
 30
0.0
 40
8.0
  1
125' DRAINAGE EASEMENT
 50
34.268244
  7
ROMANS
 72
     4
 11
912366.30342
 21
7259833.854503
 31
0.0
210
0.0
220
0.0
230
1.0
  0
TEXT
  8
22
  6
CONTINUOUS
 62
     3
  5
5C6
 10
910646.411
 20
7258671.807
 30
0.0
 40
8.0
  1
125' DRAINAGE EASEMENT
 50
34.268244
  7
ROMANS
 72
     4
 11
910715.78042
 21
7258723.911503
 31
0.0
210
0.0
220
0.0
230
1.0
  0
TEXT
  8
13
  6
CONTINUOUS
 62
    14
  5
5C7
 10
911396.201
 20
7259797.602
 30
0.0
 40
8.0
  1
V6258 P23
 50
304.1488
  7
ROMANS
 72
     4
 11
911418.783956
 21
7259771.433985
 31
0.0
210
0.0
220
0.0
230
1.0
  0
TEXT
  8
28
  6
CONTINUOUS
 62
    32
  5
5C8
 10
914806.657
 20
7261298.093
 30
0.0
 40
24.0
  1
PANHANDLE & SANTA FE
 50
34.18755
  7
ROMANC
 72
     1
 11
915027.369568
 21
7261448.019007
 31
0.0
210
0.0
220
0.0
230
1.0
  0
TEXT
  8
13
  6
CONTINUOUS
 62
    14
  5
5C9
 10
912872.993
 20
7260575.231
 30
0.0
 40
8.0
  1
V6258 P26
 50
304.1488
  7
ROMANS
 72
     4
 11
912895.680927
 21
7260548.908227
 31
0.0
210
0.0
220
0.0
230
1.0
  0
TEXT
  8
11
  6
CONTINUOUS
 62
     7
  5
5CA
 10
912839.109
 20
7260609.487
 30
0.0
 40
8.0
  1
296'
 50
304.268164
  7
ROMANS
 72
     1
 11
912846.616372
 21
7260598.468458
 31
0.0
210
0.0
220
0.0
230
1.0
  0
TEXT
  8
22
  6
CONTINUOUS
 62
     3
  5
5CB
 10
912690.88
 20
7260955.857
 30
0.0
 40
8.0
  1
POWER LINE EASEMENT
 50
88.1488
  7
ROMANS
 72
     4
 11
912689.294092
 21
7261030.613247
 31
0.0
210
0.0
220
0.0
230
1.0
  0
POLYLINE
  8
21
  6
DASHDOT
 62
     7
  5
5CC
 66
     1
 10
0.0
 20
0.0
 30
0.0
 70
     1
  0
VERTEX
  8
21
  6
DASHDOT
 62
     7
  5
5CD
 10
915249.424
 20
7258506.29
 30
0.0
  0
VERTEX
  8
21
  6
DASHDOT
 62
     7
  5
5CE
 10
915296.197
 20
7260008.562
 30
0.0
  0
VERTEX
  8
21
  6
DASHDOT
 62
     7
  5
5CF
 10
915226.231
 20
7260010.74
 30
0.0
  0
VERTEX
  8
21
  6
DASHDOT
 62
     7
  5
5D0
 10
915179.458
 20
7258508.468
 30
0.0
  0
SEQEND
  8
21
  6
DASHDOT
 62
     7
  5
5D1
  0
POLYLINE
  8
21
  6
DASHDOT
 62
     7
  5
5D2
 66
     1
 10
0.0
 20
0.0
 30
0.0
 70
     1
  0
VERTEX
  8
21
  6
DASHDOT
 62
     7
  5
5D3
 10
915249.424
 20
7258506.29
 30
0.0
  0
VERTEX
  8
21
  6
DASHDOT
 62
     7
  5
5D4
 10
915296.196
 20
7260008.562
 30
0.0
  0
VERTEX
  8
21
  6
DASHDOT
 62
     7
  5
5D5
 10
915266.211
 20
7260009.496
 30
0.0
  0
VERTEX
  8
21
  6
DASHDOT
 62
     7
  5
5D6
 10
915219.438
 20
7258507.224
 30
0.0
  0
SEQEND
  8
21
  6
DASHDOT
 62
     7
  5
5D7
  0
TEXT
  8
22
  6
CONTINUOUS
 62
     3
  5
5D8
 10
915202.189
 20
7258981.457
 30
0.0
 40
6.0
  1
70 TEMPORARY WORKING ESMT
 50
88.216681
  7
txt
 72
     1
 11
915198.515495
 21
7259056.273555
 31
0.0
210
0.0
220
0.0
230
1.0
 73
     3
  0
TEXT
  8
22
  6
CONTINUOUS
 62
     3
  5
5D9
 10
915240.776
 20
7258935.505
 30
0.0
 40
6.0
  1
30' UUE
 50
88.216681
  7
txt
 72
     1
 11
915235.286096
 21
7258951.981825
 31
0.0
210
0.0
220
0.0
230
1.0
 73
     3
  0
TEXT
  8
13
  6
CONTINUOUS
 62
    14
  5
5DA
 10
915249.125
 20
7259139.367
 30
0.0
 40
8.0
  1
V7638 P159
 50
88.216681
  7
txt
 72
     1
 11
915242.289331
 21
7259176.887897
 31
0.0
210
0.0
220
0.0
230
1.0
 73
     3
  0
ENDSEC
  0
EOF
