  0
SECTION
  2
HEADER
  9
$ACADVER
  1
AC1009
  9
$INSBASE
 10
0.0
 20
0.0
 30
0.0
  9
$EXTMIN
 10
942772.835
 20
7294386.811
 30
0.0
  9
$EXTMAX
 10
948285.075
 20
7299867.037
 30
0.0
  9
$LIMMIN
 10
0.0
 20
0.0
  9
$LIMMAX
 10
12.0
 20
9.0
  9
$ORTHOMODE
 70
     0
  9
$REGENMODE
 70
     1
  9
$FILLMODE
 70
     1
  9
$QTEXTMODE
 70
     0
  9
$MIRRTEXT
 70
     1
  9
$DRAGMODE
 70
     2
  9
$LTSCALE
 40
1.0
  9
$OSMODE
 70
     0
  9
$ATTMODE
 70
     1
  9
$TEXTSIZE
 40
0.2
  9
$TRACEWID
 40
0.05
  9
$TEXTSTYLE
  7
STANDARD
  9
$CLAYER
  8
0
  9
$CELTYPE
  6
CONTINUOUS
  9
$CECOLOR
 62
   256
  9
$DIMSCALE
 40
1.0
  9
$DIMASZ
 40
0.18
  9
$DIMEXO
 40
0.0625
  9
$DIMDLI
 40
0.38
  9
$DIMRND
 40
0.0
  9
$DIMDLE
 40
0.0
  9
$DIMEXE
 40
0.18
  9
$DIMTP
 40
0.0
  9
$DIMTM
 40
0.0
  9
$DIMTXT
 40
0.18
  9
$DIMCEN
 40
0.09
  9
$DIMTSZ
 40
0.0
  9
$DIMTOL
 70
     0
  9
$DIMLIM
 70
     0
  9
$DIMTIH
 70
     1
  9
$DIMTOH
 70
     1
  9
$DIMSE1
 70
     0
  9
$DIMSE2
 70
     0
  9
$DIMTAD
 70
     0
  9
$DIMZIN
 70
     0
  9
$DIMBLK
  1

  9
$DIMASO
 70
     1
  9
$DIMSHO
 70
     1
  9
$DIMPOST
  1

  9
$DIMAPOST
  1

  9
$DIMALT
 70
     0
  9
$DIMALTD
 70
     2
  9
$DIMALTF
 40
25.4
  9
$DIMLFAC
 40
1.0
  9
$DIMTOFL
 70
     0
  9
$DIMTVP
 40
0.0
  9
$DIMTIX
 70
     0
  9
$DIMSOXD
 70
     0
  9
$DIMSAH
 70
     0
  9
$DIMBLK1
  1

  9
$DIMBLK2
  1

  9
$DIMSTYLE
  2
STANDARD
  9
$DIMCLRD
 70
     0
  9
$DIMCLRE
 70
     0
  9
$DIMCLRT
 70
     0
  9
$DIMTFAC
 40
1.0
  9
$DIMGAP
 40
0.09
  9
$LUNITS
 70
     2
  9
$LUPREC
 70
     4
  9
$AXISMODE
 70
     0
  9
$AXISUNIT
 10
0.0
 20
0.0
  9
$SKETCHINC
 40
0.1
  9
$FILLETRAD
 40
0.0
  9
$AUNITS
 70
     0
  9
$AUPREC
 70
     0
  9
$MENU
  1
acad
  9
$ELEVATION
 40
0.0
  9
$PELEVATION
 40
0.0
  9
$THICKNESS
 40
0.0
  9
$LIMCHECK
 70
     0
  9
$BLIPMODE
 70
     1
  9
$CHAMFERA
 40
0.0
  9
$CHAMFERB
 40
0.0
  9
$SKPOLY
 70
     0
  9
$TDCREATE
 40
2453013.901840278
  9
$TDUPDATE
 40
2453013.901840278
  9
$TDINDWG
 40
0.0000000000
  9
$TDUSRTIMER
 40
0.0000000000
  9
$USRTIMER
 70
     1
  9
$ANGBASE
 50
0.0
  9
$ANGDIR
 70
     0
  9
$PDMODE
 70
     0
  9
$PDSIZE
 40
0.0
  9
$PLINEWID
 40
0.0
  9
$COORDS
 70
     0
  9
$SPLFRAME
 70
     0
  9
$SPLINETYPE
 70
     6
  9
$SPLINESEGS
 70
    10
  9
$ATTDIA
 70
     0
  9
$ATTREQ
 70
     1
  9
$HANDLING
 70
     1
  9
$HANDSEED
  5
A3
  9
$SURFTAB1
 70
     6
  9
$SURFTAB2
 70
     6
  9
$SURFTYPE
 70
     6
  9
$SURFU
 70
     6
  9
$SURFV
 70
     6
  9
$UCSNAME
  2

  9
$UCSORG
 10
0.0
 20
0.0
 30
0.0
  9
$UCSXDIR
 10
1.0
 20
0.0
 30
0.0
  9
$UCSYDIR
 10
0.0
 20
1.0
 30
0.0
  9
$PUCSNAME
  2

  9
$PUCSORG
 10
0.0
 20
0.0
 30
0.0
  9
$PUCSXDIR
 10
1.0
 20
0.0
 30
0.0
  9
$PUCSYDIR
 10
0.0
 20
1.0
 30
0.0
  9
$USERI1
 70
     0
  9
$USERI2
 70
     0
  9
$USERI3
 70
     0
  9
$USERI4
 70
     0
  9
$USERI5
 70
     0
  9
$USERR1
 40
0.0
  9
$USERR2
 40
0.0
  9
$USERR3
 40
0.0
  9
$USERR4
 40
0.0
  9
$USERR5
 40
0.0
  9
$WORLDVIEW
 70
     1
  9
$SHADEDGE
 70
     3
  9
$SHADEDIF
 70
    70
  9
$TILEMODE
 70
     1
  9
$MAXACTVP
 70
    16
  9
$PINSBASE
 10
0.0
 20
0.0
 30
0.0
  9
$PLIMCHECK
 70
     0
  9
$PEXTMIN
 10
-1.000000E+20
 20
-1.000000E+20
 30
-1.000000E+20
  9
$PEXTMAX
 10
-1.000000E+20
 20
-1.000000E+20
 30
-1.000000E+20
  9
$PLIMMIN
 10
0.0
 20
0.0
  9
$PLIMMAX
 10
12.0
 20
9.0
  9
$UNITMODE
 70
     0
  9
$VISRETAIN
 70
     0
  9
$PLINEGEN
 70
     1
  9
$PSLTSCALE
 70
     0
  9
$TREEDEPTH
 70
  3020
  9
$DWGCODEPAGE
  3
ansi_1252
  0
ENDSEC
  0
SECTION
  2
TABLES
  0
TABLE
  2
VPORT
 70
     1
  0
VPORT
  2
*ACTIVE
 70
     0
 10
0.0
 20
0.0
 11
1.0
 21
1.0
 12
0.0
 22
0.0
 13
0.0
 23
0.0
 14
0.0
 24
0.0
 15
0.0
 25
0.0
 16
0.0
 26
0.0
 36
1.0
 17
947906.315702
 27
7299666.591919
 37
0.0
 40
8.833
 41
1.270504
 42
50.0
 43
0.004
 44
0.0
 50
1.59186
 51
0.0
 71
     0
 72
   100
 73
     1
 74
     0
 75
     0
 76
     0
 77
     0
 78
     0
  0
ENDTAB
  0
TABLE
  2
LTYPE
 70
     7
  0
LTYPE
  2
CONTINUOUS
 70
     0
  3
Solid line
 72
    65
 73
     0
 40
0.0
  0
LTYPE
  2
DOT
 70
    64
  3
. . . . . . . . . . . . . . . . . . . . . . . . . . . . . . . . .
 72
    65
 73
     2
 40
0.25
 49
0.0
 49
-0.25
  0
LTYPE
  2
HIDDEN
 70
    64
  3
__ __ __ __ __ __ __ __ __ __ __ __ __ __ __ __ __ __ __ __ __ 
 72
    65
 73
     2
 40
0.375
 49
0.25
 49
-0.125
  0
LTYPE
  2
DASHED
 70
    64
  3
__ __ __ __ __ __ __ __ __ __ __ __ __ __ __ __ __ __ __ __ __
 72
    65
 73
     2
 40
0.75
 49
0.5
 49
-0.25
  0
LTYPE
  2
DASHDOT
 70
    64
  3
__ . __ . __ . __ . __ . __ . __ . __ . __ . __ . __ . __ . _
 72
    65
 73
     4
 40
1.0
 49
0.5
 49
-0.25
 49
0.0
 49
-0.25
  0
LTYPE
  2
DIVIDE
 70
    64
  3
____ . . ____ . . ____ . . ____ . . ____ . . ____ . . ____ . .
 72
    65
 73
     6
 40
1.25
 49
0.5
 49
-0.25
 49
0.0
 49
-0.25
 49
0.0
 49
-0.25
  0
LTYPE
  2
CENTER
 70
    64
  3
____ _ ____ _ ____ _ ____ _ ____ _ ____ _ ____ _ ____ _ ____ _
 72
    65
 73
     4
 40
2.0
 49
1.25
 49
-0.25
 49
0.25
 49
-0.25
  0
ENDTAB
  0
TABLE
  2
LAYER
 70
    13
  0
LAYER
  2
0
 70
     0
 62
     7
  6
CONTINUOUS
  0
LAYER
  2
CONSTRUCTION_CLASS
 70
     1
 62
     7
  6
CONTINUOUS
  0
LAYER
  2
PATTERN_CLASS
 70
     0
 62
     7
  6
CONTINUOUS
  0
LAYER
  2
1
 70
    64
 62
     7
  6
CONTINUOUS
  0
LAYER
  2
19
 70
    64
 62
     7
  6
CONTINUOUS
  0
LAYER
  2
6
 70
    64
 62
     7
  6
CONTINUOUS
  0
LAYER
  2
11
 70
    64
 62
     7
  6
CONTINUOUS
  0
LAYER
  2
27
 70
    64
 62
     7
  6
CONTINUOUS
  0
LAYER
  2
15
 70
    64
 62
     7
  6
CONTINUOUS
  0
LAYER
  2
22
 70
    64
 62
     7
  6
CONTINUOUS
  0
LAYER
  2
13
 70
    64
 62
     7
  6
CONTINUOUS
  0
LAYER
  2
58
 70
    64
 62
     7
  6
CONTINUOUS
  0
LAYER
  2
10
 70
    64
 62
     7
  6
CONTINUOUS
  0
ENDTAB
  0
TABLE
  2
STYLE
 70
     4
  0
STYLE
  2
STANDARD
 70
     0
 40
0.0
 41
1.0
 50
0.0
 71
     0
 42
0.0
  3
txt
  4

  0
STYLE
  2
ROMANC
 70
     0
 40
0.2
 41
1.0
 50
0.0
 71
     0
 42
0.2
  3
ROMANC
  4

  0
STYLE
  2
ROMANS
 70
     0
 40
0.2
 41
1.0
 50
0.0
 71
     0
 42
0.2
  3
ROMANS
  4

  0
STYLE
  2
txt
 70
     0
 40
0.2
 41
1.0
 50
0.0
 71
     0
 42
0.2
  3
TXT
  4

  0
ENDTAB
  0
TABLE
  2
VIEW
 70
     0
  0
ENDTAB
  0
TABLE
  2
UCS
 70
     0
  0
ENDTAB
  0
TABLE
  2
APPID
 70
     1
  0
APPID
  2
ACAD
 70
     0
  0
ENDTAB
  0
TABLE
  2
DIMSTYLE
 70
     1
  0
DIMSTYLE
  2
STANDARD
 70
     0
  3

  4

  5

  6

  7

 40
1.0
 41
0.18
 42
0.0625
 43
0.38
 44
0.18
 45
0.0
 46
0.0
 47
0.0
 48
0.0
140
0.18
141
0.09
142
0.0
143
25.4
144
1.0
145
0.0
146
1.0
147
0.09
 71
     0
 72
     0
 73
     1
 74
     1
 75
     0
 76
     0
 77
     0
 78
     0
170
     0
171
     2
172
     0
173
     0
174
     0
175
     0
176
     0
177
     0
178
     0
  0
ENDTAB
  0
ENDSEC
  0
SECTION
  2
BLOCKS
  0
ENDSEC
  0
SECTION
  2
ENTITIES
  0
POLYLINE
  8
1
  6
HIDDEN
 62
   253
  5
29
 66
     1
 10
0.0
 20
0.0
 30
0.0
 70
     1
  0
VERTEX
  8
1
  6
HIDDEN
 62
   253
  5
2A
 10
948281.949
 20
7299718.24
 30
0.0
  0
VERTEX
  8
1
  6
HIDDEN
 62
   253
  5
2B
 10
942980.555
 20
7299861.556
 30
0.0
  0
VERTEX
  8
1
  6
HIDDEN
 62
   253
  5
2C
 10
942818.036
 20
7294618.83
 30
0.0
  0
VERTEX
  8
1
  6
HIDDEN
 62
   253
  5
2D
 10
948115.954
 20
7294471.599
 30
0.0
  0
SEQEND
  8
1
  6
HIDDEN
 62
   253
  5
2E
  0
TEXT
  8
19
  6
CONTINUOUS
 62
     1
  5
31
 10
942910.886
 20
7295649.248
 30
0.0
 40
24.0
  1
N UNIVERSITY AVE
 50
88.1874
  7
ROMANC
 72
     4
 11
942905.454808
 21
7295857.006748
 31
0.0
210
0.0
220
0.0
230
1.0
  0
TEXT
  8
19
  6
CONTINUOUS
 62
     1
  5
32
 10
942881.044
 20
7298392.888
 30
0.0
 40
24.0
  1
N UNIVERSITY AVE
 50
88.1874
  7
ROMANC
 72
     4
 11
942875.612808
 21
7298600.646748
 31
0.0
210
0.0
220
0.0
230
1.0
  0
TEXT
  8
19
  6
CONTINUOUS
 62
     1
  5
33
 10
944859.63
 20
7299774.453
 30
0.0
 40
24.0
  1
FARM RD 2641 (BLUEFIELD ST)
 50
358.1874
  7
ROMANC
 72
     4
 11
945190.25224
 21
7299775.996005
 31
0.0
210
0.0
220
0.0
230
1.0
  0
TEXT
  8
19
  6
CONTINUOUS
 62
     1
  5
34
 10
947595.784
 20
7299625.73
 30
0.0
 40
24.0
  1
FARM RD 2641 (BLUEFIELD ST)
 50
343.1874
  7
ROMANC
 72
     4
 11
947915.539919
 21
7299541.649096
 31
0.0
210
0.0
220
0.0
230
1.0
  0
TEXT
  8
19
  6
CONTINUOUS
 62
     1
  5
35
 10
948197.639
 20
7298048.817
 30
0.0
 40
24.0
  1
N AVE P
 50
88.1874
  7
ROMANC
 72
     4
 11
948188.603664
 21
7298142.687763
 31
0.0
210
0.0
220
0.0
230
1.0
  0
TEXT
  8
19
  6
CONTINUOUS
 62
     1
  5
36
 10
948132.253
 20
7295459.617
 30
0.0
 40
24.0
  1
N AVE P
 50
88.1874
  7
ROMANC
 72
     4
 11
948123.217664
 21
7295553.487763
 31
0.0
210
0.0
220
0.0
230
1.0
  0
LINE
  8
6
  6
CONTINUOUS
 62
     7
  5
38
 10
942955.996
 20
7299822.397
 30
0.0
 11
946841.027
 21
7299691.165
 31
0.0
  0
ARC
  8
6
  6
CONTINUOUS
 62
     7
  5
39
 10
946735.992111
 20
7295940.796892
 30
0.0
 40
3751.838653
 50
74.838775
 51
88.395761
210
0.0
220
0.0
230
1.0
  0
LINE
  8
6
  6
CONTINUOUS
 62
     7
  5
3A
 10
942802.108
 20
7294577.404
 30
0.0
 11
942862.234
 21
7296865.553
 31
0.0
  0
LINE
  8
6
  6
CONTINUOUS
 62
     7
  5
3B
 10
942802.108
 20
7294577.404
 30
0.0
 11
947334.98
 21
7294435.177
 31
0.0
  0
LINE
  8
6
  6
CONTINUOUS
 62
     7
  5
3C
 10
942940.529
 20
7299807.879
 30
0.0
 11
942934.203
 21
7299607.979
 31
0.0
  0
ARC
  8
6
  6
CONTINUOUS
 62
     7
  5
3D
 10
942955.521884
 20
7299807.404427
 30
0.0
 40
15.0
 50
88.1874
 51
178.1874
210
0.0
220
0.0
230
1.0
  0
LINE
  8
6
  6
CONTINUOUS
 62
     7
  5
3E
 10
942934.203
 20
7299607.979
 30
0.0
 11
942912.142
 21
7299227.004
 31
0.0
  0
TEXT
  8
11
  6
CONTINUOUS
 62
     7
  5
41
 10
942883.333
 20
7299190.172
 30
0.0
 40
8.0
  1
40'
 50
358.1874
  7
ROMANS
210
0.0
220
0.0
230
1.0
  0
TEXT
  8
11
  6
CONTINUOUS
 62
     7
  5
42
 10
942907.018
 20
7299772.848
 30
0.0
 40
8.0
  1
50'
 50
358.1874
  7
ROMANS
210
0.0
220
0.0
230
1.0
  0
TEXT
  8
11
  6
CONTINUOUS
 62
     7
  5
43
 10
943033.11
 20
7299825.395
 30
0.0
 40
8.0
  1
15'
 50
88.1874
  7
ROMANS
210
0.0
220
0.0
230
1.0
  0
LINE
  8
6
  6
CONTINUOUS
 62
     7
  5
44
 10
942862.677
 20
7297195.704
 30
0.0
 11
942912.142
 21
7299227.004
 31
0.0
  0
TEXT
  8
19
  6
CONTINUOUS
 62
     1
  5
45
 10
942945.424
 20
7297166.201
 30
0.0
 40
24.0
  1
REGIS ST
 50
358.1874
  7
ROMANC
 72
     4
 11
943038.727047
 21
7297175.254302
 31
0.0
210
0.0
220
0.0
230
1.0
  0
LINE
  8
6
  6
CONTINUOUS
 62
     7
  5
46
 10
948098.388
 20
7294410.202
 30
0.0
 11
947474.887
 21
7294430.753
 31
0.0
  0
TEXT
  8
11
  6
CONTINUOUS
 62
     7
  5
47
 10
948108.827
 20
7294392.587
 30
0.0
 40
8.0
  1
40'
 50
88.1874
  7
ROMANS
210
0.0
220
0.0
230
1.0
  0
POLYLINE
  8
6
  6
CONTINUOUS
 62
     7
  5
48
 66
     1
 10
0.0
 20
0.0
 30
0.0
  0
VERTEX
  8
6
  6
CONTINUOUS
 62
     7
  5
49
 10
947474.887
 20
7294430.753
 30
0.0
  0
VERTEX
  8
6
  6
CONTINUOUS
 62
     7
  5
4A
 10
947493.004
 20
7295003.226
 30
0.0
  0
VERTEX
  8
6
  6
CONTINUOUS
 62
     7
  5
4B
 10
947504.729
 20
7295373.74
 30
0.0
  0
VERTEX
  8
6
  6
CONTINUOUS
 62
     7
  5
4C
 10
947559.777
 20
7297445.056
 30
0.0
  0
SEQEND
  8
6
  6
CONTINUOUS
 62
     7
  5
4D
  0
POLYLINE
  8
27
  6
CONTINUOUS
 62
    32
  5
4F
 66
     1
 10
0.0
 20
0.0
 30
0.0
  0
VERTEX
  8
27
  6
CONTINUOUS
 62
    32
  5
50
 10
947423.973
 20
7294402.679
 30
0.0
  0
VERTEX
  8
27
  6
CONTINUOUS
 62
    32
  5
51
 10
947443.029
 20
7295004.807
 30
0.0
  0
VERTEX
  8
27
  6
CONTINUOUS
 62
    32
  5
52
 10
947454.754
 20
7295375.322
 30
0.0
  0
VERTEX
  8
27
  6
CONTINUOUS
 62
    32
  5
53
 10
947509.795
 20
7297446.399
 30
0.0
  0
SEQEND
  8
27
  6
CONTINUOUS
 62
    32
  5
54
  0
POLYLINE
  8
6
  6
CONTINUOUS
 62
     7
  5
55
 66
     1
 10
0.0
 20
0.0
 30
0.0
  0
VERTEX
  8
6
  6
CONTINUOUS
 62
     7
  5
56
 10
947374.937
 20
7294433.923
 30
0.0
  0
VERTEX
  8
6
  6
CONTINUOUS
 62
     7
  5
57
 10
947404.779
 20
7295376.903
 30
0.0
  0
VERTEX
  8
6
  6
CONTINUOUS
 62
     7
  5
58
 10
947459.813
 20
7297447.742
 30
0.0
  0
SEQEND
  8
6
  6
CONTINUOUS
 62
     7
  5
59
  0
ARC
  8
6
  6
CONTINUOUS
 62
     7
  5
5A
 10
953387.829007
 20
7297138.126282
 30
0.0
 40
5936.104273
 50
154.168417
 51
177.003497
210
0.0
220
0.0
230
1.0
  0
ARC
  8
6
  6
CONTINUOUS
 62
     7
  5
5B
 10
953391.745154
 20
7297138.258776
 30
0.0
 40
5840.023829
 50
153.744992
 51
176.995481
210
0.0
220
0.0
230
1.0
  0
LINE
  8
6
  6
CONTINUOUS
 62
     7
  5
5C
 10
947708.584
 20
7299674.355
 30
0.0
 11
947886.53
 21
7299621.441
 31
0.0
  0
LINE
  8
6
  6
CONTINUOUS
 62
     7
  5
5D
 10
948079.12
 20
7299560.812
 30
0.0
 11
948275.124
 21
7299502.528
 31
0.0
  0
LINE
  8
6
  6
CONTINUOUS
 62
     7
  5
5E
 10
947717.233
 20
7299562.048
 30
0.0
 11
947901.399
 21
7299507.283
 31
0.0
  0
LINE
  8
6
  6
CONTINUOUS
 62
     7
  5
5F
 10
948031.168
 20
7299449.878
 30
0.0
 11
948271.2
 21
7299378.501
 31
0.0
  0
ARC
  8
27
  6
CONTINUOUS
 62
    32
  5
60
 10
953196.244649
 20
7297187.188024
 30
0.0
 40
5692.354516
 50
153.544364
 51
177.390036
210
0.0
220
0.0
230
1.0
  0
TEXT
  8
19
  6
CONTINUOUS
 62
     1
  5
61
 10
943016.586
 20
7294550.013
 30
0.0
 40
24.0
  1
KENT ST
 50
358.1874
  7
ROMANC
 72
     4
 11
943104.885552
 21
7294559.224645
 31
0.0
210
0.0
220
0.0
230
1.0
  0
TEXT
  8
19
  6
CONTINUOUS
 62
     1
  5
62
 10
944874.631
 20
7294491.213
 30
0.0
 40
24.0
  1
KENT ST
 50
358.1874
  7
ROMANC
 72
     4
 11
944962.930552
 21
7294500.424645
 31
0.0
210
0.0
220
0.0
230
1.0
  0
TEXT
  8
19
  6
CONTINUOUS
 62
     1
  5
63
 10
947618.82
 20
7294404.369
 30
0.0
 40
24.0
  1
KENT ST
 50
358.1874
  7
ROMANC
 72
     4
 11
947707.119552
 21
7294413.580645
 31
0.0
210
0.0
220
0.0
230
1.0
  0
TEXT
  8
11
  6
CONTINUOUS
 62
     7
  5
64
 10
942772.961
 20
7294588.882
 30
0.0
 40
8.0
  1
50'
 50
358.1874
  7
ROMANS
210
0.0
220
0.0
230
1.0
  0
TEXT
  8
11
  6
CONTINUOUS
 62
     7
  5
65
 10
942834.1
 20
7294536.503
 30
0.0
 40
8.0
  1
60'
 50
88.1874
  7
ROMANS
210
0.0
220
0.0
230
1.0
  0
LINE
  8
6
  6
CONTINUOUS
 62
     7
  5
66
 10
942862.677
 20
7297195.704
 30
0.0
 11
943525.345
 21
7297174.733
 31
0.0
  0
LINE
  8
6
  6
CONTINUOUS
 62
     7
  5
67
 10
942876.587
 20
7296908.12
 30
0.0
 11
942884.305
 21
7297151.998
 31
0.0
  0
LINE
  8
6
  6
CONTINUOUS
 62
     7
  5
68
 10
942862.234
 20
7296865.553
 30
0.0
 11
943514.907
 21
7296844.898
 31
0.0
  0
LINE
  8
6
  6
CONTINUOUS
 62
     7
  5
69
 10
943505.797
 20
7296873.201
 30
0.0
 11
943514.464
 21
7297147.063
 31
0.0
  0
LINE
  8
6
  6
CONTINUOUS
 62
     7
  5
6A
 10
942899.772
 20
7297166.516
 30
0.0
 11
943514.464
 21
7297147.063
 31
0.0
  0
LINE
  8
6
  6
CONTINUOUS
 62
     7
  5
6B
 10
942891.105
 20
7296892.653
 30
0.0
 11
943505.797
 21
7296873.201
 31
0.0
  0
LINE
  8
6
  6
CONTINUOUS
 62
     7
  5
6C
 10
943514.907
 20
7296844.898
 30
0.0
 11
943525.345
 21
7297174.733
 31
0.0
  0
ARC
  8
6
  6
CONTINUOUS
 62
     7
  5
6D
 10
942899.297336
 20
7297151.52361
 30
0.0
 40
15.0
 50
88.1874
 51
178.1874
210
0.0
220
0.0
230
1.0
  0
ARC
  8
6
  6
CONTINUOUS
 62
     7
  5
6E
 10
942891.579479
 20
7296907.645701
 30
0.0
 40
15.0
 50
178.1874
 51
268.1874
210
0.0
220
0.0
230
1.0
  0
TEXT
  8
11
  6
CONTINUOUS
 62
     7
  5
6F
 10
942840.867
 20
7297116.027
 30
0.0
 40
8.0
  1
63'
 50
358.1874
  7
ROMANS
210
0.0
220
0.0
230
1.0
  0
TEXT
  8
11
  6
CONTINUOUS
 62
     7
  5
70
 10
942835.8
 20
7297206.451
 30
0.0
 40
8.0
  1
40'
 50
358.1874
  7
ROMANS
210
0.0
220
0.0
230
1.0
  0
TEXT
  8
11
  6
CONTINUOUS
 62
     7
  5
71
 10
942826.263
 20
7296841.513
 30
0.0
 40
8.0
  1
50'
 50
358.1874
  7
ROMANS
210
0.0
220
0.0
230
1.0
  0
TEXT
  8
11
  6
CONTINUOUS
 62
     7
  5
72
 10
943161.665
 20
7297147.504
 30
0.0
 40
8.0
  1
615'
 50
358.1874
  7
ROMANS
210
0.0
220
0.0
230
1.0
  0
TEXT
  8
11
  6
CONTINUOUS
 62
     7
  5
73
 10
942893.31
 20
7297011.125
 30
0.0
 40
8.0
  1
244.01'
 50
88.1874
  7
ROMANS
210
0.0
220
0.0
230
1.0
  0
TEXT
  8
11
  6
CONTINUOUS
 62
     7
  5
74
 10
943504.034
 20
7296998.371
 30
0.0
 40
8.0
  1
274.01'
 50
88.1874
  7
ROMANS
210
0.0
220
0.0
230
1.0
  0
TEXT
  8
11
  6
CONTINUOUS
 62
     7
  5
75
 10
943146.215
 20
7296888.204
 30
0.0
 40
8.0
  1
615'
 50
358.1874
  7
ROMANS
210
0.0
220
0.0
230
1.0
  0
TEXT
  8
11
  6
CONTINUOUS
 62
     7
  5
76
 10
943514.355
 20
7297133.226
 30
0.0
 40
8.0
  1
10'
 50
358.1874
  7
ROMANS
210
0.0
220
0.0
230
1.0
  0
TEXT
  8
11
  6
CONTINUOUS
 62
     7
  5
77
 10
942914.112
 20
7297170.696
 30
0.0
 40
8.0
  1
28'
 50
88.1874
  7
ROMANS
210
0.0
220
0.0
230
1.0
  0
TEXT
  8
11
  6
CONTINUOUS
 62
     7
  5
78
 10
942899.422
 20
7296869.97
 30
0.0
 40
8.0
  1
28'
 50
88.1874
  7
ROMANS
210
0.0
220
0.0
230
1.0
  0
TEXT
  8
15
  6
CONTINUOUS
 62
    30
  5
7A
 10
942899.315
 20
7296890.929
 30
0.0
 40
50.0
  1
WEDGEWOOD
 50
28.1874
  7
ROMANC
 72
     4
 11
943113.049403
 21
7297033.835602
 31
0.0
210
0.0
220
0.0
230
1.0
  0
TEXT
  8
11
  6
CONTINUOUS
 62
     7
  5
7B
 10
948253.764
 20
7299429.605
 30
0.0
 40
8.0
  1
120'
 50
73.820733
  7
ROMANS
210
0.0
220
0.0
230
1.0
  0
TEXT
  8
11
  6
CONTINUOUS
 62
     7
  5
7C
 10
947726.027
 20
7299594.134
 30
0.0
 40
8.0
  1
120'
 50
73.820733
  7
ROMANS
210
0.0
220
0.0
230
1.0
  0
TEXT
  8
11
  6
CONTINUOUS
 62
     7
  5
7D
 10
948202.645
 20
7299649.965
 30
0.0
 40
8.0
  1
159'
 50
358.1874
  7
ROMANS
 72
     4
 11
948216.097851
 21
7299653.541268
 31
0.0
210
0.0
220
0.0
230
1.0
  0
TEXT
  8
11
  6
CONTINUOUS
 62
     7
  5
7E
 10
948277.846
 20
7299565.299
 30
0.0
 40
8.0
  1
155'
 50
88.1874
  7
ROMANS
 72
     4
 11
948274.269732
 21
7299578.751851
 31
0.0
210
0.0
220
0.0
230
1.0
  0
POLYLINE
  8
6
  6
CONTINUOUS
 62
     7
  5
7F
 66
     1
 10
0.0
 20
0.0
 30
0.0
 70
     1
  0
VERTEX
  8
6
  6
CONTINUOUS
 62
     7
  5
80
 10
948285.075
 20
7299658.071
 30
0.0
  0
VERTEX
  8
6
  6
CONTINUOUS
 62
     7
  5
81
 10
948135.15
 20
7299662.816
 30
0.0
  0
VERTEX
  8
6
  6
CONTINUOUS
 62
     7
  5
82
 10
948115.262
 20
7299603.415
 30
0.0
  0
VERTEX
  8
6
  6
CONTINUOUS
 62
     7
  5
83
 10
948283.178
 20
7299598.101
 30
0.0
  0
VERTEX
  8
6
  6
CONTINUOUS
 62
     7
  5
84
 10
948285.075
 20
7299658.071
 30
0.0
  0
SEQEND
  8
6
  6
CONTINUOUS
 62
     7
  5
85
  0
TEXT
  8
22
  6
CONTINUOUS
 62
     3
  5
88
 10
948165.471
 20
7299636.101
 30
0.0
 40
6.0
  1
QUITCLAIM DEED
 50
358.1874
  7
txt
 72
     4
 11
948204.709296
 21
7299637.860751
 31
0.0
210
0.0
220
0.0
230
1.0
  0
TEXT
  8
13
  6
CONTINUOUS
 62
    14
  5
8A
 10
948168.908
 20
7299624.77
 30
0.0
 40
8.0
  1
V4481 P124
 50
358.1874
  7
txt
 72
     4
 11
948204.386824
 21
7299627.649226
 31
0.0
210
0.0
220
0.0
230
1.0
  0
ARC
  8
6
  6
CONTINUOUS
 62
     7
  5
8B
 10
953387.829007
 20
7297138.126282
 30
0.0
 40
5976.104273
 50
156.644289
 51
177.003497
210
0.0
220
0.0
230
1.0
  0
ARC
  8
6
  6
CONTINUOUS
 62
     7
  5
8C
 10
953380.134614
 20
7297268.967702
 30
0.0
 40
5976.104273
 50
156.279867
 51
156.818406
210
0.0
220
0.0
230
1.0
  0
POLYLINE
  8
6
  6
CONTINUOUS
 62
     7
  5
8D
 66
     1
 10
0.0
 20
0.0
 30
0.0
  0
VERTEX
  8
6
  6
CONTINUOUS
 62
     7
  5
8E
 10
947334.98
 20
7294435.177
 30
0.0
  0
VERTEX
  8
6
  6
CONTINUOUS
 62
     7
  5
8F
 10
947364.819
 20
7295378.066
 30
0.0
  0
VERTEX
  8
6
  6
CONTINUOUS
 62
     7
  5
90
 10
947419.85
 20
7297448.804
 30
0.0
  0
SEQEND
  8
6
  6
CONTINUOUS
 62
     7
  5
91
  0
LINE
  8
58
  6
DIVIDE
 62
   216
  5
93
 10
942900.844
 20
7297290.135
 30
0.0
 11
947360.501
 21
7297149.003
 31
0.0
  0
LINE
  8
58
  6
DIVIDE
 62
   216
  5
94
 10
947365.663
 20
7297312.127
 30
0.0
 11
947360.501
 21
7297149.003
 31
0.0
  0
ARC
  8
58
  6
DIVIDE
 62
   216
  5
95
 10
953556.66714
 20
7297135.509038
 30
0.0
 40
6193.522921
 50
155.257939
 51
178.3659
210
0.0
220
0.0
230
1.0
  0
TEXT
  8
19
  6
CONTINUOUS
 62
     1
  5
96
 10
943129.248
 20
7299831.055
 30
0.0
 40
24.0
  1
FARM RD 2641 (BLUEFIELD ST)
 50
358.1874
  7
ROMANC
 72
     4
 11
943459.87024
 21
7299832.598005
 31
0.0
210
0.0
220
0.0
230
1.0
  0
ARC
  8
6
  6
CONTINUOUS
 62
     7
  5
97
 10
946735.992111
 20
7295940.796892
 30
0.0
 40
3858.159246
 50
74.838775
 51
80.161044
210
0.0
220
0.0
230
1.0
  0
TEXT
  8
10
  6
CONTINUOUS
 62
   134
  5
99
 10
943172.693
 20
7297022.082
 30
0.0
 40
13.999
  1
A
 50
358.1874
  7
ROMANS
 11
943173.135796
 21
7297036.073995
 31
0.0
210
0.0
220
0.0
230
1.0
 73
     3
  0
TEXT
  8
10
  6
CONTINUOUS
 62
   134
  5
9A
 10
944318.97
 20
7296015.049
 30
0.0
 40
13.999
  1
UNSUBDIVIDED
 50
358.1874
  7
ROMANS
 72
     4
 11
944400.600659
 21
7296019.469188
 31
0.0
210
0.0
220
0.0
230
1.0
  0
TEXT
  8
10
  6
CONTINUOUS
 62
   134
  5
9B
 10
946573.557
 20
7295061.305
 30
0.0
 40
13.999
  1
UNSUBDIVIDED
 50
358.1874
  7
ROMANS
 72
     4
 11
946655.187659
 21
7295065.725188
 31
0.0
210
0.0
220
0.0
230
1.0
  0
TEXT
  8
10
  6
CONTINUOUS
 62
   134
  5
9C
 10
947801.277
 20
7296015.146
 30
0.0
 40
13.999
  1
UNSUBDIVIDED
 50
358.1874
  7
ROMANS
 72
     4
 11
947882.907659
 21
7296019.566188
 31
0.0
210
0.0
220
0.0
230
1.0
  0
TEXT
  8
10
  6
CONTINUOUS
 62
   134
  5
9D
 10
947884.119
 20
7298383.957
 30
0.0
 40
13.999
  1
UNSUBDIVIDED
 50
358.1874
  7
ROMANS
 72
     4
 11
947965.749659
 21
7298388.377188
 31
0.0
210
0.0
220
0.0
230
1.0
  0
TEXT
  8
10
  6
CONTINUOUS
 62
   134
  5
9E
 10
946398.611
 20
7297997.649
 30
0.0
 40
13.999
  1
UNSUBDIVIDED
 50
358.1874
  7
ROMANS
 72
     4
 11
946480.241659
 21
7298002.069188
 31
0.0
210
0.0
220
0.0
230
1.0
  0
TEXT
  8
10
  6
CONTINUOUS
 62
   134
  5
9F
 10
943814.953
 20
7299009.078
 30
0.0
 40
13.999
  1
UNSUBDIVIDED
 50
358.1874
  7
ROMANS
 72
     4
 11
943896.583659
 21
7299013.498188
 31
0.0
210
0.0
220
0.0
230
1.0
  0
ENDSEC
  0
EOF
