  0
SECTION
  2
HEADER
  9
$ACADVER
  1
AC1009
  9
$INSBASE
 10
0.0
 20
0.0
 30
0.0
  9
$EXTMIN
 10
957336.691
 20
7251709.95
 30
0.0
  9
$EXTMAX
 10
963973.194
 20
7257153.688
 30
0.0
  9
$LIMMIN
 10
0.0
 20
0.0
  9
$LIMMAX
 10
12.0
 20
9.0
  9
$ORTHOMODE
 70
     0
  9
$REGENMODE
 70
     1
  9
$FILLMODE
 70
     1
  9
$QTEXTMODE
 70
     0
  9
$MIRRTEXT
 70
     1
  9
$DRAGMODE
 70
     2
  9
$LTSCALE
 40
1.0
  9
$OSMODE
 70
     0
  9
$ATTMODE
 70
     1
  9
$TEXTSIZE
 40
0.2
  9
$TRACEWID
 40
0.05
  9
$TEXTSTYLE
  7
STANDARD
  9
$CLAYER
  8
0
  9
$CELTYPE
  6
CONTINUOUS
  9
$CECOLOR
 62
   256
  9
$DIMSCALE
 40
1.0
  9
$DIMASZ
 40
0.18
  9
$DIMEXO
 40
0.0625
  9
$DIMDLI
 40
0.38
  9
$DIMRND
 40
0.0
  9
$DIMDLE
 40
0.0
  9
$DIMEXE
 40
0.18
  9
$DIMTP
 40
0.0
  9
$DIMTM
 40
0.0
  9
$DIMTXT
 40
0.18
  9
$DIMCEN
 40
0.09
  9
$DIMTSZ
 40
0.0
  9
$DIMTOL
 70
     0
  9
$DIMLIM
 70
     0
  9
$DIMTIH
 70
     1
  9
$DIMTOH
 70
     1
  9
$DIMSE1
 70
     0
  9
$DIMSE2
 70
     0
  9
$DIMTAD
 70
     0
  9
$DIMZIN
 70
     0
  9
$DIMBLK
  1

  9
$DIMASO
 70
     1
  9
$DIMSHO
 70
     1
  9
$DIMPOST
  1

  9
$DIMAPOST
  1

  9
$DIMALT
 70
     0
  9
$DIMALTD
 70
     2
  9
$DIMALTF
 40
25.4
  9
$DIMLFAC
 40
1.0
  9
$DIMTOFL
 70
     0
  9
$DIMTVP
 40
0.0
  9
$DIMTIX
 70
     0
  9
$DIMSOXD
 70
     0
  9
$DIMSAH
 70
     0
  9
$DIMBLK1
  1

  9
$DIMBLK2
  1

  9
$DIMSTYLE
  2
STANDARD
  9
$DIMCLRD
 70
     0
  9
$DIMCLRE
 70
     0
  9
$DIMCLRT
 70
     0
  9
$DIMTFAC
 40
1.0
  9
$DIMGAP
 40
0.09
  9
$LUNITS
 70
     2
  9
$LUPREC
 70
     4
  9
$AXISMODE
 70
     0
  9
$AXISUNIT
 10
0.0
 20
0.0
  9
$SKETCHINC
 40
0.1
  9
$FILLETRAD
 40
0.0
  9
$AUNITS
 70
     0
  9
$AUPREC
 70
     0
  9
$MENU
  1
acad
  9
$ELEVATION
 40
0.0
  9
$PELEVATION
 40
0.0
  9
$THICKNESS
 40
0.0
  9
$LIMCHECK
 70
     0
  9
$BLIPMODE
 70
     1
  9
$CHAMFERA
 40
0.0
  9
$CHAMFERB
 40
0.0
  9
$SKPOLY
 70
     0
  9
$TDCREATE
 40
2453013.900706018
  9
$TDUPDATE
 40
2453013.900706018
  9
$TDINDWG
 40
0.0000000000
  9
$TDUSRTIMER
 40
0.0000000000
  9
$USRTIMER
 70
     1
  9
$ANGBASE
 50
0.0
  9
$ANGDIR
 70
     0
  9
$PDMODE
 70
     0
  9
$PDSIZE
 40
0.0
  9
$PLINEWID
 40
0.0
  9
$COORDS
 70
     0
  9
$SPLFRAME
 70
     0
  9
$SPLINETYPE
 70
     6
  9
$SPLINESEGS
 70
    10
  9
$ATTDIA
 70
     0
  9
$ATTREQ
 70
     1
  9
$HANDLING
 70
     1
  9
$HANDSEED
  5
62E
  9
$SURFTAB1
 70
     6
  9
$SURFTAB2
 70
     6
  9
$SURFTYPE
 70
     6
  9
$SURFU
 70
     6
  9
$SURFV
 70
     6
  9
$UCSNAME
  2

  9
$UCSORG
 10
0.0
 20
0.0
 30
0.0
  9
$UCSXDIR
 10
1.0
 20
0.0
 30
0.0
  9
$UCSYDIR
 10
0.0
 20
1.0
 30
0.0
  9
$PUCSNAME
  2

  9
$PUCSORG
 10
0.0
 20
0.0
 30
0.0
  9
$PUCSXDIR
 10
1.0
 20
0.0
 30
0.0
  9
$PUCSYDIR
 10
0.0
 20
1.0
 30
0.0
  9
$USERI1
 70
     0
  9
$USERI2
 70
     0
  9
$USERI3
 70
     0
  9
$USERI4
 70
     0
  9
$USERI5
 70
     0
  9
$USERR1
 40
0.0
  9
$USERR2
 40
0.0
  9
$USERR3
 40
0.0
  9
$USERR4
 40
0.0
  9
$USERR5
 40
0.0
  9
$WORLDVIEW
 70
     1
  9
$SHADEDGE
 70
     3
  9
$SHADEDIF
 70
    70
  9
$TILEMODE
 70
     1
  9
$MAXACTVP
 70
    16
  9
$PINSBASE
 10
0.0
 20
0.0
 30
0.0
  9
$PLIMCHECK
 70
     0
  9
$PEXTMIN
 10
-1.000000E+20
 20
-1.000000E+20
 30
-1.000000E+20
  9
$PEXTMAX
 10
-1.000000E+20
 20
-1.000000E+20
 30
-1.000000E+20
  9
$PLIMMIN
 10
0.0
 20
0.0
  9
$PLIMMAX
 10
12.0
 20
9.0
  9
$UNITMODE
 70
     0
  9
$VISRETAIN
 70
     0
  9
$PLINEGEN
 70
     1
  9
$PSLTSCALE
 70
     0
  9
$TREEDEPTH
 70
  3020
  9
$DWGCODEPAGE
  3
ansi_1252
  0
ENDSEC
  0
SECTION
  2
TABLES
  0
TABLE
  2
VPORT
 70
     1
  0
VPORT
  2
*ACTIVE
 70
     0
 10
0.0
 20
0.0
 11
1.0
 21
1.0
 12
0.0
 22
0.0
 13
0.0
 23
0.0
 14
0.0
 24
0.0
 15
0.0
 25
0.0
 16
0.0
 26
0.0
 36
1.0
 17
957541.981501
 27
7254450.218308
 37
0.0
 40
4553.937
 41
1.23324
 42
50.0
 43
0.004
 44
0.0
 50
1.573011
 51
0.0
 71
     0
 72
   100
 73
     1
 74
     0
 75
     0
 76
     0
 77
     0
 78
     0
  0
ENDTAB
  0
TABLE
  2
LTYPE
 70
     7
  0
LTYPE
  2
CONTINUOUS
 70
     0
  3
Solid line
 72
    65
 73
     0
 40
0.0
  0
LTYPE
  2
DOT
 70
    64
  3
. . . . . . . . . . . . . . . . . . . . . . . . . . . . . . . . .
 72
    65
 73
     2
 40
0.25
 49
0.0
 49
-0.25
  0
LTYPE
  2
HIDDEN
 70
    64
  3
__ __ __ __ __ __ __ __ __ __ __ __ __ __ __ __ __ __ __ __ __ 
 72
    65
 73
     2
 40
0.375
 49
0.25
 49
-0.125
  0
LTYPE
  2
DASHED
 70
    64
  3
__ __ __ __ __ __ __ __ __ __ __ __ __ __ __ __ __ __ __ __ __
 72
    65
 73
     2
 40
0.75
 49
0.5
 49
-0.25
  0
LTYPE
  2
DASHDOT
 70
    64
  3
__ . __ . __ . __ . __ . __ . __ . __ . __ . __ . __ . __ . _
 72
    65
 73
     4
 40
1.0
 49
0.5
 49
-0.25
 49
0.0
 49
-0.25
  0
LTYPE
  2
DIVIDE
 70
    64
  3
____ . . ____ . . ____ . . ____ . . ____ . . ____ . . ____ . .
 72
    65
 73
     6
 40
1.25
 49
0.5
 49
-0.25
 49
0.0
 49
-0.25
 49
0.0
 49
-0.25
  0
LTYPE
  2
CENTER
 70
    64
  3
____ _ ____ _ ____ _ ____ _ ____ _ ____ _ ____ _ ____ _ ____ _
 72
    65
 73
     4
 40
2.0
 49
1.25
 49
-0.25
 49
0.25
 49
-0.25
  0
ENDTAB
  0
TABLE
  2
LAYER
 70
    26
  0
LAYER
  2
0
 70
    64
 62
     7
  6
CONTINUOUS
  0
LAYER
  2
CONSTRUCTION_CLASS
 70
     1
 62
     7
  6
CONTINUOUS
  0
LAYER
  2
PATTERN_CLASS
 70
     0
 62
     7
  6
CONTINUOUS
  0
LAYER
  2
7
 70
    64
 62
     7
  6
CONTINUOUS
  0
LAYER
  2
10
 70
    64
 62
     7
  6
CONTINUOUS
  0
LAYER
  2
19
 70
    64
 62
     7
  6
CONTINUOUS
  0
LAYER
  2
15
 70
    64
 62
     7
  6
CONTINUOUS
  0
LAYER
  2
11
 70
    64
 62
     7
  6
CONTINUOUS
  0
LAYER
  2
22
 70
    64
 62
     7
  6
CONTINUOUS
  0
LAYER
  2
21
 70
    64
 62
     7
  6
CONTINUOUS
  0
LAYER
  2
1
 70
    64
 62
     7
  6
CONTINUOUS
  0
LAYER
  2
6
 70
    64
 62
     7
  6
CONTINUOUS
  0
LAYER
  2
13
 70
    64
 62
     7
  6
CONTINUOUS
  0
LAYER
  2
25
 70
    64
 62
     7
  6
CONTINUOUS
  0
LAYER
  2
-7
 70
    64
 62
     7
  6
CONTINUOUS
  0
LAYER
  2
-10
 70
    64
 62
     7
  6
CONTINUOUS
  0
LAYER
  2
-19
 70
    64
 62
     7
  6
CONTINUOUS
  0
LAYER
  2
-15
 70
    64
 62
     7
  6
CONTINUOUS
  0
LAYER
  2
-11
 70
    64
 62
     7
  6
CONTINUOUS
  0
LAYER
  2
-22
 70
    64
 62
     7
  6
CONTINUOUS
  0
LAYER
  2
-21
 70
    64
 62
     7
  6
CONTINUOUS
  0
LAYER
  2
-1
 70
    64
 62
     7
  6
CONTINUOUS
  0
LAYER
  2
-6
 70
    64
 62
     7
  6
CONTINUOUS
  0
LAYER
  2
-13
 70
    64
 62
     7
  6
CONTINUOUS
  0
LAYER
  2
-25
 70
    64
 62
     7
  6
CONTINUOUS
  0
LAYER
  2
-0
 70
    64
 62
     7
  6
CONTINUOUS
  0
ENDTAB
  0
TABLE
  2
STYLE
 70
     4
  0
STYLE
  2
STANDARD
 70
     0
 40
0.0
 41
1.0
 50
0.0
 71
     0
 42
0.0
  3
txt
  4

  0
STYLE
  2
ROMANS
 70
     0
 40
0.2
 41
1.0
 50
0.0
 71
     0
 42
0.2
  3
ROMANS
  4

  0
STYLE
  2
ROMANC
 70
     0
 40
0.2
 41
1.0
 50
0.0
 71
     0
 42
0.2
  3
ROMANC
  4

  0
STYLE
  2
txt
 70
     0
 40
0.2
 41
1.0
 50
0.0
 71
     0
 42
0.2
  3
TXT
  4

  0
ENDTAB
  0
TABLE
  2
VIEW
 70
     0
  0
VIEW
  2
PLOT
 70
     0
 40
5670.284
 10
0.0
 20
0.0
 41
6478.384
 11
0.0
 21
0.0
 31
1.0
 12
960490.202182
 22
7254400.621258
 32
0.0
 42
50.0
 43
0.004
 44
0.0
 50
1.573011
 71
     0
  0
ENDTAB
  0
TABLE
  2
UCS
 70
     0
  0
ENDTAB
  0
TABLE
  2
APPID
 70
     1
  0
APPID
  2
ACAD
 70
     0
  0
ENDTAB
  0
TABLE
  2
DIMSTYLE
 70
     1
  0
DIMSTYLE
  2
STANDARD
 70
     0
  3

  4

  5

  6

  7

 40
1.0
 41
0.18
 42
0.0625
 43
0.38
 44
0.18
 45
0.0
 46
0.0
 47
0.0
 48
0.0
140
0.18
141
0.09
142
0.0
143
25.4
144
1.0
145
0.0
146
1.0
147
0.09
 71
     0
 72
     0
 73
     1
 74
     1
 75
     0
 76
     0
 77
     0
 78
     0
170
     0
171
     2
172
     0
173
     0
174
     0
175
     0
176
     0
177
     0
178
     0
  0
ENDTAB
  0
ENDSEC
  0
SECTION
  2
BLOCKS
  0
ENDSEC
  0
SECTION
  2
ENTITIES
  0
LINE
  8
7
  6
CONTINUOUS
 62
     7
  5
29
 10
958058.777
 20
7255623.221
 30
0.0
 11
958048.211
 21
7255304.938
 31
0.0
  0
LINE
  8
7
  6
CONTINUOUS
 62
     7
  5
2A
 10
958167.738
 20
7255266.409
 30
0.0
 11
958181.121
 21
7255669.597
 31
0.0
  0
TEXT
  8
10
  6
CONTINUOUS
 62
   134
  5
2D
 10
957511.915
 20
7253973.966
 30
0.0
 40
13.999
  1
TRACT "A"
 50
358.0988
  7
ROMANS
 11
957512.379432
 21
7253987.957294
 31
0.0
210
0.0
220
0.0
230
1.0
 73
     3
  0
TEXT
  8
10
  6
CONTINUOUS
 62
   134
  5
2E
 10
958955.745
 20
7254186.644
 30
0.0
 40
13.999
  1
7
 50
358.0988
  7
ROMANS
 11
958956.209432
 21
7254200.635294
 31
0.0
210
0.0
220
0.0
230
1.0
 73
     3
  0
TEXT
  8
10
  6
CONTINUOUS
 62
   134
  5
2F
 10
959169.2
 20
7254118.746
 30
0.0
 40
13.999
  1
8
 50
358.0988
  7
ROMANS
 11
959169.664432
 21
7254132.737294
 31
0.0
210
0.0
220
0.0
230
1.0
 73
     3
  0
TEXT
  8
10
  6
CONTINUOUS
 62
   134
  5
30
 10
958586.27
 20
7254666.014
 30
0.0
 40
13.999
  1
1
 50
358.0988
  7
ROMANS
 11
958586.734432
 21
7254680.005294
 31
0.0
210
0.0
220
0.0
230
1.0
 73
     3
  0
TEXT
  8
10
  6
CONTINUOUS
 62
   134
  5
31
 10
958866.966
 20
7254581.126
 30
0.0
 40
13.999
  1
2
 50
358.0988
  7
ROMANS
 11
958867.430432
 21
7254595.117294
 31
0.0
210
0.0
220
0.0
230
1.0
 73
     3
  0
TEXT
  8
10
  6
CONTINUOUS
 62
   134
  5
32
 10
959056.253
 20
7254546.125
 30
0.0
 40
13.999
  1
3
 50
358.0988
  7
ROMANS
 11
959056.717432
 21
7254560.116294
 31
0.0
210
0.0
220
0.0
230
1.0
 73
     3
  0
TEXT
  8
10
  6
CONTINUOUS
 62
   134
  5
33
 10
959201.585
 20
7254523.025
 30
0.0
 40
13.999
  1
4
 50
358.0988
  7
ROMANS
 11
959202.049432
 21
7254537.016294
 31
0.0
210
0.0
220
0.0
230
1.0
 73
     3
  0
TEXT
  8
10
  6
CONTINUOUS
 62
   134
  5
34
 10
959350.041
 20
7254515.486
 30
0.0
 40
13.999
  1
5
 50
358.0988
  7
ROMANS
 11
959350.505432
 21
7254529.477294
 31
0.0
210
0.0
220
0.0
230
1.0
 73
     3
  0
TEXT
  8
10
  6
CONTINUOUS
 62
   134
  5
35
 10
959495.459
 20
7254494.994
 30
0.0
 40
13.999
  1
6
 50
358.0988
  7
ROMANS
 11
959495.923432
 21
7254508.985294
 31
0.0
210
0.0
220
0.0
230
1.0
 73
     3
  0
TEXT
  8
10
  6
CONTINUOUS
 62
   134
  5
36
 10
961209.442
 20
7254308.118
 30
0.0
 40
13.999
  1
20
 50
358.0988
  7
ROMANS
 11
961209.906432
 21
7254322.109294
 31
0.0
210
0.0
220
0.0
230
1.0
 73
     3
  0
TEXT
  8
10
  6
CONTINUOUS
 62
   134
  5
37
 10
961391.709
 20
7254266.671
 30
0.0
 40
13.999
  1
19
 50
358.0988
  7
ROMANS
 11
961392.173432
 21
7254280.662294
 31
0.0
210
0.0
220
0.0
230
1.0
 73
     3
  0
TEXT
  8
10
  6
CONTINUOUS
 62
   134
  5
38
 10
961543.822
 20
7254238.585
 30
0.0
 40
13.999
  1
22
 50
358.0988
  7
ROMANS
 11
961544.286432
 21
7254252.576294
 31
0.0
210
0.0
220
0.0
230
1.0
 73
     3
  0
TEXT
  8
10
  6
CONTINUOUS
 62
   134
  5
39
 10
961629.662
 20
7254222.736
 30
0.0
 40
13.999
  1
21
 50
358.0988
  7
ROMANS
 11
961630.126432
 21
7254236.727294
 31
0.0
210
0.0
220
0.0
230
1.0
 73
     3
  0
TEXT
  8
10
  6
CONTINUOUS
 62
   134
  5
3A
 10
961709.855
 20
7254207.929
 30
0.0
 40
13.999
  1
18
 50
358.0988
  7
ROMANS
 11
961710.319432
 21
7254221.920294
 31
0.0
210
0.0
220
0.0
230
1.0
 73
     3
  0
TEXT
  8
10
  6
CONTINUOUS
 62
   134
  5
3B
 10
961779.045
 20
7254195.154
 30
0.0
 40
13.999
  1
17
 50
358.0988
  7
ROMANS
 11
961779.509432
 21
7254209.145294
 31
0.0
210
0.0
220
0.0
230
1.0
 73
     3
  0
TEXT
  8
10
  6
CONTINUOUS
 62
   134
  5
3C
 10
961999.312
 20
7254154.484
 30
0.0
 40
13.999
  1
15
 50
358.0988
  7
ROMANS
 11
961999.776432
 21
7254168.475294
 31
0.0
210
0.0
220
0.0
230
1.0
 73
     3
  0
TEXT
  8
10
  6
CONTINUOUS
 62
   134
  5
3D
 10
962105.092
 20
7254134.952
 30
0.0
 40
13.999
  1
14
 50
358.0988
  7
ROMANS
 11
962105.556432
 21
7254148.943294
 31
0.0
210
0.0
220
0.0
230
1.0
 73
     3
  0
TEXT
  8
10
  6
CONTINUOUS
 62
   134
  5
3E
 10
962252.594
 20
7254107.718
 30
0.0
 40
13.999
  1
13
 50
358.0988
  7
ROMANS
 11
962253.058432
 21
7254121.709294
 31
0.0
210
0.0
220
0.0
230
1.0
 73
     3
  0
TEXT
  8
10
  6
CONTINUOUS
 62
   134
  5
3F
 10
962423.095
 20
7254076.237
 30
0.0
 40
13.999
  1
12
 50
358.0988
  7
ROMANS
 11
962423.559432
 21
7254090.228294
 31
0.0
210
0.0
220
0.0
230
1.0
 73
     3
  0
TEXT
  8
10
  6
CONTINUOUS
 62
   134
  5
40
 10
962808.032
 20
7254005.163
 30
0.0
 40
13.999
  1
1
 50
358.0988
  7
ROMANS
 11
962808.496432
 21
7254019.154294
 31
0.0
210
0.0
220
0.0
230
1.0
 73
     3
  0
TEXT
  8
10
  6
CONTINUOUS
 62
   134
  5
41
 10
963002.383
 20
7253969.279
 30
0.0
 40
13.999
  1
1
 50
358.0988
  7
ROMANS
 11
963002.847432
 21
7253983.270294
 31
0.0
210
0.0
220
0.0
230
1.0
 73
     3
  0
TEXT
  8
10
  6
CONTINUOUS
 62
   134
  5
42
 10
963244.044
 20
7253932.452
 30
0.0
 40
13.999
  1
2
 50
358.0988
  7
ROMANS
 11
963244.508432
 21
7253946.443294
 31
0.0
210
0.0
220
0.0
230
1.0
 73
     3
  0
TEXT
  8
10
  6
CONTINUOUS
 62
   134
  5
43
 10
960242.223
 20
7254053.48
 30
0.0
 40
13.999
  1
23
 50
358.0988
  7
ROMANS
 11
960242.687432
 21
7254067.471294
 31
0.0
210
0.0
220
0.0
230
1.0
 73
     3
  0
TEXT
  8
10
  6
CONTINUOUS
 62
   134
  5
44
 10
960451.573
 20
7253984.037
 30
0.0
 40
13.999
  1
9
 50
358.0988
  7
ROMANS
 11
960452.037432
 21
7253998.028294
 31
0.0
210
0.0
220
0.0
230
1.0
 73
     3
  0
TEXT
  8
10
  6
CONTINUOUS
 62
   134
  5
45
 10
961048.958
 20
7253785.879
 30
0.0
 40
13.999
  1
6A
 50
358.0988
  7
ROMANS
 11
961049.422432
 21
7253799.870294
 31
0.0
210
0.0
220
0.0
230
1.0
 73
     3
  0
TEXT
  8
10
  6
CONTINUOUS
 62
   134
  5
46
 10
961245.282
 20
7253720.756
 30
0.0
 40
13.999
  1
5
 50
358.0988
  7
ROMANS
 11
961245.746432
 21
7253734.747294
 31
0.0
210
0.0
220
0.0
230
1.0
 73
     3
  0
TEXT
  8
10
  6
CONTINUOUS
 62
   134
  5
47
 10
962053.652
 20
7253452.611
 30
0.0
 40
13.999
  1
3
 50
358.0988
  7
ROMANS
 11
962054.116432
 21
7253466.602294
 31
0.0
210
0.0
220
0.0
230
1.0
 73
     3
  0
TEXT
  8
10
  6
CONTINUOUS
 62
   134
  5
48
 10
962346.884
 20
7253355.344
 30
0.0
 40
13.999
  1
2
 50
358.0988
  7
ROMANS
 11
962347.348432
 21
7253369.335294
 31
0.0
210
0.0
220
0.0
230
1.0
 73
     3
  0
TEXT
  8
10
  6
CONTINUOUS
 62
   134
  5
49
 10
962505.999
 20
7253302.564
 30
0.0
 40
13.999
  1
1
 50
358.0988
  7
ROMANS
 11
962506.463432
 21
7253316.555294
 31
0.0
210
0.0
220
0.0
230
1.0
 73
     3
  0
TEXT
  8
10
  6
CONTINUOUS
 62
   134
  5
4A
 10
962536.261
 20
7256338.227
 30
0.0
 40
13.999
  1
1
 50
358.0988
  7
ROMANS
 11
962536.725432
 21
7256352.218294
 31
0.0
210
0.0
220
0.0
230
1.0
 73
     3
  0
TEXT
  8
10
  6
CONTINUOUS
 62
   134
  5
4B
 10
957974.179
 20
7255453.963
 30
0.0
 40
13.999
  1
1
 50
358.0988
  7
ROMANS
 11
957974.643432
 21
7255467.954294
 31
0.0
210
0.0
220
0.0
230
1.0
 73
     3
  0
TEXT
  8
10
  6
CONTINUOUS
 62
   134
  5
4C
 10
958136.385
 20
7255448.579
 30
0.0
 40
13.999
  1
2
 50
358.0988
  7
ROMANS
 11
958136.849432
 21
7255462.570294
 31
0.0
210
0.0
220
0.0
230
1.0
 73
     3
  0
TEXT
  8
19
  6
CONTINUOUS
 62
     1
  5
4F
 10
957806.221
 20
7255239.304
 30
0.0
 40
24.0
  1
SLATON HIGHWAY   (U.S. 84)
 50
341.651969
  7
ROMANC
 72
     4
 11
958109.527386
 21
7255151.355588
 31
0.0
210
0.0
220
0.0
230
1.0
  0
TEXT
  8
19
  6
CONTINUOUS
 62
     1
  5
50
 10
961866.764
 20
7253903.428
 30
0.0
 40
24.0
  1
SLATON HIGHWAY   (U.S. 84)
 50
341.651969
  7
ROMANC
 72
     4
 11
962170.070386
 21
7253815.479588
 31
0.0
210
0.0
220
0.0
230
1.0
  0
TEXT
  8
15
  6
CONTINUOUS
 62
    30
  5
52
 10
959050.077
 20
7254469.713
 30
0.0
 40
50.0
  1
ASCO
 50
43.0988
  7
ROMANC
 72
     4
 11
959105.433436
 21
7254555.750756
 31
0.0
210
0.0
220
0.0
230
1.0
  0
TEXT
  8
15
  6
CONTINUOUS
 62
    30
  5
53
 10
958838.909
 20
7253967.24
 30
0.0
 40
50.0
  1
HENDERSON
 50
43.0988
  7
ROMANC
 72
     4
 11
959002.923014
 21
7254154.95345
 31
0.0
210
0.0
220
0.0
230
1.0
  0
TEXT
  8
15
  6
CONTINUOUS
 62
    30
  5
54
 10
957469.695
 20
7253956.861
 30
0.0
 40
50.0
  1
NELSON
 50
28.0988
  7
ROMANC
 72
     4
 11
957597.52536
 21
7254053.452893
 31
0.0
210
0.0
220
0.0
230
1.0
  0
TEXT
  8
15
  6
CONTINUOUS
 62
    30
  5
55
 10
957526.499
 20
7253873.402
 30
0.0
 40
50.0
  1
ELECTRIC
 50
28.0988
  7
ROMANC
 72
     4
 11
957686.62615
 21
7253987.237903
 31
0.0
210
0.0
220
0.0
230
1.0
  0
TEXT
  8
11
  6
CONTINUOUS
 62
     7
  5
57
 10
957637.327
 20
7254157.989
 30
0.0
 40
8.0
  1
400'
 50
358.0988
  7
ROMANS
210
0.0
220
0.0
230
1.0
  0
TEXT
  8
11
  6
CONTINUOUS
 62
     7
  5
58
 10
957616.455
 20
7253771.068
 30
0.0
 40
8.0
  1
400'
 50
358.0988
  7
ROMANS
210
0.0
220
0.0
230
1.0
  0
TEXT
  8
11
  6
CONTINUOUS
 62
     7
  5
59
 10
957416.668
 20
7253821.071
 30
0.0
 40
8.0
  1
75'
 50
358.0988
  7
ROMANS
210
0.0
220
0.0
230
1.0
  0
TEXT
  8
11
  6
CONTINUOUS
 62
     7
  5
5A
 10
957429.746
 20
7254190.906
 30
0.0
 40
8.0
  1
75'
 50
358.0988
  7
ROMANS
210
0.0
220
0.0
230
1.0
  0
TEXT
  8
11
  6
CONTINUOUS
 62
     7
  5
5B
 10
957491.033
 20
7253989.055
 30
0.0
 40
8.0
  1
400'
 50
88.0988
  7
ROMANS
210
0.0
220
0.0
230
1.0
  0
TEXT
  8
11
  6
CONTINUOUS
 62
     7
  5
5C
 10
957440.293
 20
7254927.054
 30
0.0
 40
8.0
  1
60'
 50
337.398789
  7
ROMANS
210
0.0
220
0.0
230
1.0
  0
TEXT
  8
11
  6
CONTINUOUS
 62
     7
  5
5D
 10
957502.173
 20
7254901.293
 30
0.0
 40
8.0
  1
60'
 50
337.398789
  7
ROMANS
210
0.0
220
0.0
230
1.0
  0
TEXT
  8
11
  6
CONTINUOUS
 62
     7
  5
5E
 10
957381.351
 20
7254490.72
 30
0.0
 40
8.0
  1
92.7'
 50
358.0988
  7
ROMANS
210
0.0
220
0.0
230
1.0
  0
TEXT
  8
11
  6
CONTINUOUS
 62
     7
  5
5F
 10
957852.179
 20
7255085.599
 30
0.0
 40
8.0
  1
N80%%d03'W
 50
348.14905
  7
ROMANS
210
0.0
220
0.0
230
1.0
  0
TEXT
  8
11
  6
CONTINUOUS
 62
     7
  5
60
 10
957857.946
 20
7255068.921
 30
0.0
 40
8.0
  1
468.3'
 50
348.14905
  7
ROMANS
210
0.0
220
0.0
230
1.0
  0
TEXT
  8
11
  6
CONTINUOUS
 62
     7
  5
61
 10
958323.155
 20
7254989.61
 30
0.0
 40
8.0
  1
N73%%d37'W
 50
341.652197
  7
ROMANS
210
0.0
220
0.0
230
1.0
  0
TEXT
  8
11
  6
CONTINUOUS
 62
     7
  5
62
 10
957566.276
 20
7255126.89
 30
0.0
 40
8.0
  1
35'
 50
277.398569
  7
ROMANS
210
0.0
220
0.0
230
1.0
  0
TEXT
  8
11
  6
CONTINUOUS
 62
     7
  5
63
 10
957577.908
 20
7255143.822
 30
0.0
 40
8.0
  1
N9%%d18'W
 50
277.398569
  7
ROMANS
210
0.0
220
0.0
230
1.0
  0
TEXT
  8
11
  6
CONTINUOUS
 62
     7
  5
64
 10
957897.079
 20
7255260.54
 30
0.0
 40
8.0
  1
115'
 50
71.652094
  7
ROMANS
210
0.0
220
0.0
230
1.0
  0
TEXT
  8
11
  6
CONTINUOUS
 62
     7
  5
65
 10
958231.688
 20
7255035.197
 30
0.0
 40
8.0
  1
115'
 50
71.652156
  7
ROMANS
210
0.0
220
0.0
230
1.0
  0
TEXT
  8
11
  6
CONTINUOUS
 62
     7
  5
66
 10
958827.019
 20
7254860.905
 30
0.0
 40
8.0
  1
115'
 50
71.0988
  7
ROMANS
210
0.0
220
0.0
230
1.0
  0
TEXT
  8
11
  6
CONTINUOUS
 62
     7
  5
67
 10
958601.167
 20
7255023.381
 30
0.0
 40
8.0
  1
80'
 50
71.0988
  7
ROMANS
210
0.0
220
0.0
230
1.0
  0
TEXT
  8
11
  6
CONTINUOUS
 62
     7
  5
68
 10
958508.903
 20
7254879.699
 30
0.0
 40
8.0
  1
37.5'
 50
358.0988
  7
ROMANS
210
0.0
220
0.0
230
1.0
  0
TEXT
  8
11
  6
CONTINUOUS
 62
     7
  5
69
 10
958629.952
 20
7254419.858
 30
0.0
 40
8.0
  1
37.5'
 50
88.0988
  7
ROMANS
210
0.0
220
0.0
230
1.0
  0
TEXT
  8
11
  6
CONTINUOUS
 62
     7
  5
6A
 10
958757.176
 20
7254391.301
 30
0.0
 40
8.0
  1
37.5'
 50
358.0988
  7
ROMANS
210
0.0
220
0.0
230
1.0
  0
TEXT
  8
11
  6
CONTINUOUS
 62
     7
  5
6B
 10
958763.488
 20
7254411.014
 30
0.0
 40
8.0
  1
20'
 50
88.0988
  7
ROMANS
210
0.0
220
0.0
230
1.0
  0
TEXT
  8
11
  6
CONTINUOUS
 62
     7
  5
6C
 10
959976.684
 20
7254370.854
 30
0.0
 40
8.0
  1
20'
 50
88.0988
  7
ROMANS
210
0.0
220
0.0
230
1.0
  0
TEXT
  8
11
  6
CONTINUOUS
 62
     7
  5
6D
 10
958547.13
 20
7254683.142
 30
0.0
 40
8.0
  1
415.66'
 50
88.0988
  7
ROMANS
210
0.0
220
0.0
230
1.0
  0
TEXT
  8
11
  6
CONTINUOUS
 62
     7
  5
6E
 10
958757.981
 20
7254591.358
 30
0.0
 40
8.0
  1
390.71'
 50
88.0988
  7
ROMANS
210
0.0
220
0.0
230
1.0
  0
TEXT
  8
11
  6
CONTINUOUS
 62
     7
  5
6F
 10
958973.608
 20
7254557.086
 30
0.0
 40
8.0
  1
361.14'
 50
88.0988
  7
ROMANS
210
0.0
220
0.0
230
1.0
  0
TEXT
  8
11
  6
CONTINUOUS
 62
     7
  5
70
 10
959123.64
 20
7254491.614
 30
0.0
 40
8.0
  1
314.95'
 50
88.0988
  7
ROMANS
210
0.0
220
0.0
230
1.0
  0
TEXT
  8
11
  6
CONTINUOUS
 62
     7
  5
71
 10
959273.918
 20
7254513.841
 30
0.0
 40
8.0
  1
268.76'
 50
88.0988
  7
ROMANS
210
0.0
220
0.0
230
1.0
  0
TEXT
  8
11
  6
CONTINUOUS
 62
     7
  5
72
 10
959425.417
 20
7254489.858
 30
0.0
 40
8.0
  1
222.57'
 50
88.0988
  7
ROMANS
210
0.0
220
0.0
230
1.0
  0
TEXT
  8
11
  6
CONTINUOUS
 62
     7
  5
73
 10
959623.661
 20
7254445.719
 30
0.0
 40
8.0
  1
176.38'
 50
88.0988
  7
ROMANS
210
0.0
220
0.0
230
1.0
  0
TEXT
  8
11
  6
CONTINUOUS
 62
     7
  5
74
 10
958599.437
 20
7254460.885
 30
0.0
 40
8.0
  1
158.38'
 50
358.0988
  7
ROMANS
210
0.0
220
0.0
230
1.0
  0
TEXT
  8
11
  6
CONTINUOUS
 62
     7
  5
75
 10
958706.303
 20
7254458.039
 30
0.0
 40
8.0
  1
46.9'
 50
358.0988
  7
ROMANS
210
0.0
220
0.0
230
1.0
  0
TEXT
  8
11
  6
CONTINUOUS
 62
     7
  5
76
 10
958862.867
 20
7254424.935
 30
0.0
 40
8.0
  1
215'
 50
358.0988
  7
ROMANS
210
0.0
220
0.0
230
1.0
  0
TEXT
  8
11
  6
CONTINUOUS
 62
     7
  5
77
 10
959046.734
 20
7254419.712
 30
0.0
 40
8.0
  1
150'
 50
358.0988
  7
ROMANS
210
0.0
220
0.0
230
1.0
  0
TEXT
  8
11
  6
CONTINUOUS
 62
     7
  5
78
 10
959192.041
 20
7254413.83
 30
0.0
 40
8.0
  1
150'
 50
358.0988
  7
ROMANS
210
0.0
220
0.0
230
1.0
  0
TEXT
  8
11
  6
CONTINUOUS
 62
     7
  5
79
 10
959339.694
 20
7254409.81
 30
0.0
 40
8.0
  1
150'
 50
358.0988
  7
ROMANS
210
0.0
220
0.0
230
1.0
  0
TEXT
  8
11
  6
CONTINUOUS
 62
     7
  5
7A
 10
959495.111
 20
7254406.057
 30
0.0
 40
8.0
  1
150'
 50
358.0988
  7
ROMANS
210
0.0
220
0.0
230
1.0
  0
TEXT
  8
11
  6
CONTINUOUS
 62
     7
  5
7B
 10
959099.651
 20
7254405.104
 30
0.0
 40
8.0
  1
137.93'
 50
358.0988
  7
ROMANS
210
0.0
220
0.0
230
1.0
  0
TEXT
  8
11
  6
CONTINUOUS
 62
     7
  5
7C
 10
958861.488
 20
7254415.863
 30
0.0
 40
8.0
  1
324'
 50
358.0988
  7
ROMANS
210
0.0
220
0.0
230
1.0
  0
TEXT
  8
11
  6
CONTINUOUS
 62
     7
  5
7D
 10
959045.877
 20
7254725.639
 30
0.0
 40
8.0
  1
156.99'
 50
341.651969
  7
ROMANS
210
0.0
220
0.0
230
1.0
  0
TEXT
  8
11
  6
CONTINUOUS
 62
     7
  5
7E
 10
959186.307
 20
7254677.804
 30
0.0
 40
8.0
  1
156.99'
 50
341.651969
  7
ROMANS
210
0.0
220
0.0
230
1.0
  0
TEXT
  8
11
  6
CONTINUOUS
 62
     7
  5
7F
 10
959346.338
 20
7254622.985
 30
0.0
 40
8.0
  1
156.99'
 50
341.651969
  7
ROMANS
210
0.0
220
0.0
230
1.0
  0
TEXT
  8
11
  6
CONTINUOUS
 62
     7
  5
80
 10
959488.056
 20
7254572.817
 30
0.0
 40
8.0
  1
156.99'
 50
341.651969
  7
ROMANS
210
0.0
220
0.0
230
1.0
  0
TEXT
  8
11
  6
CONTINUOUS
 62
     7
  5
81
 10
958584.758
 20
7254881.283
 30
0.0
 40
8.0
  1
277.95'
 50
341.65195
  7
ROMANS
210
0.0
220
0.0
230
1.0
  0
TEXT
  8
11
  6
CONTINUOUS
 62
     7
  5
82
 10
959968.02
 20
7254388.293
 30
0.0
 40
8.0
  1
82.5'
 50
358.0988
  7
ROMANS
210
0.0
220
0.0
230
1.0
  0
TEXT
  8
11
  6
CONTINUOUS
 62
     7
  5
83
 10
959962.914
 20
7254387.809
 30
0.0
 40
8.0
  1
38.42'
 50
88.0988
  7
ROMANS
210
0.0
220
0.0
230
1.0
  0
TEXT
  8
19
  6
CONTINUOUS
 62
     1
  5
84
 10
958504.353
 20
7254420.625
 30
0.0
 40
24.0
  1
74TH ST
 50
358.0988
  7
ROMANC
 72
     4
 11
958593.328327
 21
7254429.678128
 31
0.0
210
0.0
220
0.0
230
1.0
  0
TEXT
  8
11
  6
CONTINUOUS
 62
     7
  5
85
 10
959214.808
 20
7253123.444
 30
0.0
 40
8.0
  1
1215.0'
 50
358.0988
  7
ROMANS
210
0.0
220
0.0
230
1.0
  0
TEXT
  8
11
  6
CONTINUOUS
 62
     7
  5
86
 10
959215.606
 20
7253067.259
 30
0.0
 40
8.0
  1
1320.0'
 50
358.0988
  7
ROMANS
210
0.0
220
0.0
230
1.0
  0
TEXT
  8
11
  6
CONTINUOUS
 62
     7
  5
87
 10
958714.779
 20
7253160.765
 30
0.0
 40
8.0
  1
37.5'
 50
358.0988
  7
ROMANS
210
0.0
220
0.0
230
1.0
  0
TEXT
  8
11
  6
CONTINUOUS
 62
     7
  5
88
 10
959994.781
 20
7253133.606
 30
0.0
 40
8.0
  1
37.5'
 50
358.0988
  7
ROMANS
210
0.0
220
0.0
230
1.0
  0
TEXT
  8
11
  6
CONTINUOUS
 62
     7
  5
89
 10
958795.123
 20
7253092.519
 30
0.0
 40
8.0
  1
37.5'
 50
88.0988
  7
ROMANS
210
0.0
220
0.0
230
1.0
  0
TEXT
  8
11
  6
CONTINUOUS
 62
     7
  5
8A
 10
959975.501
 20
7253054.998
 30
0.0
 40
8.0
  1
37.5'
 50
88.0988
  7
ROMANS
210
0.0
220
0.0
230
1.0
  0
TEXT
  8
11
  6
CONTINUOUS
 62
     7
  5
8B
 10
960195.373
 20
7253788.971
 30
0.0
 40
8.0
  1
200.19'
 50
341.652092
  7
ROMANS
210
0.0
220
0.0
230
1.0
  0
TEXT
  8
11
  6
CONTINUOUS
 62
     7
  5
8C
 10
960418.732
 20
7253714.895
 30
0.0
 40
8.0
  1
227.91'
 50
341.652092
  7
ROMANS
210
0.0
220
0.0
230
1.0
  0
TEXT
  8
11
  6
CONTINUOUS
 62
     7
  5
8D
 10
961031.632
 20
7253511.629
 30
0.0
 40
8.0
  1
151.94'
 50
341.652092
  7
ROMANS
210
0.0
220
0.0
230
1.0
  0
TEXT
  8
11
  6
CONTINUOUS
 62
     7
  5
8E
 10
961213.24
 20
7253451.399
 30
0.0
 40
8.0
  1
227.91'
 50
341.652092
  7
ROMANS
210
0.0
220
0.0
230
1.0
  0
TEXT
  8
11
  6
CONTINUOUS
 62
     7
  5
8F
 10
961375.847
 20
7254202.149
 30
0.0
 40
8.0
  1
233.75'
 50
341.652114
  7
ROMANS
210
0.0
220
0.0
230
1.0
  0
TEXT
  8
11
  6
CONTINUOUS
 62
     7
  5
90
 10
961121.797
 20
7254284.321
 30
0.0
 40
8.0
  1
418.05'
 50
341.652114
  7
ROMANS
210
0.0
220
0.0
230
1.0
  0
TEXT
  8
11
  6
CONTINUOUS
 62
     7
  5
91
 10
961533.464
 20
7254149.876
 30
0.0
 40
8.0
  1
89.66'
 50
341.652114
  7
ROMANS
210
0.0
220
0.0
230
1.0
  0
TEXT
  8
11
  6
CONTINUOUS
 62
     7
  5
92
 10
961621.093
 20
7254120.815
 30
0.0
 40
8.0
  1
89.66'
 50
341.652114
  7
ROMANS
210
0.0
220
0.0
230
1.0
  0
TEXT
  8
11
  6
CONTINUOUS
 62
     7
  5
93
 10
961696.921
 20
7254095.666
 30
0.0
 40
8.0
  1
75.08'
 50
341.652114
  7
ROMANS
210
0.0
220
0.0
230
1.0
  0
TEXT
  8
11
  6
CONTINUOUS
 62
     7
  5
94
 10
961764.689
 20
7254073.192
 30
0.0
 40
8.0
  1
75.08'
 50
341.652114
  7
ROMANS
210
0.0
220
0.0
230
1.0
  0
TEXT
  8
11
  6
CONTINUOUS
 62
     7
  5
95
 10
960232.698
 20
7254329.127
 30
0.0
 40
8.0
  1
200.19'
 50
341.651994
  7
ROMANS
210
0.0
220
0.0
230
1.0
  0
TEXT
  8
11
  6
CONTINUOUS
 62
     7
  5
96
 10
960432.26
 20
7254262.943
 30
0.0
 40
8.0
  1
227.91'
 50
341.651994
  7
ROMANS
210
0.0
220
0.0
230
1.0
  0
TEXT
  8
11
  6
CONTINUOUS
 62
     7
  5
97
 10
961036.788
 20
7254062.453
 30
0.0
 40
8.0
  1
151.94'
 50
341.652003
  7
ROMANS
210
0.0
220
0.0
230
1.0
  0
TEXT
  8
11
  6
CONTINUOUS
 62
     7
  5
98
 10
961228.989
 20
7253998.709
 30
0.0
 40
8.0
  1
227.91'
 50
341.652003
  7
ROMANS
210
0.0
220
0.0
230
1.0
  0
TEXT
  8
11
  6
CONTINUOUS
 62
     7
  5
99
 10
961535.728
 20
7253933.853
 30
0.0
 40
8.0
  1
455.83'
 50
341.652108
  7
ROMANS
210
0.0
220
0.0
230
1.0
  0
TEXT
  8
11
  6
CONTINUOUS
 62
     7
  5
9A
 10
961140.439
 20
7254339.147
 30
0.0
 40
8.0
  1
399.49'
 50
358.785997
  7
ROMANS
210
0.0
220
0.0
230
1.0
  0
TEXT
  8
11
  6
CONTINUOUS
 62
     7
  5
9B
 10
961384.366
 20
7254337.885
 30
0.0
 40
8.0
  1
223.38'
 50
358.785997
  7
ROMANS
210
0.0
220
0.0
230
1.0
  0
TEXT
  8
11
  6
CONTINUOUS
 62
     7
  5
9C
 10
961531.156
 20
7254334.774
 30
0.0
 40
8.0
  1
85.68'
 50
358.785997
  7
ROMANS
210
0.0
220
0.0
230
1.0
  0
TEXT
  8
11
  6
CONTINUOUS
 62
     7
  5
9D
 10
961621.556
 20
7254332.859
 30
0.0
 40
8.0
  1
85.68'
 50
358.785997
  7
ROMANS
210
0.0
220
0.0
230
1.0
  0
TEXT
  8
11
  6
CONTINUOUS
 62
     7
  5
9E
 10
961700.597
 20
7254331.184
 30
0.0
 40
8.0
  1
71.75'
 50
358.785997
  7
ROMANS
210
0.0
220
0.0
230
1.0
  0
TEXT
  8
11
  6
CONTINUOUS
 62
     7
  5
9F
 10
961768.369
 20
7254329.748
 30
0.0
 40
8.0
  1
71.75'
 50
358.785997
  7
ROMANS
210
0.0
220
0.0
230
1.0
  0
TEXT
  8
11
  6
CONTINUOUS
 62
     7
  5
A0
 10
960211.274
 20
7254028.978
 30
0.0
 40
8.0
  1
563.39'
 50
88.0988
  7
ROMANS
210
0.0
220
0.0
230
1.0
  0
TEXT
  8
11
  6
CONTINUOUS
 62
     7
  5
A1
 10
960363.066
 20
7253988.649
 30
0.0
 40
8.0
  1
563.39'
 50
88.0988
  7
ROMANS
210
0.0
220
0.0
230
1.0
  0
TEXT
  8
11
  6
CONTINUOUS
 62
     7
  5
A2
 10
960614.105
 20
7253918.576
 30
0.0
 40
8.0
  1
563.39'
 50
88.0988
  7
ROMANS
210
0.0
220
0.0
230
1.0
  0
TEXT
  8
11
  6
CONTINUOUS
 62
     7
  5
A3
 10
960987.223
 20
7253783.216
 30
0.0
 40
8.0
  1
563.39'
 50
88.0988
  7
ROMANS
210
0.0
220
0.0
230
1.0
  0
TEXT
  8
11
  6
CONTINUOUS
 62
     7
  5
A4
 10
961154.616
 20
7253719.23
 30
0.0
 40
8.0
  1
563.39'
 50
88.0988
  7
ROMANS
210
0.0
220
0.0
230
1.0
  0
TEXT
  8
11
  6
CONTINUOUS
 62
     7
  5
A5
 10
961374.625
 20
7253651.611
 30
0.0
 40
8.0
  1
563.39'
 50
88.0988
  7
ROMANS
210
0.0
220
0.0
230
1.0
  0
TEXT
  8
11
  6
CONTINUOUS
 62
     7
  5
A6
 10
960851.513
 20
7254350.395
 30
0.0
 40
8.0
  1
118.8'
 50
358.0988
  7
ROMANS
210
0.0
220
0.0
230
1.0
  0
TEXT
  8
15
  6
CONTINUOUS
 62
    30
  5
A7
 10
961257.193
 20
7253195.362
 30
0.0
 40
50.0
  1
BENNETT-KERR
 50
43.0988
  7
ROMANC
 72
     4
 11
961475.968068
 21
7253434.317786
 31
0.0
210
0.0
220
0.0
230
1.0
  0
TEXT
  8
15
  6
CONTINUOUS
 62
    30
  5
A8
 10
960085.193
 20
7253673.946
 30
0.0
 40
50.0
  1
BENNETT-KERR
 50
43.0988
  7
ROMANC
 72
     4
 11
960303.968068
 21
7253912.901786
 31
0.0
210
0.0
220
0.0
230
1.0
  0
TEXT
  8
15
  6
CONTINUOUS
 62
    30
  5
A9
 10
962025.692
 20
7254130.95
 30
0.0
 40
50.0
  1
BENNETT-KERR
 50
43.0988
  7
ROMANC
 72
     4
 11
962244.467068
 21
7254369.905786
 31
0.0
210
0.0
220
0.0
230
1.0
  0
TEXT
  8
15
  6
CONTINUOUS
 62
    30
  5
AA
 10
962777.485
 20
7254005.827
 30
0.0
 40
50.0
  1
H AND M
 50
43.0988
  7
ROMANC
 72
     4
 11
962910.599402
 21
7254164.626318
 31
0.0
210
0.0
220
0.0
230
1.0
  0
TEXT
  8
15
  6
CONTINUOUS
 62
    30
  5
AB
 10
962768.886
 20
7253770.043
 30
0.0
 40
50.0
  1
INVESTMENT
 50
43.0988
  7
ROMANC
 72
     4
 11
962944.255721
 21
7253968.382486
 31
0.0
210
0.0
220
0.0
230
1.0
  0
TEXT
  8
11
  6
CONTINUOUS
 62
     7
  5
AC
 10
962798.129
 20
7254306.635
 30
0.0
 40
8.0
  1
183'
 50
358.0988
  7
ROMANS
210
0.0
220
0.0
230
1.0
  0
TEXT
  8
11
  6
CONTINUOUS
 62
     7
  5
AD
 10
962739.729
 20
7253992.583
 30
0.0
 40
8.0
  1
567.04'
 50
88.0988
  7
ROMANS
210
0.0
220
0.0
230
1.0
  0
TEXT
  8
11
  6
CONTINUOUS
 62
     7
  5
AE
 10
962898.144
 20
7253993.793
 30
0.0
 40
8.0
  1
623.36'
 50
88.0988
  7
ROMANS
210
0.0
220
0.0
230
1.0
  0
TEXT
  8
11
  6
CONTINUOUS
 62
     7
  5
AF
 10
963104.076
 20
7253965.934
 30
0.0
 40
8.0
  1
686.36'
 50
88.0988
  7
ROMANS
210
0.0
220
0.0
230
1.0
  0
TEXT
  8
11
  6
CONTINUOUS
 62
     7
  5
B0
 10
963124.525
 20
7253949.083
 30
0.0
 40
8.0
  1
S0%%d42'35"E
 50
88.0988
  7
ROMANS
210
0.0
220
0.0
230
1.0
  0
TEXT
  8
11
  6
CONTINUOUS
 62
     7
  5
B1
 10
962957.545
 20
7253677.586
 30
0.0
 40
8.0
  1
214.1'
 50
341.652136
  7
ROMANS
210
0.0
220
0.0
230
1.0
  0
TEXT
  8
11
  6
CONTINUOUS
 62
     7
  5
B2
 10
962786.753
 20
7253734.227
 30
0.0
 40
8.0
  1
191.47'
 50
341.652136
  7
ROMANS
210
0.0
220
0.0
230
1.0
  0
TEXT
  8
11
  6
CONTINUOUS
 62
     7
  5
B3
 10
962406.409
 20
7253860.367
 30
0.0
 40
8.0
  1
156.95'
 50
341.652017
  7
ROMANS
210
0.0
220
0.0
230
1.0
  0
TEXT
  8
11
  6
CONTINUOUS
 62
     7
  5
B4
 10
962955.847
 20
7254318.586
 30
0.0
 40
8.0
  1
N89%%d17'25"E
 50
358.785997
  7
ROMANS
210
0.0
220
0.0
230
1.0
  0
TEXT
  8
11
  6
CONTINUOUS
 62
     7
  5
B5
 10
962036.037
 20
7253731.053
 30
0.0
 40
8.0
  1
555.8'
 50
341.651981
  7
ROMANS
210
0.0
220
0.0
230
1.0
  0
TEXT
  8
11
  6
CONTINUOUS
 62
     7
  5
B6
 10
962337.362
 20
7253631.119
 30
0.0
 40
8.0
  1
75.97'
 50
341.651981
  7
ROMANS
210
0.0
220
0.0
230
1.0
  0
TEXT
  8
11
  6
CONTINUOUS
 62
     7
  5
B7
 10
962486.457
 20
7253581.672
 30
0.0
 40
8.0
  1
251.5'
 50
341.651981
  7
ROMANS
210
0.0
220
0.0
230
1.0
  0
TEXT
  8
11
  6
CONTINUOUS
 62
     7
  5
B8
 10
962597.176
 20
7253294.114
 30
0.0
 40
8.0
  1
563.39'
 50
88.0988
  7
ROMANS
210
0.0
220
0.0
230
1.0
  0
TEXT
  8
11
  6
CONTINUOUS
 62
     7
  5
B9
 10
962730.479
 20
7253713.101
 30
0.0
 40
8.0
  1
36.62'
 50
88.0988
  7
ROMANS
210
0.0
220
0.0
230
1.0
  0
TEXT
  8
11
  6
CONTINUOUS
 62
     7
  5
BA
 10
962669.482
 20
7253696.554
 30
0.0
 40
8.0
  1
80'
 50
71.651936
  7
ROMANS
210
0.0
220
0.0
230
1.0
  0
TEXT
  8
11
  6
CONTINUOUS
 62
     7
  5
BB
 10
962812.702
 20
7253591.044
 30
0.0
 40
8.0
  1
80'
 50
71.652228
  7
ROMANS
210
0.0
220
0.0
230
1.0
  0
TEXT
  8
11
  6
CONTINUOUS
 62
     7
  5
BC
 10
961964.354
 20
7254139.683
 30
0.0
 40
8.0
  1
327.97'
 50
88.0988
  7
ROMANS
210
0.0
220
0.0
230
1.0
  0
TEXT
  8
11
  6
CONTINUOUS
 62
     7
  5
BD
 10
962083.381
 20
7254121.584
 30
0.0
 40
8.0
  1
362.02'
 50
88.0988
  7
ROMANS
210
0.0
220
0.0
230
1.0
  0
TEXT
  8
11
  6
CONTINUOUS
 62
     7
  5
BE
 10
961960.718
 20
7253964.59
 30
0.0
 40
8.0
  1
36.61'
 50
88.0988
  7
ROMANS
210
0.0
220
0.0
230
1.0
  0
TEXT
  8
11
  6
CONTINUOUS
 62
     7
  5
BF
 10
961817.226
 20
7254015.606
 30
0.0
 40
8.0
  1
36.61'
 50
88.0988
  7
ROMANS
210
0.0
220
0.0
230
1.0
  0
TEXT
  8
11
  6
CONTINUOUS
 62
     7
  5
C0
 10
961822.911
 20
7254170.498
 30
0.0
 40
8.0
  1
289.09'
 50
88.0988
  7
ROMANS
210
0.0
220
0.0
230
1.0
  0
TEXT
  8
11
  6
CONTINUOUS
 62
     7
  5
C1
 10
961752.589
 20
7254181.538
 30
0.0
 40
8.0
  1
266.97'
 50
88.0988
  7
ROMANS
210
0.0
220
0.0
230
1.0
  0
TEXT
  8
11
  6
CONTINUOUS
 62
     7
  5
C2
 10
961680.13
 20
7254193.737
 30
0.0
 40
8.0
  1
244.85'
 50
88.0988
  7
ROMANS
210
0.0
220
0.0
230
1.0
  0
TEXT
  8
11
  6
CONTINUOUS
 62
     7
  5
C3
 10
961594.851
 20
7254212.893
 30
0.0
 40
8.0
  1
218.44'
 50
88.0988
  7
ROMANS
210
0.0
220
0.0
230
1.0
  0
TEXT
  8
11
  6
CONTINUOUS
 62
     7
  5
C4
 10
961509.501
 20
7254229.874
 30
0.0
 40
8.0
  1
192.03'
 50
88.0988
  7
ROMANS
210
0.0
220
0.0
230
1.0
  0
TEXT
  8
11
  6
CONTINUOUS
 62
     7
  5
C5
 10
961286.255
 20
7254286.258
 30
0.0
 40
8.0
  1
123'
 50
88.0988
  7
ROMANS
210
0.0
220
0.0
230
1.0
  0
TEXT
  8
11
  6
CONTINUOUS
 62
     7
  5
C6
 10
962183.752
 20
7254112.729
 30
0.0
 40
8.0
  1
395.32'
 50
88.0988
  7
ROMANS
210
0.0
220
0.0
230
1.0
  0
TEXT
  8
11
  6
CONTINUOUS
 62
     7
  5
C7
 10
962373.699
 20
7254085.203
 30
0.0
 40
8.0
  1
453.59'
 50
88.0988
  7
ROMANS
210
0.0
220
0.0
230
1.0
  0
TEXT
  8
11
  6
CONTINUOUS
 62
     7
  5
C8
 10
962501.725
 20
7254059.731
 30
0.0
 40
8.0
  1
500.78'
 50
88.0988
  7
ROMANS
210
0.0
220
0.0
230
1.0
  0
TEXT
  8
11
  6
CONTINUOUS
 62
     7
  5
C9
 10
961502.527
 20
7253355.459
 30
0.0
 40
8.0
  1
455.83'
 50
341.652092
  7
ROMANS
210
0.0
220
0.0
230
1.0
  0
TEXT
  8
11
  6
CONTINUOUS
 62
     7
  5
CA
 10
961999.709
 20
7253190.57
 30
0.0
 40
8.0
  1
555.8'
 50
341.652092
  7
ROMANS
210
0.0
220
0.0
230
1.0
  0
TEXT
  8
11
  6
CONTINUOUS
 62
     7
  5
CB
 10
962323.146
 20
7253083.303
 30
0.0
 40
8.0
  1
75.97'
 50
341.652092
  7
ROMANS
210
0.0
220
0.0
230
1.0
  0
TEXT
  8
11
  6
CONTINUOUS
 62
     7
  5
CC
 10
962470.131
 20
7253034.556
 30
0.0
 40
8.0
  1
251.15'
 50
341.652092
  7
ROMANS
210
0.0
220
0.0
230
1.0
  0
TEXT
  8
11
  6
CONTINUOUS
 62
     7
  5
CD
 10
961885.39
 20
7253192.663
 30
0.0
 40
8.0
  1
882.92'
 50
341.652092
  7
ROMANS
210
0.0
220
0.0
230
1.0
  0
TEXT
  8
11
  6
CONTINUOUS
 62
     7
  5
CE
 10
960709.319
 20
7253582.703
 30
0.0
 40
8.0
  1
1879.68'
 50
341.652092
  7
ROMANS
210
0.0
220
0.0
230
1.0
  0
TEXT
  8
11
  6
CONTINUOUS
 62
     7
  5
CF
 10
962612.459
 20
7253307.125
 30
0.0
 40
8.0
  1
600'
 50
88.0988
  7
ROMANS
210
0.0
220
0.0
230
1.0
  0
TEXT
  8
11
  6
CONTINUOUS
 62
     7
  5
D0
 10
962725.557
 20
7256652.252
 30
0.0
 40
8.0
  1
770.55'
 50
88.0988
  7
ROMANS
210
0.0
220
0.0
230
1.0
  0
TEXT
  8
11
  6
CONTINUOUS
 62
     7
  5
D1
 10
962831.347
 20
7256662.586
 30
0.0
 40
8.0
  1
835.35'
 50
88.0988
  7
ROMANS
210
0.0
220
0.0
230
1.0
  0
TEXT
  8
11
  6
CONTINUOUS
 62
     7
  5
D2
 10
963279.164
 20
7256157.428
 30
0.0
 40
8.0
  1
2322.0'
 50
10.970628
  7
ROMANS
210
0.0
220
0.0
230
1.0
  0
TEXT
  8
15
  6
CONTINUOUS
 62
    30
  5
D3
 10
962376.305
 20
7256103.855
 30
0.0
 40
50.0
  1
THOMAS-NELSON
 50
43.0988
  7
ROMANC
 72
     4
 11
962614.913854
 21
7256361.370137
 31
0.0
210
0.0
220
0.0
230
1.0
  0
TEXT
  8
11
  6
CONTINUOUS
 62
     7
  5
D4
 10
960988.966
 20
7255858.288
 30
0.0
 40
8.0
  1
2933.6'
 50
358.0988
  7
ROMANS
210
0.0
220
0.0
230
1.0
  0
TEXT
  8
11
  6
CONTINUOUS
 62
     7
  5
D5
 10
962848.982
 20
7255820.246
 30
0.0
 40
8.0
  1
2305.1'2305.1'
 50
4.912867
  7
ROMANS
210
0.0
220
0.0
230
1.0
  0
TEXT
  8
19
  6
CONTINUOUS
 62
     1
  5
D6
 10
960872.762
 20
7257002.874
 30
0.0
 40
24.0
  1
66TH STREET
 50
358.0988
  7
ROMANC
 72
     4
 11
961012.729241
 21
7257010.234483
 31
0.0
210
0.0
220
0.0
230
1.0
  0
TEXT
  8
19
  6
CONTINUOUS
 62
     1
  5
D7
 10
960670.36
 20
7255995.198
 30
0.0
 40
24.0
  1
LOOP 289
 50
358.0988
  7
ROMANC
 72
     4
 11
960768.495281
 21
7256003.947069
 31
0.0
210
0.0
220
0.0
230
1.0
  0
TEXT
  8
19
  6
CONTINUOUS
 62
     1
  5
D8
 10
958378.165
 20
7255862.878
 30
0.0
 40
24.0
  1
LOOP 289
 50
14.879894
  7
ROMANC
 72
     4
 11
958469.596143
 21
7255899.587961
 31
0.0
210
0.0
220
0.0
230
1.0
  0
TEXT
  8
11
  6
CONTINUOUS
 62
     7
  5
D9
 10
958172.684
 20
7255454.521
 30
0.0
 40
8.0
  1
430.41'
 50
88.0988
  7
ROMANS
210
0.0
220
0.0
230
1.0
  0
TEXT
  8
11
  6
CONTINUOUS
 62
     7
  5
DA
 10
958048.669
 20
7255434.089
 30
0.0
 40
8.0
  1
317.5'
 50
88.0988
  7
ROMANS
210
0.0
220
0.0
230
1.0
  0
TEXT
  8
11
  6
CONTINUOUS
 62
     7
  5
DB
 10
957842.874
 20
7255451.485
 30
0.0
 40
8.0
  1
R=110'
 50
358.0988
  7
ROMANS
210
0.0
220
0.0
230
1.0
  0
TEXT
  8
11
  6
CONTINUOUS
 62
     7
  5
DC
 10
957842.978
 20
7255471.703
 30
0.0
 40
8.0
  1
268'
 50
73.8028
  7
ROMANS
210
0.0
220
0.0
230
1.0
  0
TEXT
  8
11
  6
CONTINUOUS
 62
     7
  5
DD
 10
957941.867
 20
7255562.471
 30
0.0
 40
8.0
  1
149.7'
 50
22.148803
  7
ROMANS
210
0.0
220
0.0
230
1.0
  0
TEXT
  8
11
  6
CONTINUOUS
 62
     7
  5
DE
 10
957979.919
 20
7255331.841
 30
0.0
 40
8.0
  1
150'
 50
341.652125
  7
ROMANS
210
0.0
220
0.0
230
1.0
  0
TEXT
  8
11
  6
CONTINUOUS
 62
     7
  5
DF
 10
958111.98
 20
7255288.009
 30
0.0
 40
8.0
  1
125.85'
 50
341.652125
  7
ROMANS
210
0.0
220
0.0
230
1.0
  0
TEXT
  8
11
  6
CONTINUOUS
 62
     7
  5
E0
 10
958020.538
 20
7255595.178
 30
0.0
 40
8.0
  1
23.55'
 50
21.136294
  7
ROMANS
210
0.0
220
0.0
230
1.0
  0
TEXT
  8
11
  6
CONTINUOUS
 62
     7
  5
E1
 10
958107.671
 20
7255629.975
 30
0.0
 40
8.0
  1
130.84'
 50
20.738978
  7
ROMANS
210
0.0
220
0.0
230
1.0
  0
TEXT
  8
11
  6
CONTINUOUS
 62
     7
  5
E2
 10
958973.578
 20
7255846.066
 30
0.0
 40
8.0
  1
1496.6'
 50
7.498667
  7
ROMANS
210
0.0
220
0.0
230
1.0
  0
TEXT
  8
11
  6
CONTINUOUS
 62
     7
  5
E3
 10
958946.969
 20
7256158.778
 30
0.0
 40
8.0
  1
1496.6'
 50
7.292022
  7
ROMANS
210
0.0
220
0.0
230
1.0
  0
TEXT
  8
11
  6
CONTINUOUS
 62
     7
  5
E4
 10
960012.775
 20
7256067.474
 30
0.0
 40
8.0
  1
150'
 50
88.0988
  7
ROMANS
210
0.0
220
0.0
230
1.0
  0
TEXT
  8
11
  6
CONTINUOUS
 62
     7
  5
E5
 10
960015.112
 20
7255904.815
 30
0.0
 40
8.0
  1
150'
 50
88.0988
  7
ROMANS
210
0.0
220
0.0
230
1.0
  0
TEXT
  8
11
  6
CONTINUOUS
 62
     7
  5
E6
 10
963248.829
 20
7254301.98
 30
0.0
 40
8.0
  1
229.77'
 50
358.0988
  7
ROMANS
210
0.0
220
0.0
230
1.0
  0
TEXT
  8
11
  6
CONTINUOUS
 62
     7
  5
E7
 10
963358.538
 20
7253922.892
 30
0.0
 40
8.0
  1
757.08'
 50
88.0988
  7
ROMANS
210
0.0
220
0.0
230
1.0
  0
TEXT
  8
11
  6
CONTINUOUS
 62
     7
  5
E8
 10
963353.473
 20
7253519.764
 30
0.0
 40
8.0
  1
36.6'
 50
88.0988
  7
ROMANS
210
0.0
220
0.0
230
1.0
  0
TEXT
  8
11
  6
CONTINUOUS
 62
     7
  5
E9
 10
963656.506
 20
7253381.433
 30
0.0
 40
8.0
  1
80'
 50
71.652228
  7
ROMANS
210
0.0
220
0.0
230
1.0
  0
TEXT
  8
11
  6
CONTINUOUS
 62
     7
  5
EA
 10
963665.519
 20
7253278.301
 30
0.0
 40
8.0
  1
80'
 50
71.652228
  7
ROMANS
210
0.0
220
0.0
230
1.0
  0
TEXT
  8
15
  6
CONTINUOUS
 62
    30
  5
EB
 10
963059.74
 20
7253869.701
 30
0.0
 40
50.0
  1
BOSWELL
 50
43.0988
  7
ROMANC
 72
     4
 11
963178.3363
 21
7254014.915089
 31
0.0
210
0.0
220
0.0
230
1.0
  0
TEXT
  8
11
  6
CONTINUOUS
 62
     7
  5
EC
 10
962993.563
 20
7254298.193
 30
0.0
 40
8.0
  1
204.58'
 50
358.0988
  7
ROMANS
210
0.0
220
0.0
230
1.0
  0
TEXT
  8
11
  6
CONTINUOUS
 62
     7
  5
ED
 10
963191.11
 20
7253600.124
 30
0.0
 40
8.0
  1
240.46'
 50
341.652136
  7
ROMANS
210
0.0
220
0.0
230
1.0
  0
TEXT
  8
11
  6
CONTINUOUS
 62
     7
  5
EE
 10
962605.174
 20
7252968.498
 30
0.0
 40
8.0
  1
20'
 50
71.652047
  7
ROMANS
210
0.0
220
0.0
230
1.0
  0
TEXT
  8
11
  6
CONTINUOUS
 62
     7
  5
EF
 10
960085.699
 20
7253794.857
 30
0.0
 40
8.0
  1
20'
 50
71.652047
  7
ROMANS
210
0.0
220
0.0
230
1.0
  0
TEXT
  8
11
  6
CONTINUOUS
 62
     7
  5
F0
 10
961678.999
 20
7253974.254
 30
0.0
 40
8.0
  1
S73%%d37'E
 50
341.652181
  7
ROMANS
210
0.0
220
0.0
230
1.0
  0
TEXT
  8
11
  6
CONTINUOUS
 62
     7
  5
F1
 10
963778.329
 20
7256305.962
 30
0.0
 40
8.0
  1
354.38'
 50
19.098647
  7
ROMANS
210
0.0
220
0.0
230
1.0
  0
TEXT
  8
11
  6
CONTINUOUS
 62
     7
  5
F2
 10
963674.742
 20
7256566.714
 30
0.0
 40
8.0
  1
648.7'
 50
88.0988
  7
ROMANS
210
0.0
220
0.0
230
1.0
  0
TEXT
  8
11
  6
CONTINUOUS
 62
     7
  5
F3
 10
963738.051
 20
7256931.458
 30
0.0
 40
8.0
  1
179'
 50
358.0988
  7
ROMANS
210
0.0
220
0.0
230
1.0
  0
TEXT
  8
15
  6
CONTINUOUS
 62
    30
  5
F4
 10
963737.631
 20
7256721.312
 30
0.0
 40
50.0
  1
CITY
 50
43.0988
  7
ROMANC
 72
     4
 11
963786.951067
 21
7256801.701258
 31
0.0
210
0.0
220
0.0
230
1.0
  0
TEXT
  8
15
  6
CONTINUOUS
 62
    30
  5
F5
 10
963746.162
 20
7256404.445
 30
0.0
 40
50.0
  1
PROP
 50
43.0988
  7
ROMANC
 72
     4
 11
963804.967791
 21
7256493.710469
 31
0.0
210
0.0
220
0.0
230
1.0
  0
TEXT
  8
11
  6
CONTINUOUS
 62
     7
  5
F6
 10
961996.347
 20
7254323.38
 30
0.0
 40
8.0
  1
113.7'
 50
358.0988
  7
ROMANS
210
0.0
220
0.0
230
1.0
  0
TEXT
  8
11
  6
CONTINUOUS
 62
     7
  5
F7
 10
962103.929
 20
7254320.897
 30
0.0
 40
8.0
  1
104.8'
 50
358.0988
  7
ROMANS
210
0.0
220
0.0
230
1.0
  0
TEXT
  8
11
  6
CONTINUOUS
 62
     7
  5
F8
 10
962247.358
 20
7254317.225
 30
0.0
 40
8.0
  1
189'
 50
358.0988
  7
ROMANS
210
0.0
220
0.0
230
1.0
  0
TEXT
  8
11
  6
CONTINUOUS
 62
     7
  5
F9
 10
962429.894
 20
7254312.253
 30
0.0
 40
8.0
  1
150'
 50
358.0988
  7
ROMANS
210
0.0
220
0.0
230
1.0
  0
TEXT
  8
11
  6
CONTINUOUS
 62
     7
  5
FA
 10
961984.426
 20
7254001.995
 30
0.0
 40
8.0
  1
118.98'
 50
341.0988
  7
ROMANS
210
0.0
220
0.0
230
1.0
  0
TEXT
  8
11
  6
CONTINUOUS
 62
     7
  5
FB
 10
962095.234
 20
7253965.668
 30
0.0
 40
8.0
  1
109.66'
 50
341.0988
  7
ROMANS
210
0.0
220
0.0
230
1.0
  0
TEXT
  8
11
  6
CONTINUOUS
 62
     7
  5
FC
 10
962229.688
 20
7253920.939
 30
0.0
 40
8.0
  1
197.78'
 50
341.0988
  7
ROMANS
210
0.0
220
0.0
230
1.0
  0
TEXT
  8
22
  6
CONTINUOUS
 62
     3
  5
FE
 10
957629.888
 20
7254025.156
 30
0.0
 40
8.0
  1
20' POWER LINE EASEMENT SPS
 50
358.941636
  7
ROMANS
210
0.0
220
0.0
230
1.0
  0
TEXT
  8
22
  6
CONTINUOUS
 62
     3
  5
FF
 10
957833.068
 20
7254185.936
 30
0.0
 40
8.0
  1
111.5'
 50
358.0988
  7
ROMANS
210
0.0
220
0.0
230
1.0
  0
TEXT
  8
22
  6
CONTINUOUS
 62
     3
  5
100
 10
957835.766
 20
7253804.227
 30
0.0
 40
8.0
  1
87'
 50
358.0988
  7
ROMANS
210
0.0
220
0.0
230
1.0
  0
LINE
  8
21
  6
DASHDOT
 62
     7
  5
102
 10
957772.805
 20
7254271.999
 30
0.0
 11
957787.112
 21
7253761.753
 31
0.0
  0
TEXT
  8
22
  6
CONTINUOUS
 62
     3
  5
103
 10
957782.927
 20
7253966.825
 30
0.0
 40
8.0
  1
10" GAS LINE
 50
271.606106
  7
ROMANS
210
0.0
220
0.0
230
1.0
  0
LINE
  8
21
  6
DASHDOT
 62
     7
  5
104
 10
960074.597
 20
7254388.64
 30
0.0
 11
962697.353
 21
7253518.848
 31
0.0
  0
TEXT
  8
22
  6
CONTINUOUS
 62
     3
  5
105
 10
960616.789
 20
7254219.952
 30
0.0
 40
8.0
  1
5'WATER LINE EASEMENT
 50
341.652703
  7
ROMANS
210
0.0
220
0.0
230
1.0
  0
LINE
  8
21
  6
DASHDOT
 62
     7
  5
106
 10
961644.398
 20
7253335.209
 30
0.0
 11
962600.852
 21
7254223.652
 31
0.0
  0
TEXT
  8
22
  6
CONTINUOUS
 62
     3
  5
107
 10
962269.973
 20
7253940.921
 30
0.0
 40
8.0
  1
10" GAS LINE
 50
42.888739
  7
ROMANS
210
0.0
220
0.0
230
1.0
  0
TEXT
  8
22
  6
CONTINUOUS
 62
     3
  5
108
 10
962367.539
 20
7253998.443
 30
0.0
 40
8.0
  1
12" GAS LINE
 50
42.888778
  7
ROMANS
210
0.0
220
0.0
230
1.0
  0
LINE
  8
21
  6
DASHDOT
 62
     7
  5
109
 10
961769.532
 20
7254320.72
 30
0.0
 11
961769.85
 21
7254335.716
 31
0.0
  0
LINE
  8
21
  6
DASHDOT
 62
     7
  5
10A
 10
961819.52
 20
7254319.661
 30
0.0
 11
961819.944
 21
7254339.657
 31
0.0
  0
LINE
  8
21
  6
DASHDOT
 62
     7
  5
10B
 10
961834.833
 20
7254334.338
 30
0.0
 11
961834.939
 21
7254339.34
 31
0.0
  0
LINE
  8
21
  6
DASHDOT
 62
     7
  5
10C
 10
961769.85
 20
7254335.716
 30
0.0
 11
961819.838
 21
7254334.656
 31
0.0
  0
TEXT
  8
22
  6
CONTINUOUS
 62
     3
  5
10D
 10
962742.593
 20
7254292.794
 30
0.0
 40
8.0
  1
15' ELECTRIC EASEMENT
 50
358.786103
  7
ROMANS
210
0.0
220
0.0
230
1.0
  0
TEXT
  8
22
  6
CONTINUOUS
 62
     3
  5
10E
 10
957980.521
 20
7255568.548
 30
0.0
 40
8.0
  1
10' UTIL EASEMENT
 50
22.148817
  7
ROMANS
210
0.0
220
0.0
230
1.0
  0
LINE
  8
21
  6
DASHDOT
 62
     7
  5
10F
 10
961169.596
 20
7255847.855
 30
0.0
 11
961156.469
 21
7255230.383
 31
0.0
  0
LINE
  8
21
  6
DASHDOT
 62
     7
  5
110
 10
961109.61
 20
7255849.129
 30
0.0
 11
961096.482
 21
7255231.659
 31
0.0
  0
LINE
  8
21
  6
DASHDOT
 62
     7
  5
111
 10
961096.482
 20
7255231.659
 30
0.0
 11
961156.469
 21
7255230.383
 31
0.0
  0
TEXT
  8
22
  6
CONTINUOUS
 62
     3
  5
112
 10
961115.59
 20
7255530.794
 30
0.0
 40
8.0
  1
600'
 50
88.0988
  7
ROMANS
210
0.0
220
0.0
230
1.0
  0
TEXT
  8
22
  6
CONTINUOUS
 62
     3
  5
113
 10
961134.468
 20
7255474.356
 30
0.0
 40
8.0
  1
DRAINAGE EASEMENT
 50
88.0988
  7
ROMANS
210
0.0
220
0.0
230
1.0
  0
TEXT
  8
22
  6
CONTINUOUS
 62
     3
  5
114
 10
961117.38
 20
7255239.787
 30
0.0
 40
8.0
  1
60'
 50
358.0988
  7
ROMANS
210
0.0
220
0.0
230
1.0
  0
POLYLINE
  8
1
  6
HIDDEN
 62
   253
  5
116
 66
     1
 10
0.0
 20
0.0
 30
0.0
  0
VERTEX
  8
1
  6
HIDDEN
 62
   253
  5
117
 10
963937.692
 20
7256951.479
 30
0.0
  0
VERTEX
  8
1
  6
HIDDEN
 62
   253
  5
118
 10
963773.278
 20
7251709.95
 30
0.0
  0
VERTEX
  8
1
  6
HIDDEN
 62
   253
  5
119
 10
957336.691
 20
7251906.898
 30
0.0
  0
VERTEX
  8
1
  6
HIDDEN
 62
   253
  5
11A
 10
957481.242
 20
7257153.688
 30
0.0
  0
VERTEX
  8
1
  6
HIDDEN
 62
   253
  5
11B
 10
963937.692
 20
7256951.479
 30
0.0
  0
SEQEND
  8
1
  6
HIDDEN
 62
   253
  5
11C
  0
TEXT
  8
11
  6
CONTINUOUS
 62
     7
  5
11D
 10
960881.418
 20
7256954.795
 30
0.0
 40
8.0
  1
1665.37'
 50
358.0988
  7
ROMANS
 72
     4
 11
960910.867557
 21
7256957.819643
 31
0.0
210
0.0
220
0.0
230
1.0
  0
TEXT
  8
11
  6
CONTINUOUS
 62
     7
  5
11E
 10
959193.914
 20
7256630.068
 30
0.0
 40
8.0
  1
847.6'
 50
88.0988
  7
ROMANS
 72
     4
 11
959190.623948
 21
7256651.521961
 31
0.0
210
0.0
220
0.0
230
1.0
  0
TEXT
  8
11
  6
CONTINUOUS
 62
     7
  5
11F
 10
961806.739
 20
7256539.365
 30
0.0
 40
8.0
  1
811.52'
 50
88.0988
  7
ROMANS
 72
     4
 11
961803.581652
 21
7256564.816759
 31
0.0
210
0.0
220
0.0
230
1.0
  0
TEXT
  8
11
  6
CONTINUOUS
 62
     7
  5
120
 10
958288.784
 20
7255684.804
 30
0.0
 40
0.0
  1
9
 50
19.011675
  7
ROMANS
 72
     1
 11
958288.784
 21
7255684.804
 31
0.0
210
0.0
220
0.0
230
1.0
 73
     3
  0
TEXT
  8
11
  6
CONTINUOUS
 62
     7
  5
121
 10
958288.784
 20
7255684.804
 30
0.0
 40
0.0
  1
.
 50
19.011675
  7
ROMANS
 72
     1
 11
958288.784
 21
7255684.804
 31
0.0
210
0.0
220
0.0
230
1.0
 73
     3
  0
TEXT
  8
11
  6
CONTINUOUS
 62
     7
  5
122
 10
958288.784
 20
7255684.804
 30
0.0
 40
0.0
  1
1
 50
19.011675
  7
ROMANS
 72
     1
 11
958288.784
 21
7255684.804
 31
0.0
210
0.0
220
0.0
230
1.0
 73
     3
  0
TEXT
  8
11
  6
CONTINUOUS
 62
     7
  5
123
 10
958288.784
 20
7255684.804
 30
0.0
 40
0.0
  1
3
 50
19.011675
  7
ROMANS
 72
     1
 11
958288.784
 21
7255684.804
 31
0.0
210
0.0
220
0.0
230
1.0
 73
     3
  0
TEXT
  8
11
  6
CONTINUOUS
 62
     7
  5
124
 10
958288.784
 20
7255684.804
 30
0.0
 40
0.0
  1
'
 50
19.011675
  7
ROMANS
 72
     1
 11
958288.784
 21
7255684.804
 31
0.0
210
0.0
220
0.0
230
1.0
 73
     3
  0
TEXT
  8
11
  6
CONTINUOUS
 62
     7
  5
125
 10
958267.694
 20
7255236.368
 30
0.0
 40
8.0
  1
1
 50
341.652125
  7
ROMANS
 72
     1
 11
958268.959234
 21
7255235.948391
 31
0.0
210
0.0
220
0.0
230
1.0
  0
TEXT
  8
11
  6
CONTINUOUS
 62
     7
  5
126
 10
958282.761
 20
7255231.37
 30
0.0
 40
8.0
  1
4
 50
341.652125
  7
ROMANS
 72
     1
 11
958284.975397
 21
7255230.635605
 31
0.0
210
0.0
220
0.0
230
1.0
  0
TEXT
  8
11
  6
CONTINUOUS
 62
     7
  5
127
 10
958290.296
 20
7255228.873
 30
0.0
 40
8.0
  1
.
 50
341.652125
  7
ROMANS
 72
     1
 11
958291.550793
 21
7255228.456853
 31
0.0
210
0.0
220
0.0
230
1.0
  0
TEXT
  8
11
  6
CONTINUOUS
 62
     7
  5
128
 10
958297.828
 20
7255226.373
 30
0.0
 40
8.0
  1
9
 50
341.652125
  7
ROMANS
 72
     1
 11
958300.042397
 21
7255225.638605
 31
0.0
210
0.0
220
0.0
230
1.0
  0
TEXT
  8
11
  6
CONTINUOUS
 62
     7
  5
129
 10
958305.362
 20
7255223.875
 30
0.0
 40
8.0
  1
1
 50
341.652125
  7
ROMANS
 72
     1
 11
958306.627234
 21
7255223.455391
 31
0.0
210
0.0
220
0.0
230
1.0
  0
TEXT
  8
11
  6
CONTINUOUS
 62
     7
  5
12A
 10
958312.895
 20
7255221.377
 30
0.0
 40
8.0
  1
'
 50
341.652125
  7
ROMANS
 72
     1
 11
958314.160234
 21
7255220.957391
 31
0.0
210
0.0
220
0.0
230
1.0
  0
LINE
  8
7
  6
CONTINUOUS
 62
     7
  5
12B
 10
958370.284
 20
7255731.743
 30
0.0
 11
958352.853
 21
7255206.608
 31
0.0
  0
TEXT
  8
11
  6
CONTINUOUS
 62
     7
  5
12C
 10
958358.257
 20
7255430.924
 30
0.0
 40
8.0
  1
526.77'
 50
88.0988
  7
ROMANS
 72
     4
 11
958355.099652
 21
7255456.375759
 31
0.0
210
0.0
220
0.0
230
1.0
  0
TEXT
  8
11
  6
CONTINUOUS
 62
     7
  5
12D
 10
958275.227
 20
7255233.869
 30
0.0
 40
8.0
  1
9
 50
341.652125
  7
ROMANS
 72
     1
 11
958277.441397
 21
7255233.134605
 31
0.0
210
0.0
220
0.0
230
1.0
  0
TEXT
  8
10
  6
CONTINUOUS
 62
   134
  5
12E
 10
958289.323
 20
7255443.391
 30
0.0
 40
13.999
  1
3
 50
358.0988
  7
ROMANS
 11
958289.787432
 21
7255457.382294
 31
0.0
210
0.0
220
0.0
230
1.0
 73
     3
  0
TEXT
  8
15
  6
CONTINUOUS
 62
    30
  5
12F
 10
958152.589
 20
7255359.639
 30
0.0
 40
50.0
  1
WRIGHT
 50
43.0988
  7
ROMANC
 72
     4
 11
958251.351514
 21
7255486.293739
 31
0.0
210
0.0
220
0.0
230
1.0
  0
TEXT
  8
11
  6
CONTINUOUS
 62
     7
  5
130
 10
958257.816
 20
7255224.894
 30
0.0
 40
8.0
  1
N
 50
341.652125
  7
ROMANS
 72
     1
 11
958262.726176
 21
7255231.694042
 31
0.0
210
0.0
220
0.0
230
1.0
 73
     3
  0
TEXT
  8
11
  6
CONTINUOUS
 62
     7
  5
131
 10
958265.349
 20
7255222.395
 30
0.0
 40
8.0
  1
7
 50
341.652125
  7
ROMANS
 72
     1
 11
958270.081682
 21
7255229.253907
 31
0.0
210
0.0
220
0.0
230
1.0
 73
     3
  0
TEXT
  8
11
  6
CONTINUOUS
 62
     7
  5
132
 10
958272.883
 20
7255219.897
 30
0.0
 40
8.0
  1
3
 50
341.652125
  7
ROMANS
 72
     1
 11
958277.615682
 21
7255226.755907
 31
0.0
210
0.0
220
0.0
230
1.0
 73
     3
  0
TEXT
  8
11
  6
CONTINUOUS
 62
     7
  5
133
 10
958280.417
 20
7255217.398
 30
0.0
 40
8.0
  1
%%d
 50
341.652125
  7
ROMANS
 72
     1
 11
958284.299232
 21
7255224.538955
 31
0.0
210
0.0
220
0.0
230
1.0
 73
     3
  0
TEXT
  8
11
  6
CONTINUOUS
 62
     7
  5
134
 10
958287.949
 20
7255214.9
 30
0.0
 40
8.0
  1
3
 50
341.652125
  7
ROMANS
 72
     1
 11
958292.681682
 21
7255221.758907
 31
0.0
210
0.0
220
0.0
230
1.0
 73
     3
  0
TEXT
  8
11
  6
CONTINUOUS
 62
     7
  5
135
 10
958295.483
 20
7255212.401
 30
0.0
 40
8.0
  1
7
 50
341.652125
  7
ROMANS
 72
     1
 11
958300.215682
 21
7255219.259907
 31
0.0
210
0.0
220
0.0
230
1.0
 73
     3
  0
TEXT
  8
11
  6
CONTINUOUS
 62
     7
  5
136
 10
958303.017
 20
7255209.903
 30
0.0
 40
8.0
  1
'
 50
341.652125
  7
ROMANS
 72
     1
 11
958306.800519
 21
7255217.076693
 31
0.0
210
0.0
220
0.0
230
1.0
 73
     3
  0
TEXT
  8
11
  6
CONTINUOUS
 62
     7
  5
137
 10
958310.551
 20
7255207.404
 30
0.0
 40
8.0
  1
W
 50
341.652125
  7
ROMANS
 72
     1
 11
958315.787688
 21
7255214.095756
 31
0.0
210
0.0
220
0.0
230
1.0
 73
     3
  0
TEXT
  8
11
  6
CONTINUOUS
 62
     7
  5
138
 10
959997.231
 20
7254401.168
 30
0.0
 40
8.0
  1
1.88'
 50
328.0988
  7
ROMANS
 72
     4
 11
960014.059859
 21
7254395.404113
 31
0.0
210
0.0
220
0.0
230
1.0
  0
TEXT
  8
15
  6
CONTINUOUS
 62
    30
  5
139
 10
959747.647
 20
7254075.167
 30
0.0
 40
50.0
  1
DJS
 50
43.0988
  7
ROMANC
 72
     4
 11
959778.857957
 21
7254138.610764
 31
0.0
210
0.0
220
0.0
230
1.0
  0
TEXT
  8
19
  6
CONTINUOUS
 62
     1
  5
13A
 10
958519.523
 20
7254601.656
 30
0.0
 40
24.0
  1
UTE AVE
 50
88.0988
  7
ROMANC
 72
     4
 11
958510.557589
 21
7254693.273871
 31
0.0
210
0.0
220
0.0
230
1.0
  0
TEXT
  8
19
  6
CONTINUOUS
 62
     1
  5
13B
 10
958751.58
 20
7253460.031
 30
0.0
 40
24.0
  1
UTE AVE
 50
88.0988
  7
ROMANC
 72
     4
 11
958742.614589
 21
7253551.648871
 31
0.0
210
0.0
220
0.0
230
1.0
  0
TEXT
  8
19
  6
CONTINUOUS
 62
     1
  5
13C
 10
960029.097
 20
7253328.84
 30
0.0
 40
24.0
  1
ZENITH AVE
 50
88.0988
  7
ROMANC
 72
     4
 11
960021.354063
 21
7253457.285587
 31
0.0
210
0.0
220
0.0
230
1.0
  0
LINE
  8
6
  6
CONTINUOUS
 62
     7
  5
13E
 10
962455.58
 20
7256117.806
 30
0.0
 11
959499.985
 21
7256183.415
 31
0.0
  0
LINE
  8
6
  6
CONTINUOUS
 62
     7
  5
13F
 10
962399.658
 20
7255818.475
 30
0.0
 11
959466.679
 21
7255878.814
 31
0.0
  0
ARC
  8
6
  6
CONTINUOUS
 62
     7
  5
140
 10
959415.875822
 20
7252226.778814
 30
0.0
 40
3957.530845
 50
88.782206
 51
112.148825
210
0.0
220
0.0
230
1.0
  0
LINE
  8
6
  6
CONTINUOUS
 62
     7
  5
141
 10
957923.832
 20
7255892.275
 30
0.0
 11
957648.303
 21
7255780.12
 31
0.0
  0
LINE
  8
6
  6
CONTINUOUS
 62
     7
  5
142
 10
958022.051
 20
7255610.15
 30
0.0
 11
957883.44
 21
7255553.617
 31
0.0
  0
POLYLINE
  8
6
  6
CONTINUOUS
 62
     7
  5
143
 66
     1
 10
0.0
 20
0.0
 30
0.0
210
0.0
220
0.0
230
1.0
  0
VERTEX
  8
6
  6
CONTINUOUS
 62
     7
  5
144
 10
959466.679349
 20
7255878.813803
 30
0.0
 42
0.05117
  0
VERTEX
  8
6
  6
CONTINUOUS
 62
     7
  5
145
 10
958730.662349
 20
7255818.601086
 30
0.0
 42
0.051148
  0
VERTEX
  8
6
  6
CONTINUOUS
 62
     7
  5
146
 10
958022.051517
 20
7255610.150217
 30
0.0
 42
0.051148
  0
SEQEND
  8
6
  6
CONTINUOUS
 62
     7
  5
147
  0
ARC
  8
6
  6
CONTINUOUS
 62
     7
  5
148
 10
962481.306702
 20
7259787.45511
 30
0.0
 40
3969.819713
 50
268.821497
 51
289.4135
210
0.0
220
0.0
230
1.0
  0
TEXT
  8
15
  6
CONTINUOUS
 62
    30
  5
149
 10
960936.36
 20
7256592.178
 30
0.0
 40
50.0
  1
GPC 
 50
28.0988
  7
ROMANC
 72
     4
 11
961013.835349
 21
7256661.884176
 31
0.0
210
0.0
220
0.0
230
1.0
  0
TEXT
  8
11
  6
CONTINUOUS
 62
     7
  5
14A
 10
960156.634
 20
7256590.215
 30
0.0
 40
8.0
  1
810.1'
 50
88.0988
  7
ROMANS
 72
     4
 11
960153.343948
 21
7256611.668961
 31
0.0
210
0.0
220
0.0
230
1.0
  0
TEXT
  8
11
  6
CONTINUOUS
 62
     7
  5
14B
 10
962698.801
 20
7256935.274
 30
0.0
 40
8.0
  1
37.5'
 50
88.0988
  7
ROMANS
210
0.0
220
0.0
230
1.0
  0
TEXT
  8
11
  6
CONTINUOUS
 62
     7
  5
14C
 10
962746.858
 20
7256908.391
 30
0.0
 40
8.0
  1
75'
 50
358.0988
  7
ROMANS
210
0.0
220
0.0
230
1.0
  0
TEXT
  8
13
  6
CONTINUOUS
 62
    14
  5
14F
 10
962751.831
 20
7256647.996
 30
0.0
 40
8.0
  1
V1262 P362
 50
88.0988
  7
txt
 72
     4
 11
962749.069277
 21
7256685.366195
 31
0.0
210
0.0
220
0.0
230
1.0
  0
POLYLINE
  8
21
  6
DASHDOT
 62
     7
  5
150
 66
     1
 10
0.0
 20
0.0
 30
0.0
  0
VERTEX
  8
21
  6
DASHDOT
 62
     7
  5
151
 10
962726.009
 20
7256924.774
 30
0.0
  0
VERTEX
  8
21
  6
DASHDOT
 62
     7
  5
152
 10
962726.337
 20
7256962.273
 30
0.0
  0
VERTEX
  8
21
  6
DASHDOT
 62
     7
  5
153
 10
962816.317
 20
7256960.387
 30
0.0
  0
VERTEX
  8
21
  6
DASHDOT
 62
     7
  5
154
 10
962800.255
 20
7256126.679
 30
0.0
  0
VERTEX
  8
21
  6
DASHDOT
 62
     7
  5
155
 10
962800.254419
 20
7256126.678782
 30
0.0
 42
-0.006134
  0
VERTEX
  8
21
  6
DASHDOT
 62
     7
  5
156
 10
962710.379292
 20
7256121.237888
 30
0.0
  0
VERTEX
  8
21
  6
DASHDOT
 62
     7
  5
157
 10
962710.379316
 20
7256121.237889
 30
0.0
 42
0.394099
  0
VERTEX
  8
21
  6
DASHDOT
 62
     7
  5
158
 10
962724.65335
 20
7256135.906024
 30
0.0
  0
VERTEX
  8
21
  6
DASHDOT
 62
     7
  5
159
 10
962724.654
 20
7256135.906
 30
0.0
  0
VERTEX
  8
21
  6
DASHDOT
 62
     7
  5
15A
 10
962740.877
 20
7256909.643
 30
0.0
  0
VERTEX
  8
21
  6
DASHDOT
 62
     7
  5
15B
 10
962740.87683
 20
7256909.64235
 30
0.0
 42
0.414214
  0
VERTEX
  8
21
  6
DASHDOT
 62
     7
  5
15C
 10
962726.008654
 20
7256924.773948
 30
0.0
  0
SEQEND
  8
21
  6
DASHDOT
 62
     7
  5
15D
  0
ARC
  8
6
  6
CONTINUOUS
 62
     7
  5
15E
 10
962533.574848
 20
7259786.79622
 30
0.0
 40
3669.819713
 50
268.782197
 51
272.761467
210
0.0
220
0.0
230
1.0
  0
POLYLINE
  8
6
  6
CONTINUOUS
 62
     7
  5
15F
 66
     1
 10
0.0
 20
0.0
 30
0.0
210
0.0
220
0.0
230
1.0
  0
VERTEX
  8
6
  6
CONTINUOUS
 62
     7
  5
160
 10
962800.255012
 20
7256126.678957
 30
0.0
 42
0.038366
  0
VERTEX
  8
6
  6
CONTINUOUS
 62
     7
  5
161
 10
963326.708334
 20
7256207.368619
 30
0.0
 42
0.03819
  0
VERTEX
  8
6
  6
CONTINUOUS
 62
     7
  5
162
 10
963835.869754
 20
7256367.764372
 30
0.0
 42
0.03819
  0
SEQEND
  8
6
  6
CONTINUOUS
 62
     7
  5
163
  0
LINE
  8
6
  6
CONTINUOUS
 62
     7
  5
164
 10
962816.287
 20
7256958.84
 30
0.0
 11
962800.255
 21
7256126.679
 31
0.0
  0
ARC
  8
6
  6
CONTINUOUS
 62
     7
  5
165
 10
962709.656841
 20
7256136.220613
 30
0.0
 40
15.0
 50
272.761467
 51
358.798814
210
0.0
220
0.0
230
1.0
  0
LINE
  8
6
  6
CONTINUOUS
 62
     7
  5
166
 10
960169.508
 20
7256170.073
 30
0.0
 11
960186.663
 21
7256994.918
 31
0.0
  0
LINE
  8
6
  6
CONTINUOUS
 62
     7
  5
167
 10
960186.353
 20
7256979.998
 30
0.0
 11
962726.184
 21
7256924.574
 31
0.0
  0
LINE
  8
6
  6
CONTINUOUS
 62
     7
  5
168
 10
961851.362
 20
7256945.368
 30
0.0
 11
961834.488
 21
7256134.024
 31
0.0
  0
ARC
  8
6
  6
CONTINUOUS
 62
     7
  5
169
 10
962725.872376
 20
7256909.577194
 30
0.0
 40
15.0
 50
358.798814
 51
88.808508
210
0.0
220
0.0
230
1.0
  0
LINE
  8
6
  6
CONTINUOUS
 62
     7
  5
16A
 10
958601.164
 20
7255114.532
 30
0.0
 11
957891.112
 21
7255348.604
 31
0.0
  0
ARC
  8
6
  6
CONTINUOUS
 62
     7
  5
16B
 10
957926.967004
 20
7255452.596019
 30
0.0
 40
110.0
 50
113.310142
 51
250.976119
210
0.0
220
0.0
230
1.0
  0
TEXT
  8
11
  6
CONTINUOUS
 62
     7
  5
16C
 10
958262.359
 20
7255683.237
 30
0.0
 40
8.0
  1
199.11'
 50
20.738978
  7
ROMANS
210
0.0
220
0.0
230
1.0
  0
TEXT
  8
11
  6
CONTINUOUS
 62
     7
  5
16D
 10
958251.679
 20
7255696.567
 30
0.0
 40
8.0
  1
R=3669.83'
 50
20.738978
  7
ROMANS
210
0.0
220
0.0
230
1.0
  0
LINE
  8
6
  6
CONTINUOUS
 62
     7
  5
16E
 10
958589.482
 20
7255079.093
 30
0.0
 11
958601.164
 21
7255114.532
 31
0.0
  0
LINE
  8
6
  6
CONTINUOUS
 62
     7
  5
16F
 10
963347.114
 20
7254308.598
 30
0.0
 11
960773.385
 21
7254359.295
 31
0.0
  0
LINE
  8
6
  6
CONTINUOUS
 62
     7
  5
170
 10
960892.162
 20
7254356.956
 30
0.0
 11
961824.031
 21
7254049.462
 31
0.0
  0
POLYLINE
  8
6
  6
CONTINUOUS
 62
     7
  5
171
 66
     1
 10
0.0
 20
0.0
 30
0.0
  0
VERTEX
  8
6
  6
CONTINUOUS
 62
     7
  5
172
 10
961824.031
 20
7254049.462
 30
0.0
  0
VERTEX
  8
6
  6
CONTINUOUS
 62
     7
  5
173
 10
961823.311
 20
7254012.842
 30
0.0
  0
VERTEX
  8
6
  6
CONTINUOUS
 62
     7
  5
174
 10
961948.615
 20
7253971.494
 30
0.0
  0
VERTEX
  8
6
  6
CONTINUOUS
 62
     7
  5
175
 10
961949.337
 20
7254008.112
 30
0.0
  0
VERTEX
  8
6
  6
CONTINUOUS
 62
     7
  5
176
 10
962701.599
 20
7253759.883
 30
0.0
  0
SEQEND
  8
6
  6
CONTINUOUS
 62
     7
  5
177
  0
LINE
  8
6
  6
CONTINUOUS
 62
     7
  5
178
 10
962487.511
 20
7254321.971
 30
0.0
 11
962477.652
 21
7253822.256
 31
0.0
  0
LINE
  8
7
  6
CONTINUOUS
 62
     7
  5
179
 10
961291.79
 20
7254349.453
 30
0.0
 11
961289.281
 21
7254226.323
 31
0.0
  0
LINE
  8
7
  6
CONTINUOUS
 62
     7
  5
17A
 10
961515.121
 20
7254344.9
 30
0.0
 11
961511.208
 21
7254152.924
 31
0.0
  0
LINE
  8
7
  6
CONTINUOUS
 62
     7
  5
17B
 10
961600.783
 20
7254343.154
 30
0.0
 11
961596.332
 21
7254124.77
 31
0.0
  0
LINE
  8
7
  6
CONTINUOUS
 62
     7
  5
17C
 10
961686.445
 20
7254341.408
 30
0.0
 11
961681.455
 21
7254096.617
 31
0.0
  0
LINE
  8
7
  6
CONTINUOUS
 62
     7
  5
17D
 10
961758.18
 20
7254339.946
 30
0.0
 11
961752.74
 21
7254073.041
 31
0.0
  0
LINE
  8
7
  6
CONTINUOUS
 62
     7
  5
17E
 10
961829.915
 20
7254338.483
 30
0.0
 11
961824.031
 21
7254049.462
 31
0.0
  0
LINE
  8
7
  6
CONTINUOUS
 62
     7
  5
17F
 10
961955.989
 20
7254335.913
 30
0.0
 11
961949.309
 21
7254008.026
 31
0.0
  0
LINE
  8
7
  6
CONTINUOUS
 62
     7
  5
180
 10
962069.666
 20
7254333.595
 30
0.0
 11
962062.27
 21
7253970.666
 31
0.0
  0
LINE
  8
7
  6
CONTINUOUS
 62
     7
  5
181
 10
962174.438
 20
7254331.459
 30
0.0
 11
962166.384
 21
7253936.232
 31
0.0
  0
LINE
  8
7
  6
CONTINUOUS
 62
     7
  5
182
 10
962363.405
 20
7254327.608
 30
0.0
 11
962354.16
 21
7253874.127
 31
0.0
  0
LINE
  8
6
  6
CONTINUOUS
 62
     7
  5
183
 10
962700.868
 20
7253722.822
 30
0.0
 11
962717.747
 21
7253717.215
 31
0.0
  0
LINE
  8
6
  6
CONTINUOUS
 62
     7
  5
184
 10
962717.747
 20
7253717.215
 30
0.0
 11
962729.886
 21
7254320.753
 31
0.0
  0
LINE
  8
6
  6
CONTINUOUS
 62
     7
  5
185
 10
962874.638
 20
7253690.781
 30
0.0
 11
962887.172
 21
7254314.015
 31
0.0
  0
LINE
  8
6
  6
CONTINUOUS
 62
     7
  5
186
 10
962692.809
 20
7253750.774
 30
0.0
 11
962874.638
 21
7253690.781
 31
0.0
  0
LINE
  8
6
  6
CONTINUOUS
 62
     7
  5
187
 10
963347.109
 20
7254308.335
 30
0.0
 11
963331.246
 21
7253514.795
 31
0.0
  0
LINE
  8
6
  6
CONTINUOUS
 62
     7
  5
188
 10
962900.312
 20
7253693.834
 30
0.0
 11
963331.979
 21
7253551.408
 31
0.0
  0
LINE
  8
7
  6
CONTINUOUS
 62
     7
  5
189
 10
963117.526
 20
7254312.068
 30
0.0
 11
963103.254
 21
7253625.901
 31
0.0
  0
LINE
  8
6
  6
CONTINUOUS
 62
     7
  5
18A
 10
960225.911
 20
7254334.376
 30
0.0
 11
960632.45
 21
7254200.226
 31
0.0
  0
POLYLINE
  8
6
  6
CONTINUOUS
 62
     7
  5
18B
 66
     1
 10
0.0
 20
0.0
 30
0.0
  0
VERTEX
  8
6
  6
CONTINUOUS
 62
     7
  5
18C
 10
960621.353
 20
7253636.957
 30
0.0
  0
VERTEX
  8
6
  6
CONTINUOUS
 62
     7
  5
18D
 10
960633.17
 20
7254236.846
 30
0.0
  0
VERTEX
  8
6
  6
CONTINUOUS
 62
     7
  5
18E
 10
961046.158
 20
7254100.567
 30
0.0
  0
VERTEX
  8
6
  6
CONTINUOUS
 62
     7
  5
18F
 10
961034.341
 20
7253500.68
 30
0.0
  0
SEQEND
  8
6
  6
CONTINUOUS
 62
     7
  5
190
  0
LINE
  8
6
  6
CONTINUOUS
 62
     7
  5
191
 10
960982.072
 20
7253517.926
 30
0.0
 11
960993.89
 21
7254117.814
 31
0.0
  0
LINE
  8
6
  6
CONTINUOUS
 62
     7
  5
192
 10
961045.437
 20
7254063.949
 30
0.0
 11
961426.03
 21
7253938.36
 31
0.0
  0
LINE
  8
6
  6
CONTINUOUS
 62
     7
  5
193
 10
961858.902
 20
7253795.521
 30
0.0
 11
962697.353
 21
7253518.848
 31
0.0
  0
LINE
  8
7
  6
CONTINUOUS
 62
     7
  5
194
 10
960339.816
 20
7253735.839
 30
0.0
 11
960351.299
 21
7254299.101
 31
0.0
  0
LINE
  8
7
  6
CONTINUOUS
 62
     7
  5
195
 10
961133.217
 20
7253473.429
 30
0.0
 11
961144.7
 21
7254036.691
 31
0.0
  0
LINE
  8
7
  6
CONTINUOUS
 62
     7
  5
196
 10
962310.06
 20
7253084.201
 30
0.0
 11
962321.543
 21
7253647.459
 31
0.0
  0
LINE
  8
7
  6
CONTINUOUS
 62
     7
  5
197
 10
962382.187
 20
7253060.346
 30
0.0
 11
962393.67
 21
7253623.604
 31
0.0
  0
TEXT
  8
13
  6
CONTINUOUS
 62
    14
  5
198
 10
959464.791
 20
7253086.633
 30
0.0
 40
8.0
  1
V1144 P159
 50
358.0988
  7
txt
 72
     4
 11
959500.084339
 21
7253089.463663
 31
0.0
210
0.0
220
0.0
230
1.0
  0
POLYLINE
  8
21
  6
DASHDOT
 62
     7
  5
199
 66
     1
 10
0.0
 20
0.0
 30
0.0
  0
VERTEX
  8
21
  6
DASHDOT
 62
     7
  5
19A
 10
958710.599
 20
7253096.84
 30
0.0
  0
VERTEX
  8
21
  6
DASHDOT
 62
     7
  5
19B
 10
958742.399
 20
7254054.812
 30
0.0
  0
VERTEX
  8
21
  6
DASHDOT
 62
     7
  5
19C
 10
958779.885
 20
7254053.575
 30
0.0
  0
VERTEX
  8
21
  6
DASHDOT
 62
     7
  5
19D
 10
958749.828
 20
7253148.073
 30
0.0
  0
VERTEX
  8
21
  6
DASHDOT
 62
     7
  5
19E
 10
958749.827813
 20
7253148.073473
 30
0.0
 42
0.414214
  0
VERTEX
  8
21
  6
DASHDOT
 62
     7
  5
19F
 10
958764.321914
 20
7253132.584088
 30
0.0
  0
VERTEX
  8
21
  6
DASHDOT
 62
     7
  5
1A0
 10
958764.322
 20
7253132.584
 30
0.0
  0
VERTEX
  8
21
  6
DASHDOT
 62
     7
  5
1A1
 10
959978.653
 20
7253092.275
 30
0.0
  0
VERTEX
  8
21
  6
DASHDOT
 62
     7
  5
1A2
 10
959978.653082
 20
7253092.275114
 30
0.0
 42
0.414214
  0
VERTEX
  8
21
  6
DASHDOT
 62
     7
  5
1A3
 10
959994.142467
 20
7253106.769215
 30
0.0
  0
VERTEX
  8
21
  6
DASHDOT
 62
     7
  5
1A4
 10
959994.142
 20
7253106.769
 30
0.0
  0
VERTEX
  8
21
  6
DASHDOT
 62
     7
  5
1A5
 10
960038.169
 20
7254433.109
 30
0.0
  0
VERTEX
  8
21
  6
DASHDOT
 62
     7
  5
1A6
 10
960075.258
 20
7254420.294
 30
0.0
  0
VERTEX
  8
21
  6
DASHDOT
 62
     7
  5
1A7
 10
960029.873
 20
7253053.047
 30
0.0
  0
VERTEX
  8
21
  6
DASHDOT
 62
     7
  5
1A8
 10
958710.599
 20
7253096.84
 30
0.0
  0
SEQEND
  8
21
  6
DASHDOT
 62
     7
  5
1A9
  0
TEXT
  8
11
  6
CONTINUOUS
 62
     7
  5
1AA
 10
958774.748
 20
7253520.549
 30
0.0
 40
8.0
  1
906'
 50
88.0988
  7
txt
 72
     4
 11
958771.189022
 21
7253533.901423
 31
0.0
210
0.0
220
0.0
230
1.0
  0
TEXT
  8
11
  6
CONTINUOUS
 62
     7
  5
1AB
 10
958719.518
 20
7253518.016
 30
0.0
 40
8.0
  1
985.5'
 50
88.0988
  7
txt
 72
     4
 11
958716.165942
 21
7253537.60199
 31
0.0
210
0.0
220
0.0
230
1.0
  0
TEXT
  8
11
  6
CONTINUOUS
 62
     7
  5
1AC
 10
959998.081
 20
7253508.306
 30
0.0
 40
8.0
  1
1327.07'
 50
88.0988
  7
txt
 72
     4
 11
959994.954606
 21
7253534.690246
 31
0.0
210
0.0
220
0.0
230
1.0
  0
TEXT
  8
11
  6
CONTINUOUS
 62
     7
  5
1AD
 10
960058.61
 20
7253526.533
 30
0.0
 40
8.0
  1
1368'
 50
88.0988
  7
txt
 72
     4
 11
960055.144015
 21
7253542.68688
 31
0.0
210
0.0
220
0.0
230
1.0
  0
POLYLINE
  8
21
  6
DASHDOT
 62
     7
  5
1AE
 66
     1
 10
0.0
 20
0.0
 30
0.0
 70
     1
  0
VERTEX
  8
21
  6
DASHDOT
 62
     7
  5
1AF
 10
959916.252
 20
7254377.546
 30
0.0
  0
VERTEX
  8
21
  6
DASHDOT
 62
     7
  5
1B0
 10
959078.214
 20
7254405.364
 30
0.0
  0
VERTEX
  8
21
  6
DASHDOT
 62
     7
  5
1B1
 10
959077.882
 20
7254395.369
 30
0.0
  0
VERTEX
  8
21
  6
DASHDOT
 62
     7
  5
1B2
 10
959998.375
 20
7254364.814
 30
0.0
  0
VERTEX
  8
21
  6
DASHDOT
 62
     7
  5
1B3
 10
959999.039
 20
7254384.803
 30
0.0
  0
VERTEX
  8
21
  6
DASHDOT
 62
     7
  5
1B4
 10
959916.584
 20
7254387.54
 30
0.0
  0
VERTEX
  8
21
  6
DASHDOT
 62
     7
  5
1B5
 10
959916.252
 20
7254377.546
 30
0.0
  0
SEQEND
  8
21
  6
DASHDOT
 62
     7
  5
1B6
  0
TEXT
  8
13
  6
CONTINUOUS
 62
    14
  5
1B7
 10
959332.208
 20
7254388.521
 30
0.0
 40
8.0
  1
V1144 P160
 50
358.0988
  7
txt
 72
     4
 11
959367.469356
 21
7254391.352724
 31
0.0
210
0.0
220
0.0
230
1.0
  0
TEXT
  8
22
  6
CONTINUOUS
 62
     3
  5
1B8
 10
957504.687
 20
7254484.702
 30
0.0
 40
8.0
  1
DRAINAGE EASEMENT 30' X 650'
 50
358.0988
  7
ROMANS
210
0.0
220
0.0
230
1.0
  0
TEXT
  8
22
  6
CONTINUOUS
 62
     3
  5
1B9
 10
957840.563
 20
7254477.874
 30
0.0
 40
6.0
  1
650.00'
 50
358.0988
  7
txt
 72
     4
 11
957858.178881
 21
7254480.290904
 31
0.0
210
0.0
220
0.0
230
1.0
  0
TEXT
  8
22
  6
CONTINUOUS
 62
     3
  5
1BA
 10
957853.884
 20
7254447.318
 30
0.0
 40
6.0
  1
650.00'
 50
358.0988
  7
txt
 72
     4
 11
957871.499881
 21
7254449.734904
 31
0.0
210
0.0
220
0.0
230
1.0
  0
TEXT
  8
22
  6
CONTINUOUS
 62
     3
  5
1BB
 10
958135.055
 20
7254439.787
 30
0.0
 40
6.0
  1
30.00'
 50
88.0988
  7
txt
 72
     4
 11
958132.543279
 21
7254454.546454
 31
0.0
210
0.0
220
0.0
230
1.0
  0
TEXT
  8
13
  6
CONTINUOUS
 62
    14
  5
1BC
 10
957744.535
 20
7254451.24
 30
0.0
 40
8.0
  1
V2534 P294
 50
358.0988
  7
txt
 72
     4
 11
957784.077998
 21
7254453.929598
 31
0.0
210
0.0
220
0.0
230
1.0
  0
LINE
  8
6
  6
CONTINUOUS
 62
     7
  5
1BD
 10
958790.65
 20
7254404.929
 30
0.0
 11
958749.793
 21
7253148.1
 31
0.0
  0
LINE
  8
6
  6
CONTINUOUS
 62
     7
  5
1BE
 10
958764.298
 20
7253132.621
 30
0.0
 11
959993.648
 21
7253092.658
 31
0.0
  0
LINE
  8
6
  6
CONTINUOUS
 62
     7
  5
1BF
 10
959993.648
 20
7253092.658
 30
0.0
 11
960037.252
 21
7254434.019
 31
0.0
  0
POLYLINE
  8
6
  6
CONTINUOUS
 62
     7
  5
1C0
 66
     1
 10
0.0
 20
0.0
 30
0.0
  0
VERTEX
  8
6
  6
CONTINUOUS
 62
     7
  5
1C1
 10
960034.985
 20
7254364.479
 30
0.0
  0
VERTEX
  8
6
  6
CONTINUOUS
 62
     7
  5
1C2
 10
959643.652
 20
7254377.2
 30
0.0
  0
VERTEX
  8
6
  6
CONTINUOUS
 62
     7
  5
1C3
 10
959627.407
 20
7253877.464
 30
0.0
  0
VERTEX
  8
6
  6
CONTINUOUS
 62
     7
  5
1C4
 10
960018.74
 20
7253864.743
 30
0.0
  0
SEQEND
  8
6
  6
CONTINUOUS
 62
     7
  5
1C5
  0
LINE
  8
6
  6
CONTINUOUS
 62
     7
  5
1C6
 10
959953.178
 20
7254387.149
 30
0.0
 11
960035.635
 21
7254384.468
 31
0.0
  0
ARC
  8
6
  6
CONTINUOUS
 62
     7
  5
1C7
 10
960020.700891
 20
7254386.8378
 30
0.0
 40
15.0
 50
358.157967
 51
69.982425
210
0.0
220
0.0
230
1.0
  0
TEXT
  8
10
  6
CONTINUOUS
 62
   134
  5
1C8
 10
959740.585
 20
7254166.471
 30
0.0
 40
13.999
  1
B
 50
358.0988
  7
txt
 72
     4
 11
959745.498654
 21
7254173.31175
 31
0.0
210
0.0
220
0.0
230
1.0
  0
TEXT
  8
11
  6
CONTINUOUS
 62
     7
  5
1C9
 10
959752.633
 20
7254383.225
 30
0.0
 40
8.0
  1
391.64'
 50
358.0988
  7
txt
 72
     4
 11
959774.799569
 21
7254386.491398
 31
0.0
210
0.0
220
0.0
230
1.0
  0
TEXT
  8
11
  6
CONTINUOUS
 62
     7
  5
1CA
 10
959788.602
 20
7253877.432
 30
0.0
 40
8.0
  1
391.54'
 50
358.0988
  7
txt
 72
     4
 11
959810.958464
 21
7253880.692094
 31
0.0
210
0.0
220
0.0
230
1.0
  0
TEXT
  8
11
  6
CONTINUOUS
 62
     7
  5
1CB
 10
959647.348
 20
7254110.394
 30
0.0
 40
8.0
  1
500'
 50
88.0988
  7
txt
 72
     4
 11
959643.800534
 21
7254124.093232
 31
0.0
210
0.0
220
0.0
230
1.0
  0
TEXT
  8
11
  6
CONTINUOUS
 62
     7
  5
1CC
 10
960021.818
 20
7254099.244
 30
0.0
 40
8.0
  1
500'
 50
88.0988
  7
txt
 72
     4
 11
960018.270534
 21
7254112.943232
 31
0.0
210
0.0
220
0.0
230
1.0
  0
LINE
  8
6
  6
CONTINUOUS
 62
     7
  5
1CD
 10
958790.65
 20
7254404.929
 30
0.0
 11
959643.652
 21
7254377.2
 31
0.0
  0
LINE
  8
6
  6
CONTINUOUS
 62
     7
  5
1CE
 10
958539.561
 20
7254891.485
 30
0.0
 11
958526.451
 21
7254476.037
 31
0.0
  0
LINE
  8
6
  6
CONTINUOUS
 62
     7
  5
1CF
 10
958540.957
 20
7254460.572
 30
0.0
 11
958699.253
 21
7254455.426
 31
0.0
  0
LINE
  8
6
  6
CONTINUOUS
 62
     7
  5
1D0
 10
958763.085
 20
7254425.836
 30
0.0
 11
959953.062
 21
7254387.152
 31
0.0
  0
LINE
  8
7
  6
CONTINUOUS
 62
     7
  5
1D1
 10
958782.718
 20
7254831.451
 30
0.0
 11
958769.642
 21
7254425.892
 31
0.0
  0
LINE
  8
7
  6
CONTINUOUS
 62
     7
  5
1D2
 10
958985.095
 20
7254758.858
 30
0.0
 11
958974.153
 21
7254419.512
 31
0.0
  0
LINE
  8
7
  6
CONTINUOUS
 62
     7
  5
1D3
 10
959133.527
 20
7254707.829
 30
0.0
 11
959124.075
 21
7254414.677
 31
0.0
  0
LINE
  8
7
  6
CONTINUOUS
 62
     7
  5
1D4
 10
959281.96
 20
7254656.8
 30
0.0
 11
959273.996
 21
7254409.844
 31
0.0
  0
LINE
  8
7
  6
CONTINUOUS
 62
     7
  5
1D5
 10
959430.393
 20
7254605.77
 30
0.0
 11
959423.92
 21
7254405.009
 31
0.0
  0
TEXT
  8
11
  6
CONTINUOUS
 62
     7
  5
1D6
 10
958874.686
 20
7254784.414
 30
0.0
 40
8.0
  1
214.21'
 50
340.434911
  7
txt
 72
     4
 11
958895.820543
 21
7254781.14794
 31
0.0
210
0.0
220
0.0
230
1.0
  0
ARC
  8
7
  6
CONTINUOUS
 62
     7
  5
1D7
 10
958696.267983
 20
7254365.475515
 30
0.0
 40
90.0
 50
42.081764
 51
88.099331
210
0.0
220
0.0
230
1.0
  0
ARC
  8
7
  6
CONTINUOUS
 62
     7
  5
1D8
 10
958541.443209
 20
7254475.553605
 30
0.0
 40
15.0
 50
178.153247
 51
268.098797
210
0.0
220
0.0
230
1.0
  0
ARC
  8
7
  6
CONTINUOUS
 62
     7
  5
1D9
 10
958554.553209
 20
7254891.001606
 30
0.0
 40
15.0
 50
70.988281
 51
178.15325
210
0.0
220
0.0
230
1.0
  0
LINE
  8
6
  6
CONTINUOUS
 62
     7
  5
1DA
 10
958502.92
 20
7254919.304
 30
0.0
 11
958487.0
 21
7254414.8
 31
0.0
  0
LINE
  8
6
  6
CONTINUOUS
 62
     7
  5
1DB
 10
958753.162
 20
7254406.149
 30
0.0
 11
958487.0
 21
7254414.8
 31
0.0
  0
TEXT
  8
13
  6
CONTINUOUS
 62
    14
  5
1DC
 10
962233.697
 20
7253094.362
 30
0.0
 40
8.0
  1
V788 P633
 50
341.698786
  7
txt
 72
     1
 11
962266.827919
 21
7253083.404217
 31
0.0
210
0.0
220
0.0
230
1.0
  0
TEXT
  8
22
  6
CONTINUOUS
 62
     3
  5
1DD
 10
962237.724
 20
7253110.528
 30
0.0
 40
6.0
  1
882.92'
 50
341.698786
  7
txt
 72
     1
 11
962254.431872
 21
7253105.002007
 31
0.0
210
0.0
220
0.0
230
1.0
  0
POLYLINE
  8
21
  6
DASHDOT
 62
     7
  5
1DE
 66
     1
 10
0.0
 20
0.0
 30
0.0
 70
     1
  0
VERTEX
  8
21
  6
DASHDOT
 62
     7
  5
1DF
 10
962620.633
 20
7252981.482
 30
0.0
  0
VERTEX
  8
21
  6
DASHDOT
 62
     7
  5
1E0
 10
961782.373
 20
7253258.73
 30
0.0
  0
VERTEX
  8
21
  6
DASHDOT
 62
     7
  5
1E1
 10
961781.41
 20
7253237.822
 30
0.0
  0
VERTEX
  8
21
  6
DASHDOT
 62
     7
  5
1E2
 10
962619.671
 20
7252960.574
 30
0.0
  0
VERTEX
  8
21
  6
DASHDOT
 62
     7
  5
1E3
 10
962620.633
 20
7252981.482
 30
0.0
  0
SEQEND
  8
21
  6
DASHDOT
 62
     7
  5
1E4
  0
TEXT
  8
13
  6
CONTINUOUS
 62
    14
  5
1E5
 10
960917.109
 20
7253531.174
 30
0.0
 40
8.0
  1
V990 P191
 50
341.698786
  7
txt
 72
     1
 11
960949.611342
 21
7253528.850322
 31
0.0
210
0.0
220
0.0
230
1.0
 73
     3
  0
POLYLINE
  8
21
  6
DASHDOT
 62
     7
  5
1E6
 66
     1
 10
0.0
 20
0.0
 30
0.0
 70
     1
  0
VERTEX
  8
21
  6
DASHDOT
 62
     7
  5
1E7
 10
960054.932
 20
7253823.869
 30
0.0
  0
VERTEX
  8
21
  6
DASHDOT
 62
     7
  5
1E8
 10
960054.506
 20
7253802.944
 30
0.0
  0
VERTEX
  8
21
  6
DASHDOT
 62
     7
  5
1E9
 10
961846.71
 20
7253210.187
 30
0.0
  0
VERTEX
  8
21
  6
DASHDOT
 62
     7
  5
1EA
 10
961847.137
 20
7253231.113
 30
0.0
  0
VERTEX
  8
21
  6
DASHDOT
 62
     7
  5
1EB
 10
960054.932
 20
7253823.869
 30
0.0
  0
SEQEND
  8
21
  6
DASHDOT
 62
     7
  5
1EC
  0
LINE
  8
6
  6
CONTINUOUS
 62
     7
  5
1ED
 10
957648.303
 20
7255780.12
 30
0.0
 11
957507.585
 21
7255760.22
 31
0.0
  0
LINE
  8
6
  6
CONTINUOUS
 62
     7
  5
1EE
 10
957471.718
 20
7254143.389
 30
0.0
 11
957886.63
 21
7254135.044
 31
0.0
  0
LINE
  8
6
  6
CONTINUOUS
 62
     7
  5
1EF
 10
957886.63
 20
7254135.044
 30
0.0
 11
957873.876
 21
7253735.248
 31
0.0
  0
LINE
  8
6
  6
CONTINUOUS
 62
     7
  5
1F0
 10
957873.876
 20
7253735.248
 30
0.0
 11
957458.964
 21
7253743.592
 31
0.0
  0
LINE
  8
6
  6
CONTINUOUS
 62
     7
  5
1F1
 10
957473.961
 20
7253743.29
 30
0.0
 11
957486.716
 21
7254143.087
 31
0.0
  0
TEXT
  8
11
  6
CONTINUOUS
 62
     7
  5
1F2
 10
957812.532
 20
7253950.418
 30
0.0
 40
8.0
  1
400'
 50
88.0988
  7
ROMANS
210
0.0
220
0.0
230
1.0
  0
LINE
  8
21
  6
DASHDOT
 62
     7
  5
1F3
 10
957480.959
 20
7254043.129
 30
0.0
 11
957880.868
 21
7254034.812
 31
0.0
  0
LINE
  8
21
  6
DASHDOT
 62
     7
  5
1F4
 10
957880.868
 20
7254034.812
 30
0.0
 11
957880.217
 21
7254014.821
 31
0.0
  0
LINE
  8
21
  6
DASHDOT
 62
     7
  5
1F5
 10
957880.217
 20
7254014.821
 30
0.0
 11
957480.308
 21
7254023.138
 31
0.0
  0
LINE
  8
21
  6
DASHDOT
 62
     7
  5
1F6
 10
957480.308
 20
7254023.138
 30
0.0
 11
957480.959
 21
7254043.129
 31
0.0
  0
TEXT
  8
22
  6
CONTINUOUS
 62
     3
  5
1F7
 10
957517.995
 20
7254134.166
 30
0.0
 40
8.0
  1
STORM WATER STORAGE AND DRAINAGE EASEMENT
 50
358.0988
  7
txt
 72
     4
 11
957679.165008
 21
7254132.818264
 31
0.0
210
0.0
220
0.0
230
1.0
  0
POLYLINE
  8
6
  6
CONTINUOUS
 62
     7
  5
1F8
 66
     1
 10
0.0
 20
0.0
 30
0.0
  0
VERTEX
  8
6
  6
CONTINUOUS
 62
     7
  5
1F9
 10
958502.92
 20
7254919.304
 30
0.0
  0
VERTEX
  8
6
  6
CONTINUOUS
 62
     7
  5
1FA
 10
958290.848
 20
7254989.215
 30
0.0
  0
VERTEX
  8
6
  6
CONTINUOUS
 62
     7
  5
1FB
 10
957754.238
 20
7255086.057
 30
0.0
  0
VERTEX
  8
6
  6
CONTINUOUS
 62
     7
  5
1FC
 10
957682.777
 20
7255031.346
 30
0.0
  0
VERTEX
  8
6
  6
CONTINUOUS
 62
     7
  5
1FD
 10
957559.538
 20
7254734.729
 30
0.0
  0
SEQEND
  8
6
  6
CONTINUOUS
 62
     7
  5
1FE
  0
LINE
  8
6
  6
CONTINUOUS
 62
     7
  5
1FF
 10
957481.532
 20
7254453.613
 30
0.0
 11
957496.552
 21
7254453.138
 31
0.0
  0
TEXT
  8
11
  6
CONTINUOUS
 62
     7
  5
200
 10
957455.846
 20
7254837.929
 30
0.0
 40
8.0
  1
S20%%d42'W
 50
67.398867
  7
ROMANS
210
0.0
220
0.0
230
1.0
  0
TEXT
  8
11
  6
CONTINUOUS
 62
     7
  5
201
 10
957469.588
 20
7255161.822
 30
0.0
 40
8.0
  1
N80%%d03'W
 50
348.149042
  7
ROMANS
210
0.0
220
0.0
230
1.0
  0
TEXT
  8
11
  6
CONTINUOUS
 62
     7
  5
202
 10
957479.935
 20
7255145.737
 30
0.0
 40
8.0
  1
145'
 50
348.149042
  7
ROMANS
210
0.0
220
0.0
230
1.0
  0
TEXT
  8
11
  6
CONTINUOUS
 62
     7
  5
203
 10
957404.187
 20
7254863.805
 30
0.0
 40
8.0
  1
419' 
 50
67.398792
  7
ROMANS
210
0.0
220
0.0
230
1.0
  0
ARC
  8
6
  6
CONTINUOUS
 62
     7
  5
204
 10
958255.25622
 20
7254431.271169
 30
0.0
 40
759.02
 50
156.43415
 51
178.349025
210
0.0
220
0.0
230
1.0
  0
LINE
  8
6
  6
CONTINUOUS
 62
     7
  5
205
 10
957429.427
 20
7255168.067
 30
0.0
 11
957572.864
 21
7255138.071
 31
0.0
  0
LINE
  8
6
  6
CONTINUOUS
 62
     7
  5
206
 10
957572.864
 20
7255138.071
 30
0.0
 11
957583.292
 21
7255104.661
 31
0.0
  0
LINE
  8
6
  6
CONTINUOUS
 62
     7
  5
207
 10
957481.532
 20
7254453.613
 30
0.0
 11
957471.718
 21
7254143.389
 31
0.0
  0
LINE
  8
6
  6
CONTINUOUS
 62
     7
  5
208
 10
957459.072
 20
7253743.589
 30
0.0
 11
957411.027
 21
7251956.062
 31
0.0
  0
TEXT
  8
11
  6
CONTINUOUS
 62
     7
  5
209
 10
957427.265
 20
7254218.199
 30
0.0
 40
8.0
  1
60'
 50
358.0988
  7
txt
 72
     4
 11
957436.808521
 21
7254221.884412
 31
0.0
210
0.0
220
0.0
230
1.0
  0
TEXT
  8
11
  6
CONTINUOUS
 62
     7
  5
20A
 10
957413.257
 20
7253796.209
 30
0.0
 40
8.0
  1
60'
 50
358.0988
  7
txt
 72
     4
 11
957422.800521
 21
7253799.894412
 31
0.0
210
0.0
220
0.0
230
1.0
  0
LINE
  8
21
  6
DASHDOT
 62
     7
  5
20B
 10
961651.204
 20
7253327.882
 30
0.0
 11
962607.657
 21
7254216.325
 31
0.0
  0
LINE
  8
6
  6
CONTINUOUS
 62
     7
  5
20C
 10
958589.482
 20
7255079.093
 30
0.0
 11
960773.385
 21
7254359.295
 31
0.0
  0
TEXT
  8
13
  6
CONTINUOUS
 62
    14
  5
20D
 10
963069.637
 20
7254297.952
 30
0.0
 40
8.0
  1
V 1048 P487
 50
358.0988
  7
txt
 72
     4
 11
963112.139368
 21
7254300.543363
 31
0.0
210
0.0
220
0.0
230
1.0
  0
POLYLINE
  8
21
  6
DASHDOT
 62
     7
  5
20E
 66
     1
 10
0.0
 20
0.0
 30
0.0
 70
     1
  0
VERTEX
  8
21
  6
DASHDOT
 62
     7
  5
20F
 10
962938.346
 20
7254302.141
 30
0.0
  0
VERTEX
  8
21
  6
DASHDOT
 62
     7
  5
210
 10
963372.603
 20
7254293.109
 30
0.0
  0
VERTEX
  8
21
  6
DASHDOT
 62
     7
  5
211
 10
963372.914
 20
7254308.105
 30
0.0
  0
VERTEX
  8
21
  6
DASHDOT
 62
     7
  5
212
 10
962938.658
 20
7254317.137
 30
0.0
  0
VERTEX
  8
21
  6
DASHDOT
 62
     7
  5
213
 10
962938.346
 20
7254302.141
 30
0.0
  0
SEQEND
  8
21
  6
DASHDOT
 62
     7
  5
214
  0
POLYLINE
  8
21
  6
DASHDOT
 62
     7
  5
215
 66
     1
 10
0.0
 20
0.0
 30
0.0
 70
     1
  0
VERTEX
  8
21
  6
DASHDOT
 62
     7
  5
216
 10
962707.917
 20
7254303.347
 30
0.0
  0
VERTEX
  8
21
  6
DASHDOT
 62
     7
  5
217
 10
962708.281
 20
7254320.842
 30
0.0
  0
VERTEX
  8
21
  6
DASHDOT
 62
     7
  5
218
 10
962723.276
 20
7254320.531
 30
0.0
  0
VERTEX
  8
21
  6
DASHDOT
 62
     7
  5
219
 10
962723.224
 20
7254318.031
 30
0.0
  0
VERTEX
  8
21
  6
DASHDOT
 62
     7
  5
21A
 10
962912.984
 20
7254314.084
 30
0.0
  0
VERTEX
  8
21
  6
DASHDOT
 62
     7
  5
21B
 10
962912.672
 20
7254299.088
 30
0.0
  0
VERTEX
  8
21
  6
DASHDOT
 62
     7
  5
21C
 10
962707.917
 20
7254303.347
 30
0.0
  0
SEQEND
  8
21
  6
DASHDOT
 62
     7
  5
21D
  0
TEXT
  8
13
  6
CONTINUOUS
 62
    14
  5
21E
 10
962825.487
 20
7254306.846
 30
0.0
 40
8.0
  1
V1050 P631
 50
358.0988
  7
txt
 72
     4
 11
962861.535922
 21
7254309.651581
 31
0.0
210
0.0
220
0.0
230
1.0
  0
POLYLINE
  8
21
  6
DASHDOT
 62
     7
  5
21F
 66
     1
 10
0.0
 20
0.0
 30
0.0
 70
     1
  0
VERTEX
  8
21
  6
DASHDOT
 62
     7
  5
220
 10
962723.069
 20
7254310.533
 30
0.0
  0
VERTEX
  8
21
  6
DASHDOT
 62
     7
  5
221
 10
962708.073
 20
7254310.845
 30
0.0
  0
VERTEX
  8
21
  6
DASHDOT
 62
     7
  5
222
 10
962706.825
 20
7254250.858
 30
0.0
  0
VERTEX
  8
21
  6
DASHDOT
 62
     7
  5
223
 10
962721.821
 20
7254250.546
 30
0.0
  0
VERTEX
  8
21
  6
DASHDOT
 62
     7
  5
224
 10
962723.069
 20
7254310.533
 30
0.0
  0
SEQEND
  8
21
  6
DASHDOT
 62
     7
  5
225
  0
POLYLINE
  8
21
  6
DASHDOT
 62
     7
  5
226
 66
     1
 10
0.0
 20
0.0
 30
0.0
 70
     1
  0
VERTEX
  8
21
  6
DASHDOT
 62
     7
  5
227
 10
962715.415
 20
7254303.191
 30
0.0
  0
VERTEX
  8
21
  6
DASHDOT
 62
     7
  5
228
 10
962715.727
 20
7254318.187
 30
0.0
  0
VERTEX
  8
21
  6
DASHDOT
 62
     7
  5
229
 10
962655.74
 20
7254319.435
 30
0.0
  0
VERTEX
  8
21
  6
DASHDOT
 62
     7
  5
22A
 10
962655.428
 20
7254304.439
 30
0.0
  0
VERTEX
  8
21
  6
DASHDOT
 62
     7
  5
22B
 10
962715.415
 20
7254303.191
 30
0.0
  0
SEQEND
  8
21
  6
DASHDOT
 62
     7
  5
22C
  0
TEXT
  8
13
  6
CONTINUOUS
 62
    14
  5
22D
 10
962635.829
 20
7254308.218
 30
0.0
 40
8.0
  1
V1052 P43
 50
358.0988
  7
txt
 72
     4
 11
962669.737102
 21
7254311.094645
 31
0.0
210
0.0
220
0.0
230
1.0
  0
TEXT
  8
13
  6
CONTINUOUS
 62
    14
  5
22E
 10
962717.6
 20
7254222.581
 30
0.0
 40
8.0
  1
V1050 P632
 50
88.0988
  7
txt
 72
     4
 11
962714.841396
 21
7254260.045143
 31
0.0
210
0.0
220
0.0
230
1.0
  0
TEXT
  8
11
  6
CONTINUOUS
 62
     7
  5
22F
 10
961796.912
 20
7253492.632
 30
0.0
 40
8.0
  1
563.39'
 50
88.0988
  7
ROMANS
210
0.0
220
0.0
230
1.0
  0
TEXT
  8
11
  6
CONTINUOUS
 62
     7
  5
230
 10
961785.532
 20
7253506.756
 30
0.0
 40
8.0
  1
600'
 50
88.0988
  7
ROMANS
210
0.0
220
0.0
230
1.0
  0
LINE
  8
6
  6
CONTINUOUS
 62
     7
  5
231
 10
961414.934
 20
7253375.091
 30
0.0
 11
961426.752
 21
7253974.978
 31
0.0
  0
LINE
  8
6
  6
CONTINUOUS
 62
     7
  5
232
 10
961426.752
 20
7253974.978
 30
0.0
 11
961859.623
 21
7253832.138
 31
0.0
  0
LINE
  8
6
  6
CONTINUOUS
 62
     7
  5
233
 10
961859.623
 20
7253832.138
 30
0.0
 11
961847.806
 21
7253232.255
 31
0.0
  0
LINE
  8
6
  6
CONTINUOUS
 62
     7
  5
234
 10
960074.35
 20
7254421.23
 30
0.0
 11
960226.632
 21
7254370.978
 31
0.0
  0
LINE
  8
6
  6
CONTINUOUS
 62
     7
  5
235
 10
960226.632
 20
7254370.978
 30
0.0
 11
960214.815
 21
7253771.11
 31
0.0
  0
LINE
  8
6
  6
CONTINUOUS
 62
     7
  5
236
 10
962686.256
 20
7252955.582
 30
0.0
 11
962698.073
 21
7253555.465
 31
0.0
  0
LINE
  8
6
  6
CONTINUOUS
 62
     7
  5
237
 10
960054.932
 20
7253823.869
 30
0.0
 11
962686.256
 21
7252955.582
 31
0.0
  0
LINE
  8
6
  6
CONTINUOUS
 62
     7
  5
238
 10
960054.254
 20
7253803.031
 30
0.0
 11
962679.989
 21
7252936.59
 31
0.0
  0
LINE
  8
6
  6
CONTINUOUS
 62
     7
  5
239
 10
962698.073
 20
7253555.465
 30
0.0
 11
963766.541
 21
7253201.135
 31
0.0
  0
LINE
  8
6
  6
CONTINUOUS
 62
     7
  5
23A
 10
963629.274
 20
7254303.039
 30
0.0
 11
963611.547
 21
7253421.493
 31
0.0
  0
LINE
  8
6
  6
CONTINUOUS
 62
     7
  5
23B
 10
963629.274
 20
7254303.039
 30
0.0
 11
963765.297
 21
7254300.303
 31
0.0
  0
LINE
  8
6
  6
CONTINUOUS
 62
     7
  5
23C
 10
963612.283
 20
7253458.105
 30
0.0
 11
963771.113
 21
7253405.701
 31
0.0
  0
LINE
  8
6
  6
CONTINUOUS
 62
     7
  5
23D
 10
963331.246
 20
7253514.795
 30
0.0
 11
963611.547
 21
7253421.493
 31
0.0
  0
TEXT
  8
15
  6
CONTINUOUS
 62
    30
  5
23E
 10
963596.485
 20
7253785.276
 30
0.0
 40
50.0
  1
COVER-ALL
 50
43.0988
  7
ROMANC
 72
     4
 11
963747.850896
 21
7253961.154047
 31
0.0
210
0.0
220
0.0
230
1.0
  0
POLYLINE
  8
21
  6
DASHDOT
 62
     7
  5
23F
 66
     1
 10
0.0
 20
0.0
 30
0.0
  0
VERTEX
  8
21
  6
DASHDOT
 62
     7
  5
240
 10
963632.15
 20
7253451.535
 30
0.0
  0
VERTEX
  8
21
  6
DASHDOT
 62
     7
  5
241
 10
963612.283
 20
7253458.105
 30
0.0
  0
VERTEX
  8
21
  6
DASHDOT
 62
     7
  5
242
 10
963629.854
 20
7254303.027
 30
0.0
  0
VERTEX
  8
21
  6
DASHDOT
 62
     7
  5
243
 10
963649.849
 20
7254302.611
 30
0.0
  0
VERTEX
  8
21
  6
DASHDOT
 62
     7
  5
244
 10
963632.15
 20
7253451.535
 30
0.0
  0
SEQEND
  8
21
  6
DASHDOT
 62
     7
  5
245
  0
TEXT
  8
10
  6
CONTINUOUS
 62
   134
  5
246
 10
963748.42
 20
7253871.546
 30
0.0
 40
13.999
  1
A
 50
358.0988
  7
txt
 72
     4
 11
963754.04926
 21
7253878.362996
 31
0.0
210
0.0
220
0.0
230
1.0
  0
TEXT
  8
11
  6
CONTINUOUS
 62
     7
  5
247
 10
963660.26
 20
7254054.248
 30
0.0
 40
8.0
  1
845.1'
 50
88.0988
  7
txt
 72
     4
 11
963656.873472
 21
7254072.795562
 31
0.0
210
0.0
220
0.0
230
1.0
  0
TEXT
  8
11
  6
CONTINUOUS
 62
     7
  5
248
 10
963612.985
 20
7254055.578
 30
0.0
 40
8.0
  1
881.72'
 50
88.0988
  7
txt
 72
     4
 11
963609.725934
 21
7254077.965447
 31
0.0
210
0.0
220
0.0
230
1.0
  0
TEXT
  8
11
  6
CONTINUOUS
 62
     7
  5
249
 10
963710.854
 20
7254274.153
 30
0.0
 40
8.0
  1
136.05'
 50
358.0988
  7
txt
 72
     4
 11
963732.988586
 21
7254277.420459
 31
0.0
210
0.0
220
0.0
230
1.0
  0
TEXT
  8
11
  6
CONTINUOUS
 62
     7
  5
24A
 10
963746.043
 20
7254306.45
 30
0.0
 40
8.0
  1
200.71'
 50
358.0988
  7
txt
 72
     4
 11
963768.367482
 21
7254309.711156
 31
0.0
210
0.0
220
0.0
230
1.0
  0
TEXT
  8
22
  6
CONTINUOUS
 62
     3
  5
24B
 10
963636.606
 20
7254047.186
 30
0.0
 40
6.0
  1
20'UUE-HEREIN GRANTED
 50
88.808639
  7
txt
 72
     1
 11
963637.812666
 21
7254105.209454
 31
0.0
210
0.0
220
0.0
230
1.0
  0
TEXT
  8
11
  6
CONTINUOUS
 62
     7
  5
24C
 10
963648.056
 20
7253417.461
 30
0.0
 40
8.0
  1
36.62'
 50
88.0988
  7
txt
 72
     4
 11
963644.697638
 21
7253436.857095
 31
0.0
210
0.0
220
0.0
230
1.0
  0
TEXT
  8
11
  6
CONTINUOUS
 62
     7
  5
24D
 10
963719.383
 20
7253435.903
 30
0.0
 40
8.0
  1
210'
 50
341.0988
  7
txt
 72
     4
 11
963732.209555
 21
7253435.739167
 31
0.0
210
0.0
220
0.0
230
1.0
  0
POLYLINE
  8
21
  6
DASHDOT
 62
     7
  5
24E
 66
     1
 10
0.0
 20
0.0
 30
0.0
  0
VERTEX
  8
21
  6
DASHDOT
 62
     7
  5
24F
 10
963790.749
 20
7254284.413
 30
0.0
  0
VERTEX
  8
21
  6
DASHDOT
 62
     7
  5
250
 10
963372.603
 20
7254293.109
 30
0.0
  0
VERTEX
  8
21
  6
DASHDOT
 62
     7
  5
251
 10
963372.914
 20
7254308.106
 30
0.0
  0
VERTEX
  8
21
  6
DASHDOT
 62
     7
  5
252
 10
963791.084
 20
7254299.409
 30
0.0
  0
SEQEND
  8
21
  6
DASHDOT
 62
     7
  5
253
  0
TEXT
  8
13
  6
CONTINUOUS
 62
    14
  5
254
 10
963492.635
 20
7254295.966
 30
0.0
 40
8.0
  1
V1048 P483
 50
358.0988
  7
txt
 72
     4
 11
963530.730795
 21
7254298.703637
 31
0.0
210
0.0
220
0.0
230
1.0
  0
TEXT
  8
22
  6
CONTINUOUS
 62
     3
  5
255
 10
963419.42
 20
7254311.409
 30
0.0
 40
6.0
  1
15'OVERHEAD POWER LINE EASEMENT
 50
358.0988
  7
txt
 72
     4
 11
963507.198236
 21
7254311.496908
 31
0.0
210
0.0
220
0.0
230
1.0
  0
LINE
  8
6
  6
CONTINUOUS
 62
     7
  5
256
 10
962732.911
 20
7256529.742
 30
0.0
 11
962469.829
 21
7256535.263
 31
0.0
  0
LINE
  8
6
  6
CONTINUOUS
 62
     7
  5
257
 10
962469.829
 20
7256535.263
 30
0.0
 11
962461.066
 21
7256117.694
 31
0.0
  0
LINE
  8
6
  6
CONTINUOUS
 62
     7
  5
258
 10
962469.41
 20
7256515.264
 30
0.0
 11
962732.492
 21
7256509.746
 31
0.0
  0
LINE
  8
6
  6
CONTINUOUS
 62
     7
  5
259
 10
962669.865
 20
7256511.059
 30
0.0
 11
962661.649
 21
7256119.212
 31
0.0
  0
TEXT
  8
11
  6
CONTINUOUS
 62
     7
  5
25A
 10
962539.682
 20
7256539.161
 30
0.0
 40
8.0
  1
262.5'
 50
358.0988
  7
txt
 72
     4
 11
962559.26799
 21
7256542.513058
 31
0.0
210
0.0
220
0.0
230
1.0
  0
TEXT
  8
11
  6
CONTINUOUS
 62
     7
  5
25B
 10
962526.967
 20
7256505.191
 30
0.0
 40
8.0
  1
200.5'
 50
358.0988
  7
txt
 72
     4
 11
962546.678921
 21
7256508.538878
 31
0.0
210
0.0
220
0.0
230
1.0
  0
TEXT
  8
11
  6
CONTINUOUS
 62
     7
  5
25C
 10
962514.389
 20
7256126.265
 30
0.0
 40
8.0
  1
200.5'
 50
358.0988
  7
txt
 72
     4
 11
962534.100921
 21
7256129.612878
 31
0.0
210
0.0
220
0.0
230
1.0
  0
TEXT
  8
11
  6
CONTINUOUS
 62
     7
  5
25D
 10
962671.443
 20
7256502.48
 30
0.0
 40
8.0
  1
62'
 50
358.0988
  7
txt
 72
     4
 11
962681.018504
 21
7256506.16435
 31
0.0
210
0.0
220
0.0
230
1.0
  0
TEXT
  8
11
  6
CONTINUOUS
 62
     7
  5
25E
 10
962482.158
 20
7256517.087
 30
0.0
 40
8.0
  1
20'
 50
88.0988
  7
txt
 72
     4
 11
962478.478892
 21
7256526.820417
 31
0.0
210
0.0
220
0.0
230
1.0
  0
TEXT
  8
11
  6
CONTINUOUS
 62
     7
  5
25F
 10
962723.688
 20
7256515.352
 30
0.0
 40
8.0
  1
20'
 50
88.0988
  7
txt
 72
     4
 11
962720.008892
 21
7256525.085417
 31
0.0
210
0.0
220
0.0
230
1.0
  0
TEXT
  8
11
  6
CONTINUOUS
 62
     7
  5
260
 10
962452.766
 20
7256289.815
 30
0.0
 40
8.0
  1
394.8'
 50
88.0988
  7
txt
 72
     4
 11
962449.420212
 21
7256309.589886
 31
0.0
210
0.0
220
0.0
230
1.0
  0
TEXT
  8
11
  6
CONTINUOUS
 62
     7
  5
261
 10
962641.061
 20
7256311.923
 30
0.0
 40
8.0
  1
390.3'
 50
88.0988
  7
txt
 72
     4
 11
962637.70788
 21
7256331.477008
 31
0.0
210
0.0
220
0.0
230
1.0
  0
TEXT
  8
10
  6
CONTINUOUS
 62
   134
  5
262
 10
960967.363
 20
7256567.197
 30
0.0
 40
13.999
  1
1
 50
358.0988
  7
ROMANS
 11
960967.827432
 21
7256581.188294
 31
0.0
210
0.0
220
0.0
230
1.0
 73
     3
  0
LINE
  8
6
  6
CONTINUOUS
 62
     7
  5
263
 10
962740.869
 20
7256909.263
 30
0.0
 11
962732.911
 21
7256529.742
 31
0.0
  0
LINE
  8
6
  6
CONTINUOUS
 62
     7
  5
264
 10
962732.492
 20
7256509.746
 30
0.0
 11
962724.654
 21
7256135.907
 31
0.0
  0
LINE
  8
21
  6
DASHDOT
 62
     7
  5
265
 10
960076.171
 20
7254393.386
 30
0.0
 11
962698.928
 21
7253523.593
 31
0.0
  0
LINE
  8
21
  6
DASHDOT
 62
     7
  5
266
 10
960982.503
 20
7254339.33
 30
0.0
 11
960918.047
 21
7254360.648
 31
0.0
  0
LINE
  8
21
  6
DASHDOT
 62
     7
  5
267
 10
960892.162
 20
7254356.956
 30
0.0
 11
962513.163
 21
7254323.912
 31
0.0
  0
LINE
  8
21
  6
DASHDOT
 62
     7
  5
268
 10
962513.374
 20
7254324.551
 30
0.0
 11
962512.966
 21
7254304.556
 31
0.0
  0
LINE
  8
21
  6
DASHDOT
 62
     7
  5
269
 10
962538.64
 20
7254307.609
 30
0.0
 11
960982.503
 21
7254339.33
 31
0.0
  0
TEXT
  8
22
  6
CONTINUOUS
 62
     3
  5
26A
 10
961339.66
 20
7254317.753
 30
0.0
 40
8.0
  1
20' ELECTRIC UTILITY EASEMENT
 50
358.786103
  7
ROMANS
210
0.0
220
0.0
230
1.0
  0
TEXT
  8
22
  6
CONTINUOUS
 62
     3
  5
26B
 10
962704.935
 20
7254250.054
 30
0.0
 40
8.0
  1
GWE
 50
88.0988
  7
txt
 72
     4
 11
962701.329045
 21
7254261.991203
 31
0.0
210
0.0
220
0.0
230
1.0
  0
TEXT
  8
22
  6
CONTINUOUS
 62
     3
  5
26C
 10
962655.964
 20
7254294.733
 30
0.0
 40
8.0
  1
GWE
 50
358.0988
  7
txt
 72
     4
 11
962667.901203
 21
7254298.338955
 31
0.0
210
0.0
220
0.0
230
1.0
  0
TEXT
  8
13
  6
CONTINUOUS
 62
    14
  5
26D
 10
962545.305
 20
7253780.448
 30
0.0
 40
8.0
  1
V1337 P969
 50
341.698925
  7
txt
 72
     1
 11
962580.558848
 21
7253768.788171
 31
0.0
210
0.0
220
0.0
230
1.0
  0
TEXT
  8
13
  6
CONTINUOUS
 62
    14
  5
26E
 10
962715.067
 20
7253726.609
 30
0.0
 40
8.0
  1
V1337 P971
 50
88.0988
  7
txt
 72
     4
 11
962712.267656
 21
7253762.845819
 31
0.0
210
0.0
220
0.0
230
1.0
  0
LINE
  8
21
  6
DASHDOT
 62
     7
  5
26F
 10
958058.416
 20
7255612.359
 30
0.0
 11
957861.564
 21
7255532.23
 31
0.0
  0
TEXT
  8
22
  6
CONTINUOUS
 62
     3
  5
270
 10
957899.884
 20
7255369.445
 30
0.0
 40
8.0
  1
GWE
 50
84.0988
  7
txt
 72
     4
 11
957897.119526
 21
7255381.604663
 31
0.0
210
0.0
220
0.0
230
1.0
  0
TEXT
  8
22
  6
CONTINUOUS
 62
     3
  5
271
 10
957907.681
 20
7255443.564
 30
0.0
 40
8.0
  1
GWE CLOSED BY ORDINANCE
 50
84.0988
  7
txt
 72
     4
 11
957912.982543
 21
7255533.760914
 31
0.0
210
0.0
220
0.0
230
1.0
  0
POLYLINE
  8
21
  6
DASHDOT
 62
     7
  5
272
 66
     1
 10
0.0
 20
0.0
 30
0.0
 70
     1
  0
VERTEX
  8
21
  6
DASHDOT
 62
     7
  5
273
 10
962700.644
 20
7253722.208
 30
0.0
  0
VERTEX
  8
21
  6
DASHDOT
 62
     7
  5
274
 10
962701.39
 20
7253758.8
 30
0.0
  0
VERTEX
  8
21
  6
DASHDOT
 62
     7
  5
275
 10
962718.28
 20
7253753.214
 30
0.0
  0
VERTEX
  8
21
  6
DASHDOT
 62
     7
  5
276
 10
962717.534
 20
7253716.622
 30
0.0
  0
VERTEX
  8
21
  6
DASHDOT
 62
     7
  5
277
 10
962700.644
 20
7253722.208
 30
0.0
  0
SEQEND
  8
21
  6
DASHDOT
 62
     7
  5
278
  0
TEXT
  8
22
  6
CONTINUOUS
 62
     3
  5
279
 10
957411.652
 20
7256240.011
 30
0.0
 40
6.0
  1
30'
 50
88.099389
  7
txt
 72
     1
 11
957411.890927
 21
7256247.211037
 31
0.0
210
0.0
220
0.0
230
1.0
  0
TEXT
  8
22
  6
CONTINUOUS
 62
     3
  5
27A
 10
957830.799
 20
7256255.052
 30
0.0
 40
6.0
  1
850.00'
 50
358.772964
  7
txt
 72
     1
 11
957848.462949
 21
7256254.673654
 31
0.0
210
0.0
220
0.0
230
1.0
  0
TEXT
  8
22
  6
CONTINUOUS
 62
     3
  5
27B
 10
958270.635
 20
7256223.05
 30
0.0
 40
6.0
  1
30'
 50
88.099389
  7
txt
 72
     1
 11
958270.873927
 21
7256230.250037
 31
0.0
210
0.0
220
0.0
230
1.0
  0
TEXT
  8
22
  6
CONTINUOUS
 62
     3
  5
27C
 10
957830.211
 20
7256216.46
 30
0.0
 40
6.0
  1
850.00'
 50
358.772964
  7
txt
 72
     1
 11
957847.874949
 21
7256216.081654
 31
0.0
210
0.0
220
0.0
230
1.0
  0
TEXT
  8
13
  6
CONTINUOUS
 62
    14
  5
27D
 10
957859.094
 20
7256235.684
 30
0.0
 40
8.0
  1
V2976 P118
 50
358.772964
  7
txt
 72
     1
 11
957894.768818
 21
7256234.919878
 31
0.0
210
0.0
220
0.0
230
1.0
  0
POLYLINE
  8
6
  6
CONTINUOUS
 62
     7
  5
27E
 66
     1
 10
0.0
 20
0.0
 30
0.0
  0
VERTEX
  8
6
  6
CONTINUOUS
 62
     7
  5
27F
 10
962506.038
 20
7253974.106
 30
0.0
  0
VERTEX
  8
6
  6
CONTINUOUS
 62
     7
  5
280
 10
962705.74
 20
7253970.172
 30
0.0
  0
VERTEX
  8
6
  6
CONTINUOUS
 62
     7
  5
281
 10
962700.87
 20
7253722.822
 30
0.0
  0
SEQEND
  8
6
  6
CONTINUOUS
 62
     7
  5
282
  0
TEXT
  8
11
  6
CONTINUOUS
 62
     7
  5
283
 10
962581.277
 20
7253961.453
 30
0.0
 40
8.0
  1
199.74'
 50
358.0988
  7
txt
 72
     4
 11
962603.474552
 21
7253964.718369
 31
0.0
210
0.0
220
0.0
230
1.0
  0
TEXT
  8
11
  6
CONTINUOUS
 62
     7
  5
284
 10
962513.775
 20
7253877.239
 30
0.0
 40
8.0
  1
149.28'
 50
88.0988
  7
txt
 72
     4
 11
962510.514906
 21
7253899.595464
 31
0.0
210
0.0
220
0.0
230
1.0
  0
TEXT
  8
11
  6
CONTINUOUS
 62
     7
  5
285
 10
962712.146
 20
7253835.535
 30
0.0
 40
8.0
  1
247.41'
 50
88.0988
  7
txt
 72
     4
 11
962708.899475
 21
7253858.300239
 31
0.0
210
0.0
220
0.0
230
1.0
  0
TEXT
  8
11
  6
CONTINUOUS
 62
     7
  5
286
 10
962701.268
 20
7253836.066
 30
0.0
 40
8.0
  1
210'79'
 50
88.0988
  7
txt
 72
     4
 11
962697.989062
 21
7253857.854777
 31
0.0
210
0.0
220
0.0
230
1.0
  0
TEXT
  8
11
  6
CONTINUOUS
 62
     7
  5
287
 10
962707.211
 20
7253958.887
 30
0.0
 40
8.0
  1
17'
 50
358.0988
  7
txt
 72
     4
 11
962715.591162
 21
7253962.611029
 31
0.0
210
0.0
220
0.0
230
1.0
  0
TEXT
  8
11
  6
CONTINUOUS
 62
     7
  5
288
 10
962585.627
 20
7253800.334
 30
0.0
 40
8.0
  1
209'
 50
341.0988
  7
txt
 72
     4
 11
962599.615339
 21
7253799.772372
 31
0.0
210
0.0
220
0.0
230
1.0
  0
LINE
  8
21
  6
DASHDOT
 62
     7
  5
289
 10
962683.508
 20
7253764.73
 30
0.0
 11
962687.689
 21
7253969.934
 31
0.0
  0
LINE
  8
21
  6
DASHDOT
 62
     7
  5
28A
 10
962687.689
 20
7253969.934
 30
0.0
 11
962700.687
 21
7253969.669
 31
0.0
  0
LINE
  8
21
  6
DASHDOT
 62
     7
  5
28B
 10
962700.687
 20
7253969.669
 30
0.0
 11
962696.424
 21
7253760.462
 31
0.0
  0
LINE
  8
21
  6
DASHDOT
 62
     7
  5
28C
 10
962696.424
 20
7253760.462
 30
0.0
 11
962683.508
 21
7253764.73
 31
0.0
  0
LINE
  8
21
  6
DASHDOT
 62
     7
  5
28D
 10
962696.424
 20
7253760.462
 30
0.0
 11
962700.687
 21
7253969.669
 31
0.0
  0
LINE
  8
21
  6
DASHDOT
 62
     7
  5
28E
 10
962700.687
 20
7253969.669
 30
0.0
 11
962705.686
 21
7253969.567
 31
0.0
  0
LINE
  8
21
  6
DASHDOT
 62
     7
  5
28F
 10
962705.686
 20
7253969.567
 30
0.0
 11
962701.392
 21
7253758.82
 31
0.0
  0
LINE
  8
21
  6
DASHDOT
 62
     7
  5
290
 10
962701.392
 20
7253758.82
 30
0.0
 11
962696.424
 21
7253760.462
 31
0.0
  0
TEXT
  8
22
  6
CONTINUOUS
 62
     3
  5
291
 10
962681.33
 20
7253770.326
 30
0.0
 40
8.0
  1
18'PRIVATE ACCESS EASEMENT
 50
88.0988
  7
txt
 72
     4
 11
962680.547232
 21
7253867.313359
 31
0.0
210
0.0
220
0.0
230
1.0
  0
TEXT
  8
22
  6
CONTINUOUS
 62
     3
  5
292
 10
962699.299
 20
7253764.589
 30
0.0
 40
8.0
  1
5'UUE
 50
88.0988
  7
txt
 72
     4
 11
962695.8362
 21
7253780.838827
 31
0.0
210
0.0
220
0.0
230
1.0
  0
TEXT
  8
13
  6
CONTINUOUS
 62
    14
  5
293
 10
962696.398
 20
7253883.866
 30
0.0
 40
8.0
  1
V2440 P88
 50
88.0988
  7
txt
 72
     4
 11
962693.573641
 21
7253919.349234
 31
0.0
210
0.0
220
0.0
230
1.0
  0
TEXT
  8
10
  6
CONTINUOUS
 62
   134
  5
294
 10
962596.079
 20
7253881.276
 30
0.0
 40
13.999
  1
1
 50
358.0988
  7
txt
 72
     4
 11
962598.51402
 21
7253888.199027
 31
0.0
210
0.0
220
0.0
230
1.0
  0
TEXT
  8
15
  6
CONTINUOUS
 62
    30
  5
295
 10
962348.426
 20
7253673.933
 30
0.0
 40
50.0
  1
D AND D
 50
43.0988
  7
ROMANC
 72
     4
 11
962472.770981
 21
7253824.526383
 31
0.0
210
0.0
220
0.0
230
1.0
  0
TEXT
  8
15
  6
CONTINUOUS
 62
    30
  5
296
 10
962290.673
 20
7253467.152
 30
0.0
 40
50.0
  1
INVESTMENTS
 50
43.0988
  7
ROMANC
 72
     4
 11
962484.15256
 21
7253682.437663
 31
0.0
210
0.0
220
0.0
230
1.0
  0
POLYLINE
  8
21
  6
DASHDOT
 62
     7
  5
297
 66
     1
 10
0.0
 20
0.0
 30
0.0
 70
     1
  0
VERTEX
  8
21
  6
DASHDOT
 62
     7
  5
298
 10
957903.947
 20
7255559.155
 30
0.0
  0
VERTEX
  8
21
  6
DASHDOT
 62
     7
  5
299
 10
957909.19
 20
7255561.289
 30
0.0
  0
VERTEX
  8
21
  6
DASHDOT
 62
     7
  5
29A
 10
957889.62
 20
7255360.541
 30
0.0
  0
VERTEX
  8
21
  6
DASHDOT
 62
     7
  5
29B
 10
957884.881
 20
7255363.582
 30
0.0
  0
VERTEX
  8
21
  6
DASHDOT
 62
     7
  5
29C
 10
957903.947
 20
7255559.155
 30
0.0
  0
SEQEND
  8
21
  6
DASHDOT
 62
     7
  5
29D
  0
POLYLINE
  8
25
  6
CONTINUOUS
 62
   212
  5
29F
 66
     1
 10
0.0
 20
0.0
 30
0.0
 70
     1
  0
VERTEX
  8
25
  6
CONTINUOUS
 62
   212
  5
2A0
 10
957903.949
 20
7255559.168
 30
0.0
  0
VERTEX
  8
25
  6
CONTINUOUS
 62
   212
  5
2A1
 10
957909.19
 20
7255561.289
 30
0.0
  0
VERTEX
  8
25
  6
CONTINUOUS
 62
   212
  5
2A2
 10
957896.969
 20
7255435.924
 30
0.0
  0
VERTEX
  8
25
  6
CONTINUOUS
 62
   212
  5
2A3
 10
957891.982
 20
7255436.41
 30
0.0
  0
VERTEX
  8
25
  6
CONTINUOUS
 62
   212
  5
2A4
 10
957903.949
 20
7255559.168
 30
0.0
  0
SEQEND
  8
25
  6
CONTINUOUS
 62
   212
  5
2A5
  0
TEXT
  8
13
  6
CONTINUOUS
 62
    14
  5
2A6
 10
957882.446
 20
7255373.852
 30
0.0
 40
8.0
  1
V1289 P597
 50
84.0988
  7
txt
 72
     4
 11
957882.281573
 21
7255411.166648
 31
0.0
210
0.0
220
0.0
230
1.0
  0
TEXT
  8
13
  6
CONTINUOUS
 62
    14
  5
2A7
 10
957892.296
 20
7255473.212
 30
0.0
 40
8.0
  1
V3480 P200
 50
84.0988
  7
txt
 72
     4
 11
957892.338948
 21
7255512.532959
 31
0.0
210
0.0
220
0.0
230
1.0
  0
TEXT
  8
19
  6
CONTINUOUS
 62
     1
  5
2A8
 10
957410.532
 20
7252985.759
 30
0.0
 40
24.0
  1
MARTIN LUTHER KING JR.  BLVD
 50
88.0988
  7
ROMANC
 72
     4
 11
957410.055029
 21
7253333.096026
 31
0.0
210
0.0
220
0.0
230
1.0
  0
TEXT
  8
11
  6
CONTINUOUS
 62
     7
  5
2A9
 10
959968.528
 20
7254422.686
 30
0.0
 40
8.0
  1
75.28'
 50
340.434925
  7
ROMANS
 72
     4
 11
959989.969721
 21
7254419.310775
 31
0.0
210
0.0
220
0.0
230
1.0
  0
TEXT
  8
10
  6
CONTINUOUS
 62
   134
  5
2AA
 10
959980.229
 20
7254391.37
 30
0.0
 40
13.999
  1
A
 50
357.434925
  7
txt
 72
     4
 11
959985.936868
 21
7254398.121314
 31
0.0
210
0.0
220
0.0
230
1.0
  0
LINE
  8
7
  6
CONTINUOUS
 62
     7
  5
2AB
 10
959774.871
 20
7254524.501
 30
0.0
 11
959770.681
 21
7254394.555
 31
0.0
  0
LINE
  8
7
  6
CONTINUOUS
 62
     7
  5
2AC
 10
959953.037
 20
7254387.152
 30
0.0
 11
959954.315
 21
7254425.652
 31
0.0
  0
TEXT
  8
11
  6
CONTINUOUS
 62
     7
  5
2AD
 10
959680.194
 20
7254397.771
 30
0.0
 40
8.0
  1
150.58'
 50
358.098703
  7
txt
 72
     1
 11
959702.385776
 21
7254397.03432
 31
0.0
210
0.0
220
0.0
230
1.0
  0
TEXT
  8
11
  6
CONTINUOUS
 62
     7
  5
2AE
 10
959792.232
 20
7254394.152
 30
0.0
 40
8.0
  1
178.13'
 50
358.098703
  7
txt
 72
     1
 11
959813.070521
 21
7254393.460243
 31
0.0
210
0.0
220
0.0
230
1.0
  0
TEXT
  8
10
  6
CONTINUOUS
 62
   134
  5
2AF
 10
959617.26
 20
7254448.768
 30
0.0
 40
13.999
  1
 7A
 50
358.098703
  7
txt
 72
     1
 11
959636.70329
 21
7254448.122559
 31
0.0
210
0.0
220
0.0
230
1.0
  0
TEXT
  8
10
  6
CONTINUOUS
 62
   134
  5
2B0
 10
959788.258
 20
7254425.639
 30
0.0
 40
13.999
  1
7B
 50
358.098703
  7
txt
 72
     1
 11
959799.989538
 21
7254425.249559
 31
0.0
210
0.0
220
0.0
230
1.0
  0
TEXT
  8
13
  6
CONTINUOUS
 62
    14
  5
2B1
 10
959801.7
 20
7254473.511
 30
0.0
 40
6.0
  1
V2938 P252
 50
340.988125
  7
txt
 72
     1
 11
959829.258953
 21
7254464.015302
 31
0.0
210
0.0
220
0.0
230
1.0
  0
TEXT
  8
22
  6
CONTINUOUS
 62
     3
  5
2B2
 10
959634.58
 20
7254513.068
 30
0.0
 40
6.0
  1
45' BUILDING SETBACK 
 50
340.988133
  7
txt
 72
     1
 11
959687.836316
 21
7254494.718041
 31
0.0
210
0.0
220
0.0
230
1.0
  0
TEXT
  8
13
  6
CONTINUOUS
 62
    14
  5
2B3
 10
959752.429
 20
7254470.528
 30
0.0
 40
6.0
  1
V2938 P252
 50
340.988125
  7
txt
 72
     1
 11
959779.987953
 21
7254461.032302
 31
0.0
210
0.0
220
0.0
230
1.0
  0
TEXT
  8
22
  6
CONTINUOUS
 62
     3
  5
2B4
 10
959639.384
 20
7254434.144
 30
0.0
 40
6.0
  1
5' UUE-SPS
 50
88.153269
  7
txt
 72
     1
 11
959640.182495
 21
7254458.909131
 31
0.0
210
0.0
220
0.0
230
1.0
  0
TEXT
  8
22
  6
CONTINUOUS
 62
     3
  5
2B5
 10
959784.429
 20
7254397.957
 30
0.0
 40
6.0
  1
5' UUE-SPS
 50
88.153269
  7
txt
 72
     1
 11
959785.227495
 21
7254422.722131
 31
0.0
210
0.0
220
0.0
230
1.0
  0
POLYLINE
  8
21
  6
DASHDOT
 62
     7
  5
2B6
 66
     1
 10
0.0
 20
0.0
 30
0.0
 70
     1
  0
VERTEX
  8
21
  6
DASHDOT
 62
     7
  5
2B7
 10
959630.172
 20
7254574.348
 30
0.0
  0
VERTEX
  8
21
  6
DASHDOT
 62
     7
  5
2B8
 10
959624.487
 20
7254398.058
 30
0.0
  0
VERTEX
  8
21
  6
DASHDOT
 62
     7
  5
2B9
 10
959629.485
 20
7254397.892
 30
0.0
  0
VERTEX
  8
21
  6
DASHDOT
 62
     7
  5
2BA
 10
959635.12
 20
7254572.643
 30
0.0
  0
SEQEND
  8
21
  6
DASHDOT
 62
     7
  5
2BB
  0
POLYLINE
  8
21
  6
DASHDOT
 62
     7
  5
2BC
 66
     1
 10
0.0
 20
0.0
 30
0.0
 70
     1
  0
VERTEX
  8
21
  6
DASHDOT
 62
     7
  5
2BD
 10
959779.818
 20
7254522.795
 30
0.0
  0
VERTEX
  8
21
  6
DASHDOT
 62
     7
  5
2BE
 10
959774.871
 20
7254524.501
 30
0.0
  0
VERTEX
  8
21
  6
DASHDOT
 62
     7
  5
2BF
 10
959770.681
 20
7254394.555
 30
0.0
  0
VERTEX
  8
21
  6
DASHDOT
 62
     7
  5
2C0
 10
959775.678
 20
7254394.389
 30
0.0
  0
SEQEND
  8
21
  6
DASHDOT
 62
     7
  5
2C1
  0
TEXT
  8
11
  6
CONTINUOUS
 62
     7
  5
2C2
 10
959802.571
 20
7254488.254
 30
0.0
 40
8.0
  1
186.52'
 50
340.988178
  7
txt
 72
     1
 11
959826.020527
 21
7254488.635835
 31
0.0
210
0.0
220
0.0
230
1.0
 73
     3
  0
TEXT
  8
11
  6
CONTINUOUS
 62
     7
  5
2C3
 10
959640.823
 20
7254543.987
 30
0.0
 40
8.0
  1
157.6'
 50
340.988178
  7
txt
 72
     1
 11
959660.520976
 21
7254545.661463
 31
0.0
210
0.0
220
0.0
230
1.0
 73
     3
  0
TEXT
  8
11
  6
CONTINUOUS
 62
     7
  5
2C4
 10
959769.28
 20
7254411.218
 30
0.0
 40
8.0
  1
130.02'
 50
88.153408
  7
txt
 72
     1
 11
959761.998615
 21
7254433.636274
 31
0.0
210
0.0
220
0.0
230
1.0
 73
     3
  0
LINE
  8
21
  6
DASHDOT
 62
     7
  5
2C5
 10
959953.938
 20
7254398.814
 30
0.0
 11
959628.649
 21
7254510.895
 31
0.0
  0
LINE
  8
6
  6
CONTINUOUS
 62
     7
  5
2C6
 10
959955.505
 20
7254462.252
 30
0.0
 11
959630.095
 21
7254574.125
 31
0.0
  0
TEXT
  8
11
  6
CONTINUOUS
 62
     7
  5
2C7
 10
959950.303
 20
7254392.51
 30
0.0
 40
8.0
  1
75.14'
 50
87.434925
  7
txt
 72
     4
 11
959947.132989
 21
7254411.126524
 31
0.0
210
0.0
220
0.0
230
1.0
  0
LINE
  8
7
  6
CONTINUOUS
 62
     7
  5
2C8
 10
959624.487
 20
7254398.058
 30
0.0
 11
959628.992
 21
7254537.736
 31
0.0
  0
POLYLINE
  8
21
  6
DASHDOT
 62
     7
  5
2C9
 66
     1
 10
0.0
 20
0.0
 30
0.0
 70
     1
  0
VERTEX
  8
21
  6
DASHDOT
 62
     7
  5
2CA
 10
959630.172
 20
7254574.348
 30
0.0
  0
VERTEX
  8
21
  6
DASHDOT
 62
     7
  5
2CB
 10
959628.992
 20
7254537.735
 30
0.0
  0
VERTEX
  8
21
  6
DASHDOT
 62
     7
  5
2CC
 10
959954.29
 20
7254425.65
 30
0.0
  0
VERTEX
  8
21
  6
DASHDOT
 62
     7
  5
2CD
 10
959955.505
 20
7254462.252
 30
0.0
  0
SEQEND
  8
21
  6
DASHDOT
 62
     7
  5
2CE
  0
LINE
  8
6
  6
CONTINUOUS
 62
     7
  5
2CF
 10
959628.94
 20
7254537.512
 30
0.0
 11
959630.095
 21
7254574.125
 31
0.0
  0
LINE
  8
6
  6
CONTINUOUS
 62
     7
  5
2D0
 10
959954.315
 20
7254425.652
 30
0.0
 11
959955.505
 21
7254462.252
 31
0.0
  0
LINE
  8
6
  6
CONTINUOUS
 62
     7
  5
2D1
 10
960025.877
 20
7254401.05
 30
0.0
 11
959954.315
 21
7254425.652
 31
0.0
  0
LINE
  8
6
  6
CONTINUOUS
 62
     7
  5
2D2
 10
959628.94
 20
7254537.512
 30
0.0
 11
958559.431
 21
7254905.197
 31
0.0
  0
TEXT
  8
22
  6
CONTINUOUS
 62
     3
  5
2D3
 10
959680.18
 20
7254526.471
 30
0.0
 40
6.0
  1
35' R-O-W RESERVATION
 50
340.988125
  7
txt
 72
     1
 11
959734.804382
 21
7254507.649653
 31
0.0
210
0.0
220
0.0
230
1.0
  0
LINE
  8
6
  6
CONTINUOUS
 62
     7
  5
2D4
 10
963680.706
 20
7256311.248
 30
0.0
 11
963693.87
 21
7256944.169
 31
0.0
  0
POLYLINE
  8
6
  6
CONTINUOUS
 62
     7
  5
2D5
 66
     1
 10
0.0
 20
0.0
 30
0.0
  0
VERTEX
  8
6
  6
CONTINUOUS
 62
     7
  5
2D6
 10
958753.162
 20
7254406.149
 30
0.0
  0
VERTEX
  8
6
  6
CONTINUOUS
 62
     7
  5
2D7
 10
958710.599
 20
7253096.84
 30
0.0
  0
VERTEX
  8
6
  6
CONTINUOUS
 62
     7
  5
2D8
 10
960029.903
 20
7253053.952
 30
0.0
  0
VERTEX
  8
6
  6
CONTINUOUS
 62
     7
  5
2D9
 10
960054.254
 20
7253803.031
 30
0.0
  0
SEQEND
  8
6
  6
CONTINUOUS
 62
     7
  5
2DA
  0
LINE
  8
6
  6
CONTINUOUS
 62
     7
  5
2DB
 10
960054.932
 20
7253823.869
 30
0.0
 11
960074.35
 21
7254421.23
 31
0.0
  0
ARC
  8
0
  6
CONTINUOUS
 62
     2
  5
2DC
 10
958764.785439
 20
7253147.612731
 30
0.0
 40
15.0
 50
178.1381
 51
268.138133
210
0.0
220
0.0
230
1.0
  0
TEXT
  8
19
  6
CONTINUOUS
 62
     1
  5
2DD
 10
959091.664
 20
7253090.575
 30
0.0
 40
24.0
  1
E 78TH ST
 50
358.0988
  7
ROMANC
 72
     4
 11
959205.568596
 21
7253098.800617
 31
0.0
210
0.0
220
0.0
230
1.0
  0
LINE
  8
6
  6
CONTINUOUS
 62
     7
  5
2DE
 10
963973.194
 20
7256982.331
 30
0.0
 11
957551.422
 21
7257089.333
 31
0.0
  0
LINE
  8
6
  6
CONTINUOUS
 62
     7
  5
2DF
 10
962816.287
 20
7256958.84
 30
0.0
 11
963835.285
 21
7256941.805
 31
0.0
  0
LINE
  8
6
  6
CONTINUOUS
 62
     7
  5
2E0
 10
957566.28
 20
7257045.363
 30
0.0
 11
960186.663
 21
7256994.918
 31
0.0
  0
ARC
  8
6
  6
CONTINUOUS
 62
     7
  5
2E1
 10
957509.435143
 20
7251944.245553
 30
0.0
 40
99.115039
 50
173.152939
 51
258.285317
210
0.0
220
0.0
230
1.0
  0
LINE
  8
6
  6
CONTINUOUS
 62
     7
  5
2E2
 10
957583.292
 20
7255104.661
 30
0.0
 11
957448.722
 21
7254780.771
 31
0.0
  0
ARC
  8
6
  6
CONTINUOUS
 62
     7
  5
2E3
 10
958255.25622
 20
7254431.271169
 30
0.0
 40
879.02
 50
156.43415
 51
163.650819
210
0.0
220
0.0
230
1.0
  0
ARC
  8
6
  6
CONTINUOUS
 62
     7
  5
2E4
 10
957565.991085
 20
7257030.366035
 30
0.0
 40
15.0
 50
88.897131
 51
177.988667
210
0.0
220
0.0
230
1.0
  0
LINE
  8
6
  6
CONTINUOUS
 62
     7
  5
2E5
 10
957551.0
 20
7257030.892
 30
0.0
 11
957541.089
 21
7256748.67
 31
0.0
  0
ARC
  8
6
  6
CONTINUOUS
 62
     7
  5
2E6
 10
956987.058665
 20
7256784.091912
 30
0.0
 40
555.16153
 50
334.556519
 51
356.341775
210
0.0
220
0.0
230
1.0
  0
ARC
  8
6
  6
CONTINUOUS
 62
     7
  5
2E7
 10
957386.465796
 20
7256443.348073
 30
0.0
 40
144.351836
 50
359.294531
 51
45.091506
210
0.0
220
0.0
230
1.0
  0
LINE
  8
6
  6
CONTINUOUS
 62
     7
  5
2E8
 10
957530.807
 20
7256441.571
 30
0.0
 11
957507.585
 21
7255760.22
 31
0.0
  0
POLYLINE
  8
25
  6
CONTINUOUS
 62
   212
  5
2E9
 66
     1
 10
0.0
 20
0.0
 30
0.0
 70
     1
  0
VERTEX
  8
25
  6
CONTINUOUS
 62
   212
  5
2EA
 10
957390.776
 20
7255550.832
 30
0.0
  0
VERTEX
  8
25
  6
CONTINUOUS
 62
   212
  5
2EB
 10
957890.501
 20
7255534.245
 30
0.0
  0
VERTEX
  8
25
  6
CONTINUOUS
 62
   212
  5
2EC
 10
957892.99
 20
7255609.203
 30
0.0
  0
VERTEX
  8
25
  6
CONTINUOUS
 62
   212
  5
2ED
 10
957393.265
 20
7255625.791
 30
0.0
  0
VERTEX
  8
25
  6
CONTINUOUS
 62
   212
  5
2EE
 10
957390.776
 20
7255550.832
 30
0.0
  0
SEQEND
  8
25
  6
CONTINUOUS
 62
   212
  5
2EF
  0
POLYLINE
  8
25
  6
CONTINUOUS
 62
   212
  5
2F0
 66
     1
 10
0.0
 20
0.0
 30
0.0
 70
     1
  0
VERTEX
  8
25
  6
CONTINUOUS
 62
   212
  5
2F1
 10
958169.47
 20
7254895.657
 30
0.0
  0
VERTEX
  8
25
  6
CONTINUOUS
 62
   212
  5
2F2
 10
957369.91
 20
7254922.199
 30
0.0
  0
VERTEX
  8
25
  6
CONTINUOUS
 62
   212
  5
2F3
 10
957367.422
 20
7254847.24
 30
0.0
  0
VERTEX
  8
25
  6
CONTINUOUS
 62
   212
  5
2F4
 10
958166.981
 20
7254820.698
 30
0.0
  0
VERTEX
  8
25
  6
CONTINUOUS
 62
   212
  5
2F5
 10
958169.47
 20
7254895.657
 30
0.0
  0
SEQEND
  8
25
  6
CONTINUOUS
 62
   212
  5
2F6
  0
TEXT
  8
13
  6
CONTINUOUS
 62
    14
  5
2F7
 10
957703.797
 20
7255554.658
 30
0.0
 40
8.0
  1
V6524 P48
 50
358.098836
  7
txt
 72
     1
 11
957739.4749
 21
7255561.478123
 31
0.0
210
0.0
220
0.0
230
1.0
 73
     3
  0
TEXT
  8
13
  6
CONTINUOUS
 62
    14
  5
2F8
 10
957709.19
 20
7254868.993
 30
0.0
 40
8.0
  1
V3088 P212
 50
358.098767
  7
txt
 72
     1
 11
957746.775298
 21
7254867.745357
 31
0.0
210
0.0
220
0.0
230
1.0
  0
TEXT
  8
13
  6
CONTINUOUS
 62
    14
  5
2F9
 10
957703.386
 20
7254857.36
 30
0.0
 40
8.0
  1
V6524 P47
 50
358.098767
  7
txt
 72
     1
 11
957738.830477
 21
7254856.183422
 31
0.0
210
0.0
220
0.0
230
1.0
  0
POLYLINE
  8
21
  6
DASHDOT
 62
     7
  5
2FA
 66
     1
 10
0.0
 20
0.0
 30
0.0
 70
     1
  0
VERTEX
  8
21
  6
DASHDOT
 62
     7
  5
2FB
 10
957413.41
 20
7256232.647
 30
0.0
  0
VERTEX
  8
21
  6
DASHDOT
 62
     7
  5
2FC
 10
957414.404
 20
7256262.63
 30
0.0
  0
VERTEX
  8
21
  6
DASHDOT
 62
     7
  5
2FD
 10
958264.209
 20
7256244.428
 30
0.0
  0
VERTEX
  8
21
  6
DASHDOT
 62
     7
  5
2FE
 10
958263.214
 20
7256214.445
 30
0.0
  0
VERTEX
  8
21
  6
DASHDOT
 62
     7
  5
2FF
 10
957413.41
 20
7256232.647
 30
0.0
  0
SEQEND
  8
21
  6
DASHDOT
 62
     7
  5
300
  0
POLYLINE
  8
21
  6
DASHDOT
 62
     7
  5
301
 66
     1
 10
0.0
 20
0.0
 30
0.0
 70
     1
  0
VERTEX
  8
21
  6
DASHDOT
 62
     7
  5
302
 10
957480.198
 20
7254482.532
 30
0.0
  0
VERTEX
  8
21
  6
DASHDOT
 62
     7
  5
303
 10
958130.058
 20
7254469.016
 30
0.0
  0
VERTEX
  8
21
  6
DASHDOT
 62
     7
  5
304
 10
958129.08
 20
7254439.031
 30
0.0
  0
VERTEX
  8
21
  6
DASHDOT
 62
     7
  5
305
 10
957479.221
 20
7254452.548
 30
0.0
  0
VERTEX
  8
21
  6
DASHDOT
 62
     7
  5
306
 10
957480.198
 20
7254482.532
 30
0.0
  0
SEQEND
  8
21
  6
DASHDOT
 62
     7
  5
307
  0
LINE
  8
7
  6
CONTINUOUS
 62
     7
  5
308
 10
958779.23
 20
7254053.615
 30
0.0
 11
959103.058
 21
7254043.088
 31
0.0
  0
LINE
  8
7
  6
CONTINUOUS
 62
     7
  5
309
 10
959114.479
 20
7254394.402
 30
0.0
 11
959103.058
 21
7254043.088
 31
0.0
  0
LINE
  8
7
  6
CONTINUOUS
 62
     7
  5
30A
 10
959252.336
 20
7254389.921
 30
0.0
 11
959237.017
 21
7253918.67
 31
0.0
  0
LINE
  8
7
  6
CONTINUOUS
 62
     7
  5
30B
 10
958775.331
 20
7253933.678
 30
0.0
 11
959237.017
 21
7253918.67
 31
0.0
  0
POLYLINE
  8
21
  6
DASHDOT
 62
     7
  5
30C
 66
     1
 10
0.0
 20
0.0
 30
0.0
 70
     1
  0
VERTEX
  8
21
  6
DASHDOT
 62
     7
  5
30D
 10
958776.568
 20
7253953.648
 30
0.0
  0
VERTEX
  8
21
  6
DASHDOT
 62
     7
  5
30E
 10
959237.667
 20
7253938.659
 30
0.0
  0
VERTEX
  8
21
  6
DASHDOT
 62
     7
  5
30F
 10
959237.017
 20
7253918.67
 30
0.0
  0
VERTEX
  8
21
  6
DASHDOT
 62
     7
  5
310
 10
958775.331
 20
7253933.678
 30
0.0
  0
SEQEND
  8
21
  6
DASHDOT
 62
     7
  5
311
  0
TEXT
  8
22
  6
CONTINUOUS
 62
     3
  5
312
 10
958841.908
 20
7253938.848
 30
0.0
 40
6.0
  1
20' POWER LINE ESMT
 50
358.138136
  7
txt
 72
     1
 11
958893.686692
 21
7253943.167994
 31
0.0
210
0.0
220
0.0
230
1.0
 73
     3
  0
TEXT
  8
11
  6
CONTINUOUS
 62
     7
  5
313
 10
958992.86
 20
7253929.608
 30
0.0
 40
8.0
  1
461.93'
 50
358.138144
  7
txt
 72
     1
 11
959014.894361
 21
7253928.89173
 31
0.0
210
0.0
220
0.0
230
1.0
  0
TEXT
  8
11
  6
CONTINUOUS
 62
     7
  5
314
 10
958788.816
 20
7253991.063
 30
0.0
 40
8.0
  1
120'
 50
88.098836
  7
txt
 72
     1
 11
958781.224746
 21
7254003.509695
 31
0.0
210
0.0
220
0.0
230
1.0
 73
     3
  0
TEXT
  8
11
  6
CONTINUOUS
 62
     7
  5
315
 10
958939.15
 20
7254051.418
 30
0.0
 40
8.0
  1
324'
 50
358.138083
  7
txt
 72
     1
 11
958952.9687
 21
7254050.968781
 31
0.0
210
0.0
220
0.0
230
1.0
  0
TEXT
  8
11
  6
CONTINUOUS
 62
     7
  5
316
 10
959242.301
 20
7254173.571
 30
0.0
 40
8.0
  1
471.5'
 50
88.138136
  7
txt
 72
     1
 11
959242.900634
 21
7254192.017256
 31
0.0
210
0.0
220
0.0
230
1.0
  0
TEXT
  8
11
  6
CONTINUOUS
 62
     7
  5
317
 10
959105.655
 20
7254215.321
 30
0.0
 40
8.0
  1
351.5'
 50
88.138006
  7
txt
 72
     1
 11
959106.247528
 21
7254233.547371
 31
0.0
210
0.0
220
0.0
230
1.0
  0
TEXT
  8
11
  6
CONTINUOUS
 62
     7
  5
318
 10
958795.767
 20
7254223.784
 30
0.0
 40
8.0
  1
351.5'
 50
88.138083
  7
txt
 72
     1
 11
958788.363727
 21
7254242.270299
 31
0.0
210
0.0
220
0.0
230
1.0
 73
     3
  0
TEXT
  8
11
  6
CONTINUOUS
 62
     7
  5
319
 10
958944.916
 20
7254388.908
 30
0.0
 40
8.0
  1
324'
 50
358.138111
  7
txt
 72
     1
 11
958958.994624
 21
7254396.454564
 31
0.0
210
0.0
220
0.0
230
1.0
 73
     3
  0
TEXT
  8
11
  6
CONTINUOUS
 62
     7
  5
31A
 10
959159.777
 20
7254381.645
 30
0.0
 40
8.0
  1
137.93'
 50
358.098811
  7
txt
 72
     1
 11
959182.108254
 21
7254388.908138
 31
0.0
210
0.0
220
0.0
230
1.0
 73
     3
  0
LINE
  8
6
  6
CONTINUOUS
 62
     7
  5
31B
 10
959238.852
 20
7253975.12
 30
0.0
 11
959630.168
 21
7253962.399
 31
0.0
  0
POLYLINE
  8
21
  6
DASHDOT
 62
     7
  5
31C
 66
     1
 10
0.0
 20
0.0
 30
0.0
 70
     1
  0
VERTEX
  8
21
  6
DASHDOT
 62
     7
  5
31D
 10
959252.336
 20
7254389.921
 30
0.0
  0
VERTEX
  8
21
  6
DASHDOT
 62
     7
  5
31E
 10
959643.652
 20
7254377.2
 30
0.0
  0
VERTEX
  8
21
  6
DASHDOT
 62
     7
  5
31F
 10
959642.677
 20
7254347.216
 30
0.0
  0
VERTEX
  8
21
  6
DASHDOT
 62
     7
  5
320
 10
959251.361
 20
7254359.937
 30
0.0
  0
SEQEND
  8
21
  6
DASHDOT
 62
     7
  5
321
  0
TEXT
  8
10
  6
CONTINUOUS
 62
   134
  5
322
 10
959437.92
 20
7254171.23
 30
0.0
 40
13.999
  1
A
 50
358.0988
  7
ROMANS
 11
959438.384432
 21
7254185.221294
 31
0.0
210
0.0
220
0.0
230
1.0
 73
     3
  0
TEXT
  8
15
  6
CONTINUOUS
 62
    30
  5
323
 10
959320.324
 20
7254102.058
 30
0.0
 40
50.0
  1
KINSEY
 50
43.0988
  7
ROMANC
 72
     4
 11
959414.631706
 21
7254224.544179
 31
0.0
210
0.0
220
0.0
230
1.0
  0
TEXT
  8
15
  6
CONTINUOUS
 62
    30
  5
324
 10
959340.521
 20
7254018.241
 30
0.0
 40
50.0
  1
ADDITION
 50
43.0988
  7
ROMANC
 72
     4
 11
959465.729049
 21
7254169.641995
 31
0.0
210
0.0
220
0.0
230
1.0
  0
TEXT
  8
11
  6
CONTINUOUS
 62
     7
  5
325
 10
959438.122
 20
7254372.718
 30
0.0
 40
8.0
  1
391.53'
 50
358.098811
  7
txt
 72
     1
 11
959460.421272
 21
7254379.9822
 31
0.0
210
0.0
220
0.0
230
1.0
 73
     3
  0
TEXT
  8
11
  6
CONTINUOUS
 62
     7
  5
326
 10
959257.479
 20
7254166.846
 30
0.0
 40
8.0
  1
415.02'
 50
88.138136
  7
txt
 72
     1
 11
959250.210771
 21
7254189.487097
 31
0.0
210
0.0
220
0.0
230
1.0
 73
     3
  0
TEXT
  8
11
  6
CONTINUOUS
 62
     7
  5
327
 10
959418.984
 20
7253970.499
 30
0.0
 40
8.0
  1
391.53'
 50
358.138069
  7
txt
 72
     1
 11
959441.278289
 21
7253977.778477
 31
0.0
210
0.0
220
0.0
230
1.0
 73
     3
  0
TEXT
  8
11
  6
CONTINUOUS
 62
     7
  5
328
 10
959634.053
 20
7254166.396
 30
0.0
 40
8.0
  1
415.02'
 50
88.138133
  7
txt
 72
     1
 11
959626.784772
 21
7254189.037098
 31
0.0
210
0.0
220
0.0
230
1.0
 73
     3
  0
TEXT
  8
22
  6
CONTINUOUS
 62
     3
  5
329
 10
959394.064
 20
7254361.063
 30
0.0
 40
6.0
  1
30' PUBLIC ACCESS ESMT
 50
358.138069
  7
txt
 72
     1
 11
959454.744995
 21
7254365.093536
 31
0.0
210
0.0
220
0.0
230
1.0
 73
     3
  0
LINE
  8
-7
  6
CONTINUOUS
 62
     7
  5
32B
 10
958058.777
 20
7255623.221
 30
0.0
 11
958048.211
 21
7255304.938
 31
0.0
  0
LINE
  8
-7
  6
CONTINUOUS
 62
     7
  5
32C
 10
958167.738
 20
7255266.409
 30
0.0
 11
958181.121
 21
7255669.597
 31
0.0
  0
TEXT
  8
-10
  6
CONTINUOUS
 62
   134
  5
32E
 10
957511.915
 20
7253973.966
 30
0.0
 40
13.999
  1
TRACT "A"
 50
358.0988
  7
ROMANS
 11
957512.379432
 21
7253987.957294
 31
0.0
210
0.0
220
0.0
230
1.0
 73
     3
  0
TEXT
  8
-10
  6
CONTINUOUS
 62
   134
  5
32F
 10
958955.745
 20
7254186.644
 30
0.0
 40
13.999
  1
7
 50
358.0988
  7
ROMANS
 11
958956.209432
 21
7254200.635294
 31
0.0
210
0.0
220
0.0
230
1.0
 73
     3
  0
TEXT
  8
-10
  6
CONTINUOUS
 62
   134
  5
330
 10
959169.2
 20
7254118.746
 30
0.0
 40
13.999
  1
8
 50
358.0988
  7
ROMANS
 11
959169.664432
 21
7254132.737294
 31
0.0
210
0.0
220
0.0
230
1.0
 73
     3
  0
TEXT
  8
-10
  6
CONTINUOUS
 62
   134
  5
331
 10
958586.27
 20
7254666.014
 30
0.0
 40
13.999
  1
1
 50
358.0988
  7
ROMANS
 11
958586.734432
 21
7254680.005294
 31
0.0
210
0.0
220
0.0
230
1.0
 73
     3
  0
TEXT
  8
-10
  6
CONTINUOUS
 62
   134
  5
332
 10
958866.966
 20
7254581.126
 30
0.0
 40
13.999
  1
2
 50
358.0988
  7
ROMANS
 11
958867.430432
 21
7254595.117294
 31
0.0
210
0.0
220
0.0
230
1.0
 73
     3
  0
TEXT
  8
-10
  6
CONTINUOUS
 62
   134
  5
333
 10
959056.253
 20
7254546.125
 30
0.0
 40
13.999
  1
3
 50
358.0988
  7
ROMANS
 11
959056.717432
 21
7254560.116294
 31
0.0
210
0.0
220
0.0
230
1.0
 73
     3
  0
TEXT
  8
-10
  6
CONTINUOUS
 62
   134
  5
334
 10
959201.585
 20
7254523.025
 30
0.0
 40
13.999
  1
4
 50
358.0988
  7
ROMANS
 11
959202.049432
 21
7254537.016294
 31
0.0
210
0.0
220
0.0
230
1.0
 73
     3
  0
TEXT
  8
-10
  6
CONTINUOUS
 62
   134
  5
335
 10
959350.041
 20
7254515.486
 30
0.0
 40
13.999
  1
5
 50
358.0988
  7
ROMANS
 11
959350.505432
 21
7254529.477294
 31
0.0
210
0.0
220
0.0
230
1.0
 73
     3
  0
TEXT
  8
-10
  6
CONTINUOUS
 62
   134
  5
336
 10
959495.459
 20
7254494.994
 30
0.0
 40
13.999
  1
6
 50
358.0988
  7
ROMANS
 11
959495.923432
 21
7254508.985294
 31
0.0
210
0.0
220
0.0
230
1.0
 73
     3
  0
TEXT
  8
-10
  6
CONTINUOUS
 62
   134
  5
337
 10
961209.442
 20
7254308.118
 30
0.0
 40
13.999
  1
20
 50
358.0988
  7
ROMANS
 11
961209.906432
 21
7254322.109294
 31
0.0
210
0.0
220
0.0
230
1.0
 73
     3
  0
TEXT
  8
-10
  6
CONTINUOUS
 62
   134
  5
338
 10
961391.709
 20
7254266.671
 30
0.0
 40
13.999
  1
19
 50
358.0988
  7
ROMANS
 11
961392.173432
 21
7254280.662294
 31
0.0
210
0.0
220
0.0
230
1.0
 73
     3
  0
TEXT
  8
-10
  6
CONTINUOUS
 62
   134
  5
339
 10
961543.822
 20
7254238.585
 30
0.0
 40
13.999
  1
22
 50
358.0988
  7
ROMANS
 11
961544.286432
 21
7254252.576294
 31
0.0
210
0.0
220
0.0
230
1.0
 73
     3
  0
TEXT
  8
-10
  6
CONTINUOUS
 62
   134
  5
33A
 10
961629.662
 20
7254222.736
 30
0.0
 40
13.999
  1
21
 50
358.0988
  7
ROMANS
 11
961630.126432
 21
7254236.727294
 31
0.0
210
0.0
220
0.0
230
1.0
 73
     3
  0
TEXT
  8
-10
  6
CONTINUOUS
 62
   134
  5
33B
 10
961709.855
 20
7254207.929
 30
0.0
 40
13.999
  1
18
 50
358.0988
  7
ROMANS
 11
961710.319432
 21
7254221.920294
 31
0.0
210
0.0
220
0.0
230
1.0
 73
     3
  0
TEXT
  8
-10
  6
CONTINUOUS
 62
   134
  5
33C
 10
961779.045
 20
7254195.154
 30
0.0
 40
13.999
  1
17
 50
358.0988
  7
ROMANS
 11
961779.509432
 21
7254209.145294
 31
0.0
210
0.0
220
0.0
230
1.0
 73
     3
  0
TEXT
  8
-10
  6
CONTINUOUS
 62
   134
  5
33D
 10
961999.312
 20
7254154.484
 30
0.0
 40
13.999
  1
15
 50
358.0988
  7
ROMANS
 11
961999.776432
 21
7254168.475294
 31
0.0
210
0.0
220
0.0
230
1.0
 73
     3
  0
TEXT
  8
-10
  6
CONTINUOUS
 62
   134
  5
33E
 10
962105.092
 20
7254134.952
 30
0.0
 40
13.999
  1
14
 50
358.0988
  7
ROMANS
 11
962105.556432
 21
7254148.943294
 31
0.0
210
0.0
220
0.0
230
1.0
 73
     3
  0
TEXT
  8
-10
  6
CONTINUOUS
 62
   134
  5
33F
 10
962252.594
 20
7254107.718
 30
0.0
 40
13.999
  1
13
 50
358.0988
  7
ROMANS
 11
962253.058432
 21
7254121.709294
 31
0.0
210
0.0
220
0.0
230
1.0
 73
     3
  0
TEXT
  8
-10
  6
CONTINUOUS
 62
   134
  5
340
 10
962423.095
 20
7254076.237
 30
0.0
 40
13.999
  1
12
 50
358.0988
  7
ROMANS
 11
962423.559432
 21
7254090.228294
 31
0.0
210
0.0
220
0.0
230
1.0
 73
     3
  0
TEXT
  8
-10
  6
CONTINUOUS
 62
   134
  5
341
 10
962808.032
 20
7254005.163
 30
0.0
 40
13.999
  1
1
 50
358.0988
  7
ROMANS
 11
962808.496432
 21
7254019.154294
 31
0.0
210
0.0
220
0.0
230
1.0
 73
     3
  0
TEXT
  8
-10
  6
CONTINUOUS
 62
   134
  5
342
 10
963002.383
 20
7253969.279
 30
0.0
 40
13.999
  1
1
 50
358.0988
  7
ROMANS
 11
963002.847432
 21
7253983.270294
 31
0.0
210
0.0
220
0.0
230
1.0
 73
     3
  0
TEXT
  8
-10
  6
CONTINUOUS
 62
   134
  5
343
 10
963244.044
 20
7253932.452
 30
0.0
 40
13.999
  1
2
 50
358.0988
  7
ROMANS
 11
963244.508432
 21
7253946.443294
 31
0.0
210
0.0
220
0.0
230
1.0
 73
     3
  0
TEXT
  8
-10
  6
CONTINUOUS
 62
   134
  5
344
 10
960242.223
 20
7254053.48
 30
0.0
 40
13.999
  1
23
 50
358.0988
  7
ROMANS
 11
960242.687432
 21
7254067.471294
 31
0.0
210
0.0
220
0.0
230
1.0
 73
     3
  0
TEXT
  8
-10
  6
CONTINUOUS
 62
   134
  5
345
 10
960451.573
 20
7253984.037
 30
0.0
 40
13.999
  1
9
 50
358.0988
  7
ROMANS
 11
960452.037432
 21
7253998.028294
 31
0.0
210
0.0
220
0.0
230
1.0
 73
     3
  0
TEXT
  8
-10
  6
CONTINUOUS
 62
   134
  5
346
 10
961048.958
 20
7253785.879
 30
0.0
 40
13.999
  1
6A
 50
358.0988
  7
ROMANS
 11
961049.422432
 21
7253799.870294
 31
0.0
210
0.0
220
0.0
230
1.0
 73
     3
  0
TEXT
  8
-10
  6
CONTINUOUS
 62
   134
  5
347
 10
961245.282
 20
7253720.756
 30
0.0
 40
13.999
  1
5
 50
358.0988
  7
ROMANS
 11
961245.746432
 21
7253734.747294
 31
0.0
210
0.0
220
0.0
230
1.0
 73
     3
  0
TEXT
  8
-10
  6
CONTINUOUS
 62
   134
  5
348
 10
962053.652
 20
7253452.611
 30
0.0
 40
13.999
  1
3
 50
358.0988
  7
ROMANS
 11
962054.116432
 21
7253466.602294
 31
0.0
210
0.0
220
0.0
230
1.0
 73
     3
  0
TEXT
  8
-10
  6
CONTINUOUS
 62
   134
  5
349
 10
962346.884
 20
7253355.344
 30
0.0
 40
13.999
  1
2
 50
358.0988
  7
ROMANS
 11
962347.348432
 21
7253369.335294
 31
0.0
210
0.0
220
0.0
230
1.0
 73
     3
  0
TEXT
  8
-10
  6
CONTINUOUS
 62
   134
  5
34A
 10
962505.999
 20
7253302.564
 30
0.0
 40
13.999
  1
1
 50
358.0988
  7
ROMANS
 11
962506.463432
 21
7253316.555294
 31
0.0
210
0.0
220
0.0
230
1.0
 73
     3
  0
TEXT
  8
-10
  6
CONTINUOUS
 62
   134
  5
34B
 10
962536.261
 20
7256338.227
 30
0.0
 40
13.999
  1
1
 50
358.0988
  7
ROMANS
 11
962536.725432
 21
7256352.218294
 31
0.0
210
0.0
220
0.0
230
1.0
 73
     3
  0
TEXT
  8
-10
  6
CONTINUOUS
 62
   134
  5
34C
 10
957974.179
 20
7255453.963
 30
0.0
 40
13.999
  1
1
 50
358.0988
  7
ROMANS
 11
957974.643432
 21
7255467.954294
 31
0.0
210
0.0
220
0.0
230
1.0
 73
     3
  0
TEXT
  8
-10
  6
CONTINUOUS
 62
   134
  5
34D
 10
958136.385
 20
7255448.579
 30
0.0
 40
13.999
  1
2
 50
358.0988
  7
ROMANS
 11
958136.849432
 21
7255462.570294
 31
0.0
210
0.0
220
0.0
230
1.0
 73
     3
  0
TEXT
  8
-19
  6
CONTINUOUS
 62
     1
  5
34F
 10
957806.221
 20
7255239.304
 30
0.0
 40
24.0
  1
SLATON HIGHWAY   (U.S. 84)
 50
341.651969
  7
ROMANC
 72
     4
 11
958109.527386
 21
7255151.355588
 31
0.0
210
0.0
220
0.0
230
1.0
  0
TEXT
  8
-19
  6
CONTINUOUS
 62
     1
  5
350
 10
961866.764
 20
7253903.428
 30
0.0
 40
24.0
  1
SLATON HIGHWAY   (U.S. 84)
 50
341.651969
  7
ROMANC
 72
     4
 11
962170.070386
 21
7253815.479588
 31
0.0
210
0.0
220
0.0
230
1.0
  0
TEXT
  8
-15
  6
CONTINUOUS
 62
    30
  5
352
 10
959050.077
 20
7254469.713
 30
0.0
 40
50.0
  1
ASCO
 50
43.0988
  7
ROMANC
 72
     4
 11
959105.433436
 21
7254555.750756
 31
0.0
210
0.0
220
0.0
230
1.0
  0
TEXT
  8
-15
  6
CONTINUOUS
 62
    30
  5
353
 10
958838.909
 20
7253967.24
 30
0.0
 40
50.0
  1
HENDERSON
 50
43.0988
  7
ROMANC
 72
     4
 11
959002.923014
 21
7254154.95345
 31
0.0
210
0.0
220
0.0
230
1.0
  0
TEXT
  8
-15
  6
CONTINUOUS
 62
    30
  5
354
 10
957469.695
 20
7253956.861
 30
0.0
 40
50.0
  1
NELSON
 50
28.0988
  7
ROMANC
 72
     4
 11
957597.52536
 21
7254053.452893
 31
0.0
210
0.0
220
0.0
230
1.0
  0
TEXT
  8
-15
  6
CONTINUOUS
 62
    30
  5
355
 10
957526.499
 20
7253873.402
 30
0.0
 40
50.0
  1
ELECTRIC
 50
28.0988
  7
ROMANC
 72
     4
 11
957686.62615
 21
7253987.237903
 31
0.0
210
0.0
220
0.0
230
1.0
  0
TEXT
  8
-11
  6
CONTINUOUS
 62
     7
  5
357
 10
957637.327
 20
7254157.989
 30
0.0
 40
8.0
  1
400'
 50
358.0988
  7
ROMANS
210
0.0
220
0.0
230
1.0
  0
TEXT
  8
-11
  6
CONTINUOUS
 62
     7
  5
358
 10
957616.455
 20
7253771.068
 30
0.0
 40
8.0
  1
400'
 50
358.0988
  7
ROMANS
210
0.0
220
0.0
230
1.0
  0
TEXT
  8
-11
  6
CONTINUOUS
 62
     7
  5
359
 10
957416.668
 20
7253821.071
 30
0.0
 40
8.0
  1
75'
 50
358.0988
  7
ROMANS
210
0.0
220
0.0
230
1.0
  0
TEXT
  8
-11
  6
CONTINUOUS
 62
     7
  5
35A
 10
957429.746
 20
7254190.906
 30
0.0
 40
8.0
  1
75'
 50
358.0988
  7
ROMANS
210
0.0
220
0.0
230
1.0
  0
TEXT
  8
-11
  6
CONTINUOUS
 62
     7
  5
35B
 10
957491.033
 20
7253989.055
 30
0.0
 40
8.0
  1
400'
 50
88.0988
  7
ROMANS
210
0.0
220
0.0
230
1.0
  0
TEXT
  8
-11
  6
CONTINUOUS
 62
     7
  5
35C
 10
957440.293
 20
7254927.054
 30
0.0
 40
8.0
  1
60'
 50
337.398789
  7
ROMANS
210
0.0
220
0.0
230
1.0
  0
TEXT
  8
-11
  6
CONTINUOUS
 62
     7
  5
35D
 10
957502.173
 20
7254901.293
 30
0.0
 40
8.0
  1
60'
 50
337.398789
  7
ROMANS
210
0.0
220
0.0
230
1.0
  0
TEXT
  8
-11
  6
CONTINUOUS
 62
     7
  5
35E
 10
957381.351
 20
7254490.72
 30
0.0
 40
8.0
  1
92.7'
 50
358.0988
  7
ROMANS
210
0.0
220
0.0
230
1.0
  0
TEXT
  8
-11
  6
CONTINUOUS
 62
     7
  5
35F
 10
957852.179
 20
7255085.599
 30
0.0
 40
8.0
  1
N80%%d03'W
 50
348.14905
  7
ROMANS
210
0.0
220
0.0
230
1.0
  0
TEXT
  8
-11
  6
CONTINUOUS
 62
     7
  5
360
 10
957857.946
 20
7255068.921
 30
0.0
 40
8.0
  1
468.3'
 50
348.14905
  7
ROMANS
210
0.0
220
0.0
230
1.0
  0
TEXT
  8
-11
  6
CONTINUOUS
 62
     7
  5
361
 10
958323.155
 20
7254989.61
 30
0.0
 40
8.0
  1
N73%%d37'W
 50
341.652197
  7
ROMANS
210
0.0
220
0.0
230
1.0
  0
TEXT
  8
-11
  6
CONTINUOUS
 62
     7
  5
362
 10
957566.276
 20
7255126.89
 30
0.0
 40
8.0
  1
35'
 50
277.398569
  7
ROMANS
210
0.0
220
0.0
230
1.0
  0
TEXT
  8
-11
  6
CONTINUOUS
 62
     7
  5
363
 10
957577.908
 20
7255143.822
 30
0.0
 40
8.0
  1
N9%%d18'W
 50
277.398569
  7
ROMANS
210
0.0
220
0.0
230
1.0
  0
TEXT
  8
-11
  6
CONTINUOUS
 62
     7
  5
364
 10
957897.079
 20
7255260.54
 30
0.0
 40
8.0
  1
115'
 50
71.652094
  7
ROMANS
210
0.0
220
0.0
230
1.0
  0
TEXT
  8
-11
  6
CONTINUOUS
 62
     7
  5
365
 10
958231.688
 20
7255035.197
 30
0.0
 40
8.0
  1
115'
 50
71.652156
  7
ROMANS
210
0.0
220
0.0
230
1.0
  0
TEXT
  8
-11
  6
CONTINUOUS
 62
     7
  5
366
 10
958827.019
 20
7254860.905
 30
0.0
 40
8.0
  1
115'
 50
71.0988
  7
ROMANS
210
0.0
220
0.0
230
1.0
  0
TEXT
  8
-11
  6
CONTINUOUS
 62
     7
  5
367
 10
958601.167
 20
7255023.381
 30
0.0
 40
8.0
  1
80'
 50
71.0988
  7
ROMANS
210
0.0
220
0.0
230
1.0
  0
TEXT
  8
-11
  6
CONTINUOUS
 62
     7
  5
368
 10
958508.903
 20
7254879.699
 30
0.0
 40
8.0
  1
37.5'
 50
358.0988
  7
ROMANS
210
0.0
220
0.0
230
1.0
  0
TEXT
  8
-11
  6
CONTINUOUS
 62
     7
  5
369
 10
958629.952
 20
7254419.858
 30
0.0
 40
8.0
  1
37.5'
 50
88.0988
  7
ROMANS
210
0.0
220
0.0
230
1.0
  0
TEXT
  8
-11
  6
CONTINUOUS
 62
     7
  5
36A
 10
958757.176
 20
7254391.301
 30
0.0
 40
8.0
  1
37.5'
 50
358.0988
  7
ROMANS
210
0.0
220
0.0
230
1.0
  0
TEXT
  8
-11
  6
CONTINUOUS
 62
     7
  5
36B
 10
958763.488
 20
7254411.014
 30
0.0
 40
8.0
  1
20'
 50
88.0988
  7
ROMANS
210
0.0
220
0.0
230
1.0
  0
TEXT
  8
-11
  6
CONTINUOUS
 62
     7
  5
36C
 10
959976.684
 20
7254370.854
 30
0.0
 40
8.0
  1
20'
 50
88.0988
  7
ROMANS
210
0.0
220
0.0
230
1.0
  0
TEXT
  8
-11
  6
CONTINUOUS
 62
     7
  5
36D
 10
958547.13
 20
7254683.142
 30
0.0
 40
8.0
  1
415.66'
 50
88.0988
  7
ROMANS
210
0.0
220
0.0
230
1.0
  0
TEXT
  8
-11
  6
CONTINUOUS
 62
     7
  5
36E
 10
958757.981
 20
7254591.358
 30
0.0
 40
8.0
  1
390.71'
 50
88.0988
  7
ROMANS
210
0.0
220
0.0
230
1.0
  0
TEXT
  8
-11
  6
CONTINUOUS
 62
     7
  5
36F
 10
958973.608
 20
7254557.086
 30
0.0
 40
8.0
  1
361.14'
 50
88.0988
  7
ROMANS
210
0.0
220
0.0
230
1.0
  0
TEXT
  8
-11
  6
CONTINUOUS
 62
     7
  5
370
 10
959123.64
 20
7254491.614
 30
0.0
 40
8.0
  1
314.95'
 50
88.0988
  7
ROMANS
210
0.0
220
0.0
230
1.0
  0
TEXT
  8
-11
  6
CONTINUOUS
 62
     7
  5
371
 10
959273.918
 20
7254513.841
 30
0.0
 40
8.0
  1
268.76'
 50
88.0988
  7
ROMANS
210
0.0
220
0.0
230
1.0
  0
TEXT
  8
-11
  6
CONTINUOUS
 62
     7
  5
372
 10
959425.417
 20
7254489.858
 30
0.0
 40
8.0
  1
222.57'
 50
88.0988
  7
ROMANS
210
0.0
220
0.0
230
1.0
  0
TEXT
  8
-11
  6
CONTINUOUS
 62
     7
  5
373
 10
959623.661
 20
7254445.719
 30
0.0
 40
8.0
  1
176.38'
 50
88.0988
  7
ROMANS
210
0.0
220
0.0
230
1.0
  0
TEXT
  8
-11
  6
CONTINUOUS
 62
     7
  5
374
 10
958599.437
 20
7254460.885
 30
0.0
 40
8.0
  1
158.38'
 50
358.0988
  7
ROMANS
210
0.0
220
0.0
230
1.0
  0
TEXT
  8
-11
  6
CONTINUOUS
 62
     7
  5
375
 10
958706.303
 20
7254458.039
 30
0.0
 40
8.0
  1
46.9'
 50
358.0988
  7
ROMANS
210
0.0
220
0.0
230
1.0
  0
TEXT
  8
-11
  6
CONTINUOUS
 62
     7
  5
376
 10
958862.867
 20
7254424.935
 30
0.0
 40
8.0
  1
215'
 50
358.0988
  7
ROMANS
210
0.0
220
0.0
230
1.0
  0
TEXT
  8
-11
  6
CONTINUOUS
 62
     7
  5
377
 10
959046.734
 20
7254419.712
 30
0.0
 40
8.0
  1
150'
 50
358.0988
  7
ROMANS
210
0.0
220
0.0
230
1.0
  0
TEXT
  8
-11
  6
CONTINUOUS
 62
     7
  5
378
 10
959192.041
 20
7254413.83
 30
0.0
 40
8.0
  1
150'
 50
358.0988
  7
ROMANS
210
0.0
220
0.0
230
1.0
  0
TEXT
  8
-11
  6
CONTINUOUS
 62
     7
  5
379
 10
959339.694
 20
7254409.81
 30
0.0
 40
8.0
  1
150'
 50
358.0988
  7
ROMANS
210
0.0
220
0.0
230
1.0
  0
TEXT
  8
-11
  6
CONTINUOUS
 62
     7
  5
37A
 10
959495.111
 20
7254406.057
 30
0.0
 40
8.0
  1
150'
 50
358.0988
  7
ROMANS
210
0.0
220
0.0
230
1.0
  0
TEXT
  8
-11
  6
CONTINUOUS
 62
     7
  5
37B
 10
959099.651
 20
7254405.104
 30
0.0
 40
8.0
  1
137.93'
 50
358.0988
  7
ROMANS
210
0.0
220
0.0
230
1.0
  0
TEXT
  8
-11
  6
CONTINUOUS
 62
     7
  5
37C
 10
958861.488
 20
7254415.863
 30
0.0
 40
8.0
  1
324'
 50
358.0988
  7
ROMANS
210
0.0
220
0.0
230
1.0
  0
TEXT
  8
-11
  6
CONTINUOUS
 62
     7
  5
37D
 10
959045.877
 20
7254725.639
 30
0.0
 40
8.0
  1
156.99'
 50
341.651969
  7
ROMANS
210
0.0
220
0.0
230
1.0
  0
TEXT
  8
-11
  6
CONTINUOUS
 62
     7
  5
37E
 10
959186.307
 20
7254677.804
 30
0.0
 40
8.0
  1
156.99'
 50
341.651969
  7
ROMANS
210
0.0
220
0.0
230
1.0
  0
TEXT
  8
-11
  6
CONTINUOUS
 62
     7
  5
37F
 10
959346.338
 20
7254622.985
 30
0.0
 40
8.0
  1
156.99'
 50
341.651969
  7
ROMANS
210
0.0
220
0.0
230
1.0
  0
TEXT
  8
-11
  6
CONTINUOUS
 62
     7
  5
380
 10
959488.056
 20
7254572.817
 30
0.0
 40
8.0
  1
156.99'
 50
341.651969
  7
ROMANS
210
0.0
220
0.0
230
1.0
  0
TEXT
  8
-11
  6
CONTINUOUS
 62
     7
  5
381
 10
958584.758
 20
7254881.283
 30
0.0
 40
8.0
  1
277.95'
 50
341.65195
  7
ROMANS
210
0.0
220
0.0
230
1.0
  0
TEXT
  8
-11
  6
CONTINUOUS
 62
     7
  5
382
 10
959968.02
 20
7254388.293
 30
0.0
 40
8.0
  1
82.5'
 50
358.0988
  7
ROMANS
210
0.0
220
0.0
230
1.0
  0
TEXT
  8
-11
  6
CONTINUOUS
 62
     7
  5
383
 10
959962.914
 20
7254387.809
 30
0.0
 40
8.0
  1
38.42'
 50
88.0988
  7
ROMANS
210
0.0
220
0.0
230
1.0
  0
TEXT
  8
-19
  6
CONTINUOUS
 62
     1
  5
384
 10
958504.353
 20
7254420.625
 30
0.0
 40
24.0
  1
74TH ST
 50
358.0988
  7
ROMANC
 72
     4
 11
958593.328327
 21
7254429.678128
 31
0.0
210
0.0
220
0.0
230
1.0
  0
TEXT
  8
-11
  6
CONTINUOUS
 62
     7
  5
385
 10
959214.808
 20
7253123.444
 30
0.0
 40
8.0
  1
1215.0'
 50
358.0988
  7
ROMANS
210
0.0
220
0.0
230
1.0
  0
TEXT
  8
-11
  6
CONTINUOUS
 62
     7
  5
386
 10
959215.606
 20
7253067.259
 30
0.0
 40
8.0
  1
1320.0'
 50
358.0988
  7
ROMANS
210
0.0
220
0.0
230
1.0
  0
TEXT
  8
-11
  6
CONTINUOUS
 62
     7
  5
387
 10
958714.779
 20
7253160.765
 30
0.0
 40
8.0
  1
37.5'
 50
358.0988
  7
ROMANS
210
0.0
220
0.0
230
1.0
  0
TEXT
  8
-11
  6
CONTINUOUS
 62
     7
  5
388
 10
959994.781
 20
7253133.606
 30
0.0
 40
8.0
  1
37.5'
 50
358.0988
  7
ROMANS
210
0.0
220
0.0
230
1.0
  0
TEXT
  8
-11
  6
CONTINUOUS
 62
     7
  5
389
 10
958795.123
 20
7253092.519
 30
0.0
 40
8.0
  1
37.5'
 50
88.0988
  7
ROMANS
210
0.0
220
0.0
230
1.0
  0
TEXT
  8
-11
  6
CONTINUOUS
 62
     7
  5
38A
 10
959975.501
 20
7253054.998
 30
0.0
 40
8.0
  1
37.5'
 50
88.0988
  7
ROMANS
210
0.0
220
0.0
230
1.0
  0
TEXT
  8
-11
  6
CONTINUOUS
 62
     7
  5
38B
 10
960195.373
 20
7253788.971
 30
0.0
 40
8.0
  1
200.19'
 50
341.652092
  7
ROMANS
210
0.0
220
0.0
230
1.0
  0
TEXT
  8
-11
  6
CONTINUOUS
 62
     7
  5
38C
 10
960418.732
 20
7253714.895
 30
0.0
 40
8.0
  1
227.91'
 50
341.652092
  7
ROMANS
210
0.0
220
0.0
230
1.0
  0
TEXT
  8
-11
  6
CONTINUOUS
 62
     7
  5
38D
 10
961031.632
 20
7253511.629
 30
0.0
 40
8.0
  1
151.94'
 50
341.652092
  7
ROMANS
210
0.0
220
0.0
230
1.0
  0
TEXT
  8
-11
  6
CONTINUOUS
 62
     7
  5
38E
 10
961213.24
 20
7253451.399
 30
0.0
 40
8.0
  1
227.91'
 50
341.652092
  7
ROMANS
210
0.0
220
0.0
230
1.0
  0
TEXT
  8
-11
  6
CONTINUOUS
 62
     7
  5
38F
 10
961375.847
 20
7254202.149
 30
0.0
 40
8.0
  1
233.75'
 50
341.652114
  7
ROMANS
210
0.0
220
0.0
230
1.0
  0
TEXT
  8
-11
  6
CONTINUOUS
 62
     7
  5
390
 10
961121.797
 20
7254284.321
 30
0.0
 40
8.0
  1
418.05'
 50
341.652114
  7
ROMANS
210
0.0
220
0.0
230
1.0
  0
TEXT
  8
-11
  6
CONTINUOUS
 62
     7
  5
391
 10
961533.464
 20
7254149.876
 30
0.0
 40
8.0
  1
89.66'
 50
341.652114
  7
ROMANS
210
0.0
220
0.0
230
1.0
  0
TEXT
  8
-11
  6
CONTINUOUS
 62
     7
  5
392
 10
961621.093
 20
7254120.815
 30
0.0
 40
8.0
  1
89.66'
 50
341.652114
  7
ROMANS
210
0.0
220
0.0
230
1.0
  0
TEXT
  8
-11
  6
CONTINUOUS
 62
     7
  5
393
 10
961696.921
 20
7254095.666
 30
0.0
 40
8.0
  1
75.08'
 50
341.652114
  7
ROMANS
210
0.0
220
0.0
230
1.0
  0
TEXT
  8
-11
  6
CONTINUOUS
 62
     7
  5
394
 10
961764.689
 20
7254073.192
 30
0.0
 40
8.0
  1
75.08'
 50
341.652114
  7
ROMANS
210
0.0
220
0.0
230
1.0
  0
TEXT
  8
-11
  6
CONTINUOUS
 62
     7
  5
395
 10
960232.698
 20
7254329.127
 30
0.0
 40
8.0
  1
200.19'
 50
341.651994
  7
ROMANS
210
0.0
220
0.0
230
1.0
  0
TEXT
  8
-11
  6
CONTINUOUS
 62
     7
  5
396
 10
960432.26
 20
7254262.943
 30
0.0
 40
8.0
  1
227.91'
 50
341.651994
  7
ROMANS
210
0.0
220
0.0
230
1.0
  0
TEXT
  8
-11
  6
CONTINUOUS
 62
     7
  5
397
 10
961036.788
 20
7254062.453
 30
0.0
 40
8.0
  1
151.94'
 50
341.652003
  7
ROMANS
210
0.0
220
0.0
230
1.0
  0
TEXT
  8
-11
  6
CONTINUOUS
 62
     7
  5
398
 10
961228.989
 20
7253998.709
 30
0.0
 40
8.0
  1
227.91'
 50
341.652003
  7
ROMANS
210
0.0
220
0.0
230
1.0
  0
TEXT
  8
-11
  6
CONTINUOUS
 62
     7
  5
399
 10
961535.728
 20
7253933.853
 30
0.0
 40
8.0
  1
455.83'
 50
341.652108
  7
ROMANS
210
0.0
220
0.0
230
1.0
  0
TEXT
  8
-11
  6
CONTINUOUS
 62
     7
  5
39A
 10
961140.439
 20
7254339.147
 30
0.0
 40
8.0
  1
399.49'
 50
358.785997
  7
ROMANS
210
0.0
220
0.0
230
1.0
  0
TEXT
  8
-11
  6
CONTINUOUS
 62
     7
  5
39B
 10
961384.366
 20
7254337.885
 30
0.0
 40
8.0
  1
223.38'
 50
358.785997
  7
ROMANS
210
0.0
220
0.0
230
1.0
  0
TEXT
  8
-11
  6
CONTINUOUS
 62
     7
  5
39C
 10
961531.156
 20
7254334.774
 30
0.0
 40
8.0
  1
85.68'
 50
358.785997
  7
ROMANS
210
0.0
220
0.0
230
1.0
  0
TEXT
  8
-11
  6
CONTINUOUS
 62
     7
  5
39D
 10
961621.556
 20
7254332.859
 30
0.0
 40
8.0
  1
85.68'
 50
358.785997
  7
ROMANS
210
0.0
220
0.0
230
1.0
  0
TEXT
  8
-11
  6
CONTINUOUS
 62
     7
  5
39E
 10
961700.597
 20
7254331.184
 30
0.0
 40
8.0
  1
71.75'
 50
358.785997
  7
ROMANS
210
0.0
220
0.0
230
1.0
  0
TEXT
  8
-11
  6
CONTINUOUS
 62
     7
  5
39F
 10
961768.369
 20
7254329.748
 30
0.0
 40
8.0
  1
71.75'
 50
358.785997
  7
ROMANS
210
0.0
220
0.0
230
1.0
  0
TEXT
  8
-11
  6
CONTINUOUS
 62
     7
  5
3A0
 10
960211.274
 20
7254028.978
 30
0.0
 40
8.0
  1
563.39'
 50
88.0988
  7
ROMANS
210
0.0
220
0.0
230
1.0
  0
TEXT
  8
-11
  6
CONTINUOUS
 62
     7
  5
3A1
 10
960363.066
 20
7253988.649
 30
0.0
 40
8.0
  1
563.39'
 50
88.0988
  7
ROMANS
210
0.0
220
0.0
230
1.0
  0
TEXT
  8
-11
  6
CONTINUOUS
 62
     7
  5
3A2
 10
960614.105
 20
7253918.576
 30
0.0
 40
8.0
  1
563.39'
 50
88.0988
  7
ROMANS
210
0.0
220
0.0
230
1.0
  0
TEXT
  8
-11
  6
CONTINUOUS
 62
     7
  5
3A3
 10
960987.223
 20
7253783.216
 30
0.0
 40
8.0
  1
563.39'
 50
88.0988
  7
ROMANS
210
0.0
220
0.0
230
1.0
  0
TEXT
  8
-11
  6
CONTINUOUS
 62
     7
  5
3A4
 10
961154.616
 20
7253719.23
 30
0.0
 40
8.0
  1
563.39'
 50
88.0988
  7
ROMANS
210
0.0
220
0.0
230
1.0
  0
TEXT
  8
-11
  6
CONTINUOUS
 62
     7
  5
3A5
 10
961374.625
 20
7253651.611
 30
0.0
 40
8.0
  1
563.39'
 50
88.0988
  7
ROMANS
210
0.0
220
0.0
230
1.0
  0
TEXT
  8
-11
  6
CONTINUOUS
 62
     7
  5
3A6
 10
960851.513
 20
7254350.395
 30
0.0
 40
8.0
  1
118.8'
 50
358.0988
  7
ROMANS
210
0.0
220
0.0
230
1.0
  0
TEXT
  8
-15
  6
CONTINUOUS
 62
    30
  5
3A7
 10
961257.193
 20
7253195.362
 30
0.0
 40
50.0
  1
BENNETT-KERR
 50
43.0988
  7
ROMANC
 72
     4
 11
961475.968068
 21
7253434.317786
 31
0.0
210
0.0
220
0.0
230
1.0
  0
TEXT
  8
-15
  6
CONTINUOUS
 62
    30
  5
3A8
 10
960085.193
 20
7253673.946
 30
0.0
 40
50.0
  1
BENNETT-KERR
 50
43.0988
  7
ROMANC
 72
     4
 11
960303.968068
 21
7253912.901786
 31
0.0
210
0.0
220
0.0
230
1.0
  0
TEXT
  8
-15
  6
CONTINUOUS
 62
    30
  5
3A9
 10
962025.692
 20
7254130.95
 30
0.0
 40
50.0
  1
BENNETT-KERR
 50
43.0988
  7
ROMANC
 72
     4
 11
962244.467068
 21
7254369.905786
 31
0.0
210
0.0
220
0.0
230
1.0
  0
TEXT
  8
-15
  6
CONTINUOUS
 62
    30
  5
3AA
 10
962777.485
 20
7254005.827
 30
0.0
 40
50.0
  1
H AND M
 50
43.0988
  7
ROMANC
 72
     4
 11
962910.599402
 21
7254164.626318
 31
0.0
210
0.0
220
0.0
230
1.0
  0
TEXT
  8
-15
  6
CONTINUOUS
 62
    30
  5
3AB
 10
962768.886
 20
7253770.043
 30
0.0
 40
50.0
  1
INVESTMENT
 50
43.0988
  7
ROMANC
 72
     4
 11
962944.255721
 21
7253968.382486
 31
0.0
210
0.0
220
0.0
230
1.0
  0
TEXT
  8
-11
  6
CONTINUOUS
 62
     7
  5
3AC
 10
962798.129
 20
7254306.635
 30
0.0
 40
8.0
  1
183'
 50
358.0988
  7
ROMANS
210
0.0
220
0.0
230
1.0
  0
TEXT
  8
-11
  6
CONTINUOUS
 62
     7
  5
3AD
 10
962739.729
 20
7253992.583
 30
0.0
 40
8.0
  1
567.04'
 50
88.0988
  7
ROMANS
210
0.0
220
0.0
230
1.0
  0
TEXT
  8
-11
  6
CONTINUOUS
 62
     7
  5
3AE
 10
962898.144
 20
7253993.793
 30
0.0
 40
8.0
  1
623.36'
 50
88.0988
  7
ROMANS
210
0.0
220
0.0
230
1.0
  0
TEXT
  8
-11
  6
CONTINUOUS
 62
     7
  5
3AF
 10
963104.076
 20
7253965.934
 30
0.0
 40
8.0
  1
686.36'
 50
88.0988
  7
ROMANS
210
0.0
220
0.0
230
1.0
  0
TEXT
  8
-11
  6
CONTINUOUS
 62
     7
  5
3B0
 10
963124.525
 20
7253949.083
 30
0.0
 40
8.0
  1
S0%%d42'35"E
 50
88.0988
  7
ROMANS
210
0.0
220
0.0
230
1.0
  0
TEXT
  8
-11
  6
CONTINUOUS
 62
     7
  5
3B1
 10
962957.545
 20
7253677.586
 30
0.0
 40
8.0
  1
214.1'
 50
341.652136
  7
ROMANS
210
0.0
220
0.0
230
1.0
  0
TEXT
  8
-11
  6
CONTINUOUS
 62
     7
  5
3B2
 10
962786.753
 20
7253734.227
 30
0.0
 40
8.0
  1
191.47'
 50
341.652136
  7
ROMANS
210
0.0
220
0.0
230
1.0
  0
TEXT
  8
-11
  6
CONTINUOUS
 62
     7
  5
3B3
 10
962406.409
 20
7253860.367
 30
0.0
 40
8.0
  1
156.95'
 50
341.652017
  7
ROMANS
210
0.0
220
0.0
230
1.0
  0
TEXT
  8
-11
  6
CONTINUOUS
 62
     7
  5
3B4
 10
962955.847
 20
7254318.586
 30
0.0
 40
8.0
  1
N89%%d17'25"E
 50
358.785997
  7
ROMANS
210
0.0
220
0.0
230
1.0
  0
TEXT
  8
-11
  6
CONTINUOUS
 62
     7
  5
3B5
 10
962036.037
 20
7253731.053
 30
0.0
 40
8.0
  1
555.8'
 50
341.651981
  7
ROMANS
210
0.0
220
0.0
230
1.0
  0
TEXT
  8
-11
  6
CONTINUOUS
 62
     7
  5
3B6
 10
962337.362
 20
7253631.119
 30
0.0
 40
8.0
  1
75.97'
 50
341.651981
  7
ROMANS
210
0.0
220
0.0
230
1.0
  0
TEXT
  8
-11
  6
CONTINUOUS
 62
     7
  5
3B7
 10
962486.457
 20
7253581.672
 30
0.0
 40
8.0
  1
251.5'
 50
341.651981
  7
ROMANS
210
0.0
220
0.0
230
1.0
  0
TEXT
  8
-11
  6
CONTINUOUS
 62
     7
  5
3B8
 10
962597.176
 20
7253294.114
 30
0.0
 40
8.0
  1
563.39'
 50
88.0988
  7
ROMANS
210
0.0
220
0.0
230
1.0
  0
TEXT
  8
-11
  6
CONTINUOUS
 62
     7
  5
3B9
 10
962730.479
 20
7253713.101
 30
0.0
 40
8.0
  1
36.62'
 50
88.0988
  7
ROMANS
210
0.0
220
0.0
230
1.0
  0
TEXT
  8
-11
  6
CONTINUOUS
 62
     7
  5
3BA
 10
962669.482
 20
7253696.554
 30
0.0
 40
8.0
  1
80'
 50
71.651936
  7
ROMANS
210
0.0
220
0.0
230
1.0
  0
TEXT
  8
-11
  6
CONTINUOUS
 62
     7
  5
3BB
 10
962812.702
 20
7253591.044
 30
0.0
 40
8.0
  1
80'
 50
71.652228
  7
ROMANS
210
0.0
220
0.0
230
1.0
  0
TEXT
  8
-11
  6
CONTINUOUS
 62
     7
  5
3BC
 10
961964.354
 20
7254139.683
 30
0.0
 40
8.0
  1
327.97'
 50
88.0988
  7
ROMANS
210
0.0
220
0.0
230
1.0
  0
TEXT
  8
-11
  6
CONTINUOUS
 62
     7
  5
3BD
 10
962083.381
 20
7254121.584
 30
0.0
 40
8.0
  1
362.02'
 50
88.0988
  7
ROMANS
210
0.0
220
0.0
230
1.0
  0
TEXT
  8
-11
  6
CONTINUOUS
 62
     7
  5
3BE
 10
961960.718
 20
7253964.59
 30
0.0
 40
8.0
  1
36.61'
 50
88.0988
  7
ROMANS
210
0.0
220
0.0
230
1.0
  0
TEXT
  8
-11
  6
CONTINUOUS
 62
     7
  5
3BF
 10
961817.226
 20
7254015.606
 30
0.0
 40
8.0
  1
36.61'
 50
88.0988
  7
ROMANS
210
0.0
220
0.0
230
1.0
  0
TEXT
  8
-11
  6
CONTINUOUS
 62
     7
  5
3C0
 10
961822.911
 20
7254170.498
 30
0.0
 40
8.0
  1
289.09'
 50
88.0988
  7
ROMANS
210
0.0
220
0.0
230
1.0
  0
TEXT
  8
-11
  6
CONTINUOUS
 62
     7
  5
3C1
 10
961752.589
 20
7254181.538
 30
0.0
 40
8.0
  1
266.97'
 50
88.0988
  7
ROMANS
210
0.0
220
0.0
230
1.0
  0
TEXT
  8
-11
  6
CONTINUOUS
 62
     7
  5
3C2
 10
961680.13
 20
7254193.737
 30
0.0
 40
8.0
  1
244.85'
 50
88.0988
  7
ROMANS
210
0.0
220
0.0
230
1.0
  0
TEXT
  8
-11
  6
CONTINUOUS
 62
     7
  5
3C3
 10
961594.851
 20
7254212.893
 30
0.0
 40
8.0
  1
218.44'
 50
88.0988
  7
ROMANS
210
0.0
220
0.0
230
1.0
  0
TEXT
  8
-11
  6
CONTINUOUS
 62
     7
  5
3C4
 10
961509.501
 20
7254229.874
 30
0.0
 40
8.0
  1
192.03'
 50
88.0988
  7
ROMANS
210
0.0
220
0.0
230
1.0
  0
TEXT
  8
-11
  6
CONTINUOUS
 62
     7
  5
3C5
 10
961286.255
 20
7254286.258
 30
0.0
 40
8.0
  1
123'
 50
88.0988
  7
ROMANS
210
0.0
220
0.0
230
1.0
  0
TEXT
  8
-11
  6
CONTINUOUS
 62
     7
  5
3C6
 10
962183.752
 20
7254112.729
 30
0.0
 40
8.0
  1
395.32'
 50
88.0988
  7
ROMANS
210
0.0
220
0.0
230
1.0
  0
TEXT
  8
-11
  6
CONTINUOUS
 62
     7
  5
3C7
 10
962373.699
 20
7254085.203
 30
0.0
 40
8.0
  1
453.59'
 50
88.0988
  7
ROMANS
210
0.0
220
0.0
230
1.0
  0
TEXT
  8
-11
  6
CONTINUOUS
 62
     7
  5
3C8
 10
962501.725
 20
7254059.731
 30
0.0
 40
8.0
  1
500.78'
 50
88.0988
  7
ROMANS
210
0.0
220
0.0
230
1.0
  0
TEXT
  8
-11
  6
CONTINUOUS
 62
     7
  5
3C9
 10
961502.527
 20
7253355.459
 30
0.0
 40
8.0
  1
455.83'
 50
341.652092
  7
ROMANS
210
0.0
220
0.0
230
1.0
  0
TEXT
  8
-11
  6
CONTINUOUS
 62
     7
  5
3CA
 10
961999.709
 20
7253190.57
 30
0.0
 40
8.0
  1
555.8'
 50
341.652092
  7
ROMANS
210
0.0
220
0.0
230
1.0
  0
TEXT
  8
-11
  6
CONTINUOUS
 62
     7
  5
3CB
 10
962323.146
 20
7253083.303
 30
0.0
 40
8.0
  1
75.97'
 50
341.652092
  7
ROMANS
210
0.0
220
0.0
230
1.0
  0
TEXT
  8
-11
  6
CONTINUOUS
 62
     7
  5
3CC
 10
962470.131
 20
7253034.556
 30
0.0
 40
8.0
  1
251.15'
 50
341.652092
  7
ROMANS
210
0.0
220
0.0
230
1.0
  0
TEXT
  8
-11
  6
CONTINUOUS
 62
     7
  5
3CD
 10
961885.39
 20
7253192.663
 30
0.0
 40
8.0
  1
882.92'
 50
341.652092
  7
ROMANS
210
0.0
220
0.0
230
1.0
  0
TEXT
  8
-11
  6
CONTINUOUS
 62
     7
  5
3CE
 10
960709.319
 20
7253582.703
 30
0.0
 40
8.0
  1
1879.68'
 50
341.652092
  7
ROMANS
210
0.0
220
0.0
230
1.0
  0
TEXT
  8
-11
  6
CONTINUOUS
 62
     7
  5
3CF
 10
962612.459
 20
7253307.125
 30
0.0
 40
8.0
  1
600'
 50
88.0988
  7
ROMANS
210
0.0
220
0.0
230
1.0
  0
TEXT
  8
-11
  6
CONTINUOUS
 62
     7
  5
3D0
 10
962725.557
 20
7256652.252
 30
0.0
 40
8.0
  1
770.55'
 50
88.0988
  7
ROMANS
210
0.0
220
0.0
230
1.0
  0
TEXT
  8
-11
  6
CONTINUOUS
 62
     7
  5
3D1
 10
962831.347
 20
7256662.586
 30
0.0
 40
8.0
  1
835.35'
 50
88.0988
  7
ROMANS
210
0.0
220
0.0
230
1.0
  0
TEXT
  8
-11
  6
CONTINUOUS
 62
     7
  5
3D2
 10
963279.164
 20
7256157.428
 30
0.0
 40
8.0
  1
2322.0'
 50
10.970628
  7
ROMANS
210
0.0
220
0.0
230
1.0
  0
TEXT
  8
-15
  6
CONTINUOUS
 62
    30
  5
3D3
 10
962376.305
 20
7256103.855
 30
0.0
 40
50.0
  1
THOMAS-NELSON
 50
43.0988
  7
ROMANC
 72
     4
 11
962614.913854
 21
7256361.370137
 31
0.0
210
0.0
220
0.0
230
1.0
  0
TEXT
  8
-11
  6
CONTINUOUS
 62
     7
  5
3D4
 10
960988.966
 20
7255858.288
 30
0.0
 40
8.0
  1
2933.6'
 50
358.0988
  7
ROMANS
210
0.0
220
0.0
230
1.0
  0
TEXT
  8
-11
  6
CONTINUOUS
 62
     7
  5
3D5
 10
962848.982
 20
7255820.246
 30
0.0
 40
8.0
  1
2305.1'2305.1'
 50
4.912867
  7
ROMANS
210
0.0
220
0.0
230
1.0
  0
TEXT
  8
-19
  6
CONTINUOUS
 62
     1
  5
3D6
 10
960872.762
 20
7257002.874
 30
0.0
 40
24.0
  1
66TH STREET
 50
358.0988
  7
ROMANC
 72
     4
 11
961012.729241
 21
7257010.234483
 31
0.0
210
0.0
220
0.0
230
1.0
  0
TEXT
  8
-19
  6
CONTINUOUS
 62
     1
  5
3D7
 10
960670.36
 20
7255995.198
 30
0.0
 40
24.0
  1
LOOP 289
 50
358.0988
  7
ROMANC
 72
     4
 11
960768.495281
 21
7256003.947069
 31
0.0
210
0.0
220
0.0
230
1.0
  0
TEXT
  8
-19
  6
CONTINUOUS
 62
     1
  5
3D8
 10
958378.165
 20
7255862.878
 30
0.0
 40
24.0
  1
LOOP 289
 50
14.879894
  7
ROMANC
 72
     4
 11
958469.596143
 21
7255899.587961
 31
0.0
210
0.0
220
0.0
230
1.0
  0
TEXT
  8
-11
  6
CONTINUOUS
 62
     7
  5
3D9
 10
958172.684
 20
7255454.521
 30
0.0
 40
8.0
  1
430.41'
 50
88.0988
  7
ROMANS
210
0.0
220
0.0
230
1.0
  0
TEXT
  8
-11
  6
CONTINUOUS
 62
     7
  5
3DA
 10
958048.669
 20
7255434.089
 30
0.0
 40
8.0
  1
317.5'
 50
88.0988
  7
ROMANS
210
0.0
220
0.0
230
1.0
  0
TEXT
  8
-11
  6
CONTINUOUS
 62
     7
  5
3DB
 10
957842.874
 20
7255451.485
 30
0.0
 40
8.0
  1
R=110'
 50
358.0988
  7
ROMANS
210
0.0
220
0.0
230
1.0
  0
TEXT
  8
-11
  6
CONTINUOUS
 62
     7
  5
3DC
 10
957842.978
 20
7255471.703
 30
0.0
 40
8.0
  1
268'
 50
73.8028
  7
ROMANS
210
0.0
220
0.0
230
1.0
  0
TEXT
  8
-11
  6
CONTINUOUS
 62
     7
  5
3DD
 10
957941.867
 20
7255562.471
 30
0.0
 40
8.0
  1
149.7'
 50
22.148803
  7
ROMANS
210
0.0
220
0.0
230
1.0
  0
TEXT
  8
-11
  6
CONTINUOUS
 62
     7
  5
3DE
 10
957979.919
 20
7255331.841
 30
0.0
 40
8.0
  1
150'
 50
341.652125
  7
ROMANS
210
0.0
220
0.0
230
1.0
  0
TEXT
  8
-11
  6
CONTINUOUS
 62
     7
  5
3DF
 10
958111.98
 20
7255288.009
 30
0.0
 40
8.0
  1
125.85'
 50
341.652125
  7
ROMANS
210
0.0
220
0.0
230
1.0
  0
TEXT
  8
-11
  6
CONTINUOUS
 62
     7
  5
3E0
 10
958020.538
 20
7255595.178
 30
0.0
 40
8.0
  1
23.55'
 50
21.136294
  7
ROMANS
210
0.0
220
0.0
230
1.0
  0
TEXT
  8
-11
  6
CONTINUOUS
 62
     7
  5
3E1
 10
958107.671
 20
7255629.975
 30
0.0
 40
8.0
  1
130.84'
 50
20.738978
  7
ROMANS
210
0.0
220
0.0
230
1.0
  0
TEXT
  8
-11
  6
CONTINUOUS
 62
     7
  5
3E2
 10
958973.578
 20
7255846.066
 30
0.0
 40
8.0
  1
1496.6'
 50
7.498667
  7
ROMANS
210
0.0
220
0.0
230
1.0
  0
TEXT
  8
-11
  6
CONTINUOUS
 62
     7
  5
3E3
 10
958946.969
 20
7256158.778
 30
0.0
 40
8.0
  1
1496.6'
 50
7.292022
  7
ROMANS
210
0.0
220
0.0
230
1.0
  0
TEXT
  8
-11
  6
CONTINUOUS
 62
     7
  5
3E4
 10
960012.775
 20
7256067.474
 30
0.0
 40
8.0
  1
150'
 50
88.0988
  7
ROMANS
210
0.0
220
0.0
230
1.0
  0
TEXT
  8
-11
  6
CONTINUOUS
 62
     7
  5
3E5
 10
960015.112
 20
7255904.815
 30
0.0
 40
8.0
  1
150'
 50
88.0988
  7
ROMANS
210
0.0
220
0.0
230
1.0
  0
TEXT
  8
-11
  6
CONTINUOUS
 62
     7
  5
3E6
 10
963248.829
 20
7254301.98
 30
0.0
 40
8.0
  1
229.77'
 50
358.0988
  7
ROMANS
210
0.0
220
0.0
230
1.0
  0
TEXT
  8
-11
  6
CONTINUOUS
 62
     7
  5
3E7
 10
963358.538
 20
7253922.892
 30
0.0
 40
8.0
  1
757.08'
 50
88.0988
  7
ROMANS
210
0.0
220
0.0
230
1.0
  0
TEXT
  8
-11
  6
CONTINUOUS
 62
     7
  5
3E8
 10
963353.473
 20
7253519.764
 30
0.0
 40
8.0
  1
36.6'
 50
88.0988
  7
ROMANS
210
0.0
220
0.0
230
1.0
  0
TEXT
  8
-11
  6
CONTINUOUS
 62
     7
  5
3E9
 10
963656.506
 20
7253381.433
 30
0.0
 40
8.0
  1
80'
 50
71.652228
  7
ROMANS
210
0.0
220
0.0
230
1.0
  0
TEXT
  8
-11
  6
CONTINUOUS
 62
     7
  5
3EA
 10
963665.519
 20
7253278.301
 30
0.0
 40
8.0
  1
80'
 50
71.652228
  7
ROMANS
210
0.0
220
0.0
230
1.0
  0
TEXT
  8
-15
  6
CONTINUOUS
 62
    30
  5
3EB
 10
963059.74
 20
7253869.701
 30
0.0
 40
50.0
  1
BOSWELL
 50
43.0988
  7
ROMANC
 72
     4
 11
963178.3363
 21
7254014.915089
 31
0.0
210
0.0
220
0.0
230
1.0
  0
TEXT
  8
-11
  6
CONTINUOUS
 62
     7
  5
3EC
 10
962993.563
 20
7254298.193
 30
0.0
 40
8.0
  1
204.58'
 50
358.0988
  7
ROMANS
210
0.0
220
0.0
230
1.0
  0
TEXT
  8
-11
  6
CONTINUOUS
 62
     7
  5
3ED
 10
963191.11
 20
7253600.124
 30
0.0
 40
8.0
  1
240.46'
 50
341.652136
  7
ROMANS
210
0.0
220
0.0
230
1.0
  0
TEXT
  8
-11
  6
CONTINUOUS
 62
     7
  5
3EE
 10
962605.174
 20
7252968.498
 30
0.0
 40
8.0
  1
20'
 50
71.652047
  7
ROMANS
210
0.0
220
0.0
230
1.0
  0
TEXT
  8
-11
  6
CONTINUOUS
 62
     7
  5
3EF
 10
960085.699
 20
7253794.857
 30
0.0
 40
8.0
  1
20'
 50
71.652047
  7
ROMANS
210
0.0
220
0.0
230
1.0
  0
TEXT
  8
-11
  6
CONTINUOUS
 62
     7
  5
3F0
 10
961678.999
 20
7253974.254
 30
0.0
 40
8.0
  1
S73%%d37'E
 50
341.652181
  7
ROMANS
210
0.0
220
0.0
230
1.0
  0
TEXT
  8
-11
  6
CONTINUOUS
 62
     7
  5
3F1
 10
963778.329
 20
7256305.962
 30
0.0
 40
8.0
  1
354.38'
 50
19.098647
  7
ROMANS
210
0.0
220
0.0
230
1.0
  0
TEXT
  8
-11
  6
CONTINUOUS
 62
     7
  5
3F2
 10
963674.742
 20
7256566.714
 30
0.0
 40
8.0
  1
648.7'
 50
88.0988
  7
ROMANS
210
0.0
220
0.0
230
1.0
  0
TEXT
  8
-11
  6
CONTINUOUS
 62
     7
  5
3F3
 10
963738.051
 20
7256931.458
 30
0.0
 40
8.0
  1
179'
 50
358.0988
  7
ROMANS
210
0.0
220
0.0
230
1.0
  0
TEXT
  8
-15
  6
CONTINUOUS
 62
    30
  5
3F4
 10
963737.631
 20
7256721.312
 30
0.0
 40
50.0
  1
CITY
 50
43.0988
  7
ROMANC
 72
     4
 11
963786.951067
 21
7256801.701258
 31
0.0
210
0.0
220
0.0
230
1.0
  0
TEXT
  8
-15
  6
CONTINUOUS
 62
    30
  5
3F5
 10
963746.162
 20
7256404.445
 30
0.0
 40
50.0
  1
PROP
 50
43.0988
  7
ROMANC
 72
     4
 11
963804.967791
 21
7256493.710469
 31
0.0
210
0.0
220
0.0
230
1.0
  0
TEXT
  8
-11
  6
CONTINUOUS
 62
     7
  5
3F6
 10
961996.347
 20
7254323.38
 30
0.0
 40
8.0
  1
113.7'
 50
358.0988
  7
ROMANS
210
0.0
220
0.0
230
1.0
  0
TEXT
  8
-11
  6
CONTINUOUS
 62
     7
  5
3F7
 10
962103.929
 20
7254320.897
 30
0.0
 40
8.0
  1
104.8'
 50
358.0988
  7
ROMANS
210
0.0
220
0.0
230
1.0
  0
TEXT
  8
-11
  6
CONTINUOUS
 62
     7
  5
3F8
 10
962247.358
 20
7254317.225
 30
0.0
 40
8.0
  1
189'
 50
358.0988
  7
ROMANS
210
0.0
220
0.0
230
1.0
  0
TEXT
  8
-11
  6
CONTINUOUS
 62
     7
  5
3F9
 10
962429.894
 20
7254312.253
 30
0.0
 40
8.0
  1
150'
 50
358.0988
  7
ROMANS
210
0.0
220
0.0
230
1.0
  0
TEXT
  8
-11
  6
CONTINUOUS
 62
     7
  5
3FA
 10
961984.426
 20
7254001.995
 30
0.0
 40
8.0
  1
118.98'
 50
341.0988
  7
ROMANS
210
0.0
220
0.0
230
1.0
  0
TEXT
  8
-11
  6
CONTINUOUS
 62
     7
  5
3FB
 10
962095.234
 20
7253965.668
 30
0.0
 40
8.0
  1
109.66'
 50
341.0988
  7
ROMANS
210
0.0
220
0.0
230
1.0
  0
TEXT
  8
-11
  6
CONTINUOUS
 62
     7
  5
3FC
 10
962229.688
 20
7253920.939
 30
0.0
 40
8.0
  1
197.78'
 50
341.0988
  7
ROMANS
210
0.0
220
0.0
230
1.0
  0
TEXT
  8
-22
  6
CONTINUOUS
 62
     3
  5
3FE
 10
957629.888
 20
7254025.156
 30
0.0
 40
8.0
  1
20' POWER LINE EASEMENT SPS
 50
358.941636
  7
ROMANS
210
0.0
220
0.0
230
1.0
  0
TEXT
  8
-22
  6
CONTINUOUS
 62
     3
  5
3FF
 10
957833.068
 20
7254185.936
 30
0.0
 40
8.0
  1
111.5'
 50
358.0988
  7
ROMANS
210
0.0
220
0.0
230
1.0
  0
TEXT
  8
-22
  6
CONTINUOUS
 62
     3
  5
400
 10
957835.766
 20
7253804.227
 30
0.0
 40
8.0
  1
87'
 50
358.0988
  7
ROMANS
210
0.0
220
0.0
230
1.0
  0
LINE
  8
-21
  6
DASHDOT
 62
     7
  5
402
 10
957772.805
 20
7254271.999
 30
0.0
 11
957787.112
 21
7253761.753
 31
0.0
  0
TEXT
  8
-22
  6
CONTINUOUS
 62
     3
  5
403
 10
957782.927
 20
7253966.825
 30
0.0
 40
8.0
  1
10" GAS LINE
 50
271.606106
  7
ROMANS
210
0.0
220
0.0
230
1.0
  0
LINE
  8
-21
  6
DASHDOT
 62
     7
  5
404
 10
960074.597
 20
7254388.64
 30
0.0
 11
962697.353
 21
7253518.848
 31
0.0
  0
TEXT
  8
-22
  6
CONTINUOUS
 62
     3
  5
405
 10
960616.789
 20
7254219.952
 30
0.0
 40
8.0
  1
5'WATER LINE EASEMENT
 50
341.652703
  7
ROMANS
210
0.0
220
0.0
230
1.0
  0
LINE
  8
-21
  6
DASHDOT
 62
     7
  5
406
 10
961644.398
 20
7253335.209
 30
0.0
 11
962600.852
 21
7254223.652
 31
0.0
  0
TEXT
  8
-22
  6
CONTINUOUS
 62
     3
  5
407
 10
962269.973
 20
7253940.921
 30
0.0
 40
8.0
  1
10" GAS LINE
 50
42.888739
  7
ROMANS
210
0.0
220
0.0
230
1.0
  0
TEXT
  8
-22
  6
CONTINUOUS
 62
     3
  5
408
 10
962367.539
 20
7253998.443
 30
0.0
 40
8.0
  1
12" GAS LINE
 50
42.888778
  7
ROMANS
210
0.0
220
0.0
230
1.0
  0
LINE
  8
-21
  6
DASHDOT
 62
     7
  5
409
 10
961769.532
 20
7254320.72
 30
0.0
 11
961769.85
 21
7254335.716
 31
0.0
  0
LINE
  8
-21
  6
DASHDOT
 62
     7
  5
40A
 10
961819.52
 20
7254319.661
 30
0.0
 11
961819.944
 21
7254339.657
 31
0.0
  0
LINE
  8
-21
  6
DASHDOT
 62
     7
  5
40B
 10
961834.833
 20
7254334.338
 30
0.0
 11
961834.939
 21
7254339.34
 31
0.0
  0
LINE
  8
-21
  6
DASHDOT
 62
     7
  5
40C
 10
961769.85
 20
7254335.716
 30
0.0
 11
961819.838
 21
7254334.656
 31
0.0
  0
TEXT
  8
-22
  6
CONTINUOUS
 62
     3
  5
40D
 10
962742.593
 20
7254292.794
 30
0.0
 40
8.0
  1
15' ELECTRIC EASEMENT
 50
358.786103
  7
ROMANS
210
0.0
220
0.0
230
1.0
  0
TEXT
  8
-22
  6
CONTINUOUS
 62
     3
  5
40E
 10
957980.521
 20
7255568.548
 30
0.0
 40
8.0
  1
10' UTIL EASEMENT
 50
22.148817
  7
ROMANS
210
0.0
220
0.0
230
1.0
  0
LINE
  8
-21
  6
DASHDOT
 62
     7
  5
40F
 10
961169.596
 20
7255847.855
 30
0.0
 11
961156.469
 21
7255230.383
 31
0.0
  0
LINE
  8
-21
  6
DASHDOT
 62
     7
  5
410
 10
961109.61
 20
7255849.129
 30
0.0
 11
961096.482
 21
7255231.659
 31
0.0
  0
LINE
  8
-21
  6
DASHDOT
 62
     7
  5
411
 10
961096.482
 20
7255231.659
 30
0.0
 11
961156.469
 21
7255230.383
 31
0.0
  0
TEXT
  8
-22
  6
CONTINUOUS
 62
     3
  5
412
 10
961115.59
 20
7255530.794
 30
0.0
 40
8.0
  1
600'
 50
88.0988
  7
ROMANS
210
0.0
220
0.0
230
1.0
  0
TEXT
  8
-22
  6
CONTINUOUS
 62
     3
  5
413
 10
961134.468
 20
7255474.356
 30
0.0
 40
8.0
  1
DRAINAGE EASEMENT
 50
88.0988
  7
ROMANS
210
0.0
220
0.0
230
1.0
  0
TEXT
  8
-22
  6
CONTINUOUS
 62
     3
  5
414
 10
961117.38
 20
7255239.787
 30
0.0
 40
8.0
  1
60'
 50
358.0988
  7
ROMANS
210
0.0
220
0.0
230
1.0
  0
POLYLINE
  8
-1
  6
HIDDEN
 62
   253
  5
416
 66
     1
 10
0.0
 20
0.0
 30
0.0
  0
VERTEX
  8
-1
  6
HIDDEN
 62
   253
  5
417
 10
963937.692
 20
7256951.479
 30
0.0
  0
VERTEX
  8
-1
  6
HIDDEN
 62
   253
  5
418
 10
963773.278
 20
7251709.95
 30
0.0
  0
VERTEX
  8
-1
  6
HIDDEN
 62
   253
  5
419
 10
957336.691
 20
7251906.898
 30
0.0
  0
VERTEX
  8
-1
  6
HIDDEN
 62
   253
  5
41A
 10
957481.242
 20
7257153.688
 30
0.0
  0
VERTEX
  8
-1
  6
HIDDEN
 62
   253
  5
41B
 10
963937.692
 20
7256951.479
 30
0.0
  0
SEQEND
  8
-1
  6
HIDDEN
 62
   253
  5
41C
  0
TEXT
  8
-11
  6
CONTINUOUS
 62
     7
  5
41D
 10
960881.418
 20
7256954.795
 30
0.0
 40
8.0
  1
1665.37'
 50
358.0988
  7
ROMANS
 72
     4
 11
960910.868557
 21
7256957.81961
 31
0.0
210
0.0
220
0.0
230
1.0
  0
TEXT
  8
-11
  6
CONTINUOUS
 62
     7
  5
41E
 10
959193.914
 20
7256630.068
 30
0.0
 40
8.0
  1
847.6'
 50
88.0988
  7
ROMANS
 72
     4
 11
959190.623981
 21
7256651.522961
 31
0.0
210
0.0
220
0.0
230
1.0
  0
TEXT
  8
-11
  6
CONTINUOUS
 62
     7
  5
41F
 10
961806.739
 20
7256539.365
 30
0.0
 40
8.0
  1
811.52'
 50
88.0988
  7
ROMANS
 72
     4
 11
961803.581686
 21
7256564.817759
 31
0.0
210
0.0
220
0.0
230
1.0
  0
TEXT
  8
-11
  6
CONTINUOUS
 62
     7
  5
420
 10
958288.784
 20
7255684.804
 30
0.0
 40
0.0
  1
9
 50
19.011675
  7
ROMANS
 72
     1
 11
958288.784
 21
7255684.804
 31
0.0
210
0.0
220
0.0
230
1.0
 73
     3
  0
TEXT
  8
-11
  6
CONTINUOUS
 62
     7
  5
421
 10
958288.784
 20
7255684.804
 30
0.0
 40
0.0
  1
.
 50
19.011675
  7
ROMANS
 72
     1
 11
958288.784
 21
7255684.804
 31
0.0
210
0.0
220
0.0
230
1.0
 73
     3
  0
TEXT
  8
-11
  6
CONTINUOUS
 62
     7
  5
422
 10
958288.784
 20
7255684.804
 30
0.0
 40
0.0
  1
1
 50
19.011675
  7
ROMANS
 72
     1
 11
958288.784
 21
7255684.804
 31
0.0
210
0.0
220
0.0
230
1.0
 73
     3
  0
TEXT
  8
-11
  6
CONTINUOUS
 62
     7
  5
423
 10
958288.784
 20
7255684.804
 30
0.0
 40
0.0
  1
3
 50
19.011675
  7
ROMANS
 72
     1
 11
958288.784
 21
7255684.804
 31
0.0
210
0.0
220
0.0
230
1.0
 73
     3
  0
TEXT
  8
-11
  6
CONTINUOUS
 62
     7
  5
424
 10
958288.784
 20
7255684.804
 30
0.0
 40
0.0
  1
'
 50
19.011675
  7
ROMANS
 72
     1
 11
958288.784
 21
7255684.804
 31
0.0
210
0.0
220
0.0
230
1.0
 73
     3
  0
TEXT
  8
-11
  6
CONTINUOUS
 62
     7
  5
425
 10
958267.694
 20
7255236.368
 30
0.0
 40
8.0
  1
1
 50
341.652125
  7
ROMANS
 72
     1
 11
958268.959234
 21
7255235.948391
 31
0.0
210
0.0
220
0.0
230
1.0
  0
TEXT
  8
-11
  6
CONTINUOUS
 62
     7
  5
426
 10
958282.761
 20
7255231.37
 30
0.0
 40
8.0
  1
4
 50
341.652125
  7
ROMANS
 72
     1
 11
958284.975397
 21
7255230.635605
 31
0.0
210
0.0
220
0.0
230
1.0
  0
TEXT
  8
-11
  6
CONTINUOUS
 62
     7
  5
427
 10
958290.296
 20
7255228.873
 30
0.0
 40
8.0
  1
.
 50
341.652125
  7
ROMANS
 72
     1
 11
958291.550793
 21
7255228.456853
 31
0.0
210
0.0
220
0.0
230
1.0
  0
TEXT
  8
-11
  6
CONTINUOUS
 62
     7
  5
428
 10
958297.828
 20
7255226.373
 30
0.0
 40
8.0
  1
9
 50
341.652125
  7
ROMANS
 72
     1
 11
958300.042397
 21
7255225.638605
 31
0.0
210
0.0
220
0.0
230
1.0
  0
TEXT
  8
-11
  6
CONTINUOUS
 62
     7
  5
429
 10
958305.362
 20
7255223.875
 30
0.0
 40
8.0
  1
1
 50
341.652125
  7
ROMANS
 72
     1
 11
958306.627234
 21
7255223.455391
 31
0.0
210
0.0
220
0.0
230
1.0
  0
TEXT
  8
-11
  6
CONTINUOUS
 62
     7
  5
42A
 10
958312.895
 20
7255221.377
 30
0.0
 40
8.0
  1
'
 50
341.652125
  7
ROMANS
 72
     1
 11
958314.160234
 21
7255220.957391
 31
0.0
210
0.0
220
0.0
230
1.0
  0
LINE
  8
-7
  6
CONTINUOUS
 62
     7
  5
42B
 10
958370.284
 20
7255731.743
 30
0.0
 11
958352.853
 21
7255206.608
 31
0.0
  0
TEXT
  8
-11
  6
CONTINUOUS
 62
     7
  5
42C
 10
958358.257
 20
7255430.924
 30
0.0
 40
8.0
  1
526.77'
 50
88.0988
  7
ROMANS
 72
     4
 11
958355.099686
 21
7255456.376759
 31
0.0
210
0.0
220
0.0
230
1.0
  0
TEXT
  8
-11
  6
CONTINUOUS
 62
     7
  5
42D
 10
958275.227
 20
7255233.869
 30
0.0
 40
8.0
  1
9
 50
341.652125
  7
ROMANS
 72
     1
 11
958277.441397
 21
7255233.134605
 31
0.0
210
0.0
220
0.0
230
1.0
  0
TEXT
  8
-10
  6
CONTINUOUS
 62
   134
  5
42E
 10
958289.323
 20
7255443.391
 30
0.0
 40
13.999
  1
3
 50
358.0988
  7
ROMANS
 11
958289.787432
 21
7255457.382294
 31
0.0
210
0.0
220
0.0
230
1.0
 73
     3
  0
TEXT
  8
-15
  6
CONTINUOUS
 62
    30
  5
42F
 10
958152.589
 20
7255359.639
 30
0.0
 40
50.0
  1
WRIGHT
 50
43.0988
  7
ROMANC
 72
     4
 11
958251.351514
 21
7255486.293739
 31
0.0
210
0.0
220
0.0
230
1.0
  0
TEXT
  8
-11
  6
CONTINUOUS
 62
     7
  5
430
 10
958257.816
 20
7255224.894
 30
0.0
 40
8.0
  1
N
 50
341.652125
  7
ROMANS
 72
     1
 11
958262.726176
 21
7255231.694042
 31
0.0
210
0.0
220
0.0
230
1.0
 73
     3
  0
TEXT
  8
-11
  6
CONTINUOUS
 62
     7
  5
431
 10
958265.349
 20
7255222.395
 30
0.0
 40
8.0
  1
7
 50
341.652125
  7
ROMANS
 72
     1
 11
958270.081682
 21
7255229.253907
 31
0.0
210
0.0
220
0.0
230
1.0
 73
     3
  0
TEXT
  8
-11
  6
CONTINUOUS
 62
     7
  5
432
 10
958272.883
 20
7255219.897
 30
0.0
 40
8.0
  1
3
 50
341.652125
  7
ROMANS
 72
     1
 11
958277.615682
 21
7255226.755907
 31
0.0
210
0.0
220
0.0
230
1.0
 73
     3
  0
TEXT
  8
-11
  6
CONTINUOUS
 62
     7
  5
433
 10
958280.417
 20
7255217.398
 30
0.0
 40
8.0
  1
%%d
 50
341.652125
  7
ROMANS
 72
     1
 11
958284.299232
 21
7255224.538955
 31
0.0
210
0.0
220
0.0
230
1.0
 73
     3
  0
TEXT
  8
-11
  6
CONTINUOUS
 62
     7
  5
434
 10
958287.949
 20
7255214.9
 30
0.0
 40
8.0
  1
3
 50
341.652125
  7
ROMANS
 72
     1
 11
958292.681682
 21
7255221.758907
 31
0.0
210
0.0
220
0.0
230
1.0
 73
     3
  0
TEXT
  8
-11
  6
CONTINUOUS
 62
     7
  5
435
 10
958295.483
 20
7255212.401
 30
0.0
 40
8.0
  1
7
 50
341.652125
  7
ROMANS
 72
     1
 11
958300.215682
 21
7255219.259907
 31
0.0
210
0.0
220
0.0
230
1.0
 73
     3
  0
TEXT
  8
-11
  6
CONTINUOUS
 62
     7
  5
436
 10
958303.017
 20
7255209.903
 30
0.0
 40
8.0
  1
'
 50
341.652125
  7
ROMANS
 72
     1
 11
958306.800519
 21
7255217.076693
 31
0.0
210
0.0
220
0.0
230
1.0
 73
     3
  0
TEXT
  8
-11
  6
CONTINUOUS
 62
     7
  5
437
 10
958310.551
 20
7255207.404
 30
0.0
 40
8.0
  1
W
 50
341.652125
  7
ROMANS
 72
     1
 11
958315.787688
 21
7255214.095756
 31
0.0
210
0.0
220
0.0
230
1.0
 73
     3
  0
TEXT
  8
-11
  6
CONTINUOUS
 62
     7
  5
438
 10
959997.231
 20
7254401.168
 30
0.0
 40
8.0
  1
1.88'
 50
328.0988
  7
ROMANS
 72
     4
 11
960014.059859
 21
7254395.404113
 31
0.0
210
0.0
220
0.0
230
1.0
  0
TEXT
  8
-15
  6
CONTINUOUS
 62
    30
  5
439
 10
959747.647
 20
7254075.167
 30
0.0
 40
50.0
  1
DJS
 50
43.0988
  7
ROMANC
 72
     4
 11
959778.857957
 21
7254138.610764
 31
0.0
210
0.0
220
0.0
230
1.0
  0
TEXT
  8
-19
  6
CONTINUOUS
 62
     1
  5
43A
 10
958519.523
 20
7254601.656
 30
0.0
 40
24.0
  1
UTE AVE
 50
88.0988
  7
ROMANC
 72
     4
 11
958510.557589
 21
7254693.273871
 31
0.0
210
0.0
220
0.0
230
1.0
  0
TEXT
  8
-19
  6
CONTINUOUS
 62
     1
  5
43B
 10
958751.58
 20
7253460.031
 30
0.0
 40
24.0
  1
UTE AVE
 50
88.0988
  7
ROMANC
 72
     4
 11
958742.614589
 21
7253551.648871
 31
0.0
210
0.0
220
0.0
230
1.0
  0
TEXT
  8
-19
  6
CONTINUOUS
 62
     1
  5
43C
 10
960029.097
 20
7253328.84
 30
0.0
 40
24.0
  1
ZENITH AVE
 50
88.0988
  7
ROMANC
 72
     4
 11
960021.354063
 21
7253457.285587
 31
0.0
210
0.0
220
0.0
230
1.0
  0
LINE
  8
-6
  6
CONTINUOUS
 62
     7
  5
43E
 10
962455.58
 20
7256117.806
 30
0.0
 11
959499.985
 21
7256183.415
 31
0.0
  0
LINE
  8
-6
  6
CONTINUOUS
 62
     7
  5
43F
 10
962399.658
 20
7255818.475
 30
0.0
 11
959466.679
 21
7255878.814
 31
0.0
  0
ARC
  8
-6
  6
CONTINUOUS
 62
     7
  5
440
 10
959415.875822
 20
7252226.778814
 30
0.0
 40
3957.530845
 50
88.782206
 51
112.148825
210
0.0
220
0.0
230
1.0
  0
LINE
  8
-6
  6
CONTINUOUS
 62
     7
  5
441
 10
957923.832
 20
7255892.275
 30
0.0
 11
957648.303
 21
7255780.12
 31
0.0
  0
LINE
  8
-6
  6
CONTINUOUS
 62
     7
  5
442
 10
958022.051
 20
7255610.15
 30
0.0
 11
957883.44
 21
7255553.617
 31
0.0
  0
POLYLINE
  8
-6
  6
CONTINUOUS
 62
     7
  5
443
 66
     1
 10
0.0
 20
0.0
 30
0.0
210
0.0
220
0.0
230
1.0
  0
VERTEX
  8
-6
  6
CONTINUOUS
 62
     7
  5
444
 10
959466.679349
 20
7255878.813803
 30
0.0
 42
0.05117
  0
VERTEX
  8
-6
  6
CONTINUOUS
 62
     7
  5
445
 10
958730.662349
 20
7255818.601086
 30
0.0
 42
0.051148
  0
VERTEX
  8
-6
  6
CONTINUOUS
 62
     7
  5
446
 10
958022.051517
 20
7255610.150217
 30
0.0
 42
0.051148
  0
SEQEND
  8
-6
  6
CONTINUOUS
 62
     7
  5
447
  0
ARC
  8
-6
  6
CONTINUOUS
 62
     7
  5
448
 10
962481.306702
 20
7259787.45511
 30
0.0
 40
3969.819713
 50
268.821497
 51
289.4135
210
0.0
220
0.0
230
1.0
  0
TEXT
  8
-15
  6
CONTINUOUS
 62
    30
  5
449
 10
960936.36
 20
7256592.178
 30
0.0
 40
50.0
  1
GPC 
 50
28.0988
  7
ROMANC
 72
     4
 11
961013.835349
 21
7256661.884176
 31
0.0
210
0.0
220
0.0
230
1.0
  0
TEXT
  8
-11
  6
CONTINUOUS
 62
     7
  5
44A
 10
960156.634
 20
7256590.215
 30
0.0
 40
8.0
  1
810.1'
 50
88.0988
  7
ROMANS
 72
     4
 11
960153.343981
 21
7256611.669961
 31
0.0
210
0.0
220
0.0
230
1.0
  0
TEXT
  8
-11
  6
CONTINUOUS
 62
     7
  5
44B
 10
962698.801
 20
7256935.274
 30
0.0
 40
8.0
  1
37.5'
 50
88.0988
  7
ROMANS
210
0.0
220
0.0
230
1.0
  0
TEXT
  8
-11
  6
CONTINUOUS
 62
     7
  5
44C
 10
962746.858
 20
7256908.391
 30
0.0
 40
8.0
  1
75'
 50
358.0988
  7
ROMANS
210
0.0
220
0.0
230
1.0
  0
TEXT
  8
-13
  6
CONTINUOUS
 62
    14
  5
44E
 10
962751.831
 20
7256647.996
 30
0.0
 40
8.0
  1
V1262 P362
 50
88.0988
  7
txt
 72
     4
 11
962749.069277
 21
7256685.366195
 31
0.0
210
0.0
220
0.0
230
1.0
  0
POLYLINE
  8
-21
  6
DASHDOT
 62
     7
  5
44F
 66
     1
 10
0.0
 20
0.0
 30
0.0
  0
VERTEX
  8
-21
  6
DASHDOT
 62
     7
  5
450
 10
962726.009
 20
7256924.774
 30
0.0
  0
VERTEX
  8
-21
  6
DASHDOT
 62
     7
  5
451
 10
962726.337
 20
7256962.273
 30
0.0
  0
VERTEX
  8
-21
  6
DASHDOT
 62
     7
  5
452
 10
962816.317
 20
7256960.387
 30
0.0
  0
VERTEX
  8
-21
  6
DASHDOT
 62
     7
  5
453
 10
962800.255
 20
7256126.679
 30
0.0
  0
VERTEX
  8
-21
  6
DASHDOT
 62
     7
  5
454
 10
962800.254419
 20
7256126.678782
 30
0.0
 42
-0.006134
  0
VERTEX
  8
-21
  6
DASHDOT
 62
     7
  5
455
 10
962710.379292
 20
7256121.237888
 30
0.0
  0
VERTEX
  8
-21
  6
DASHDOT
 62
     7
  5
456
 10
962710.379316
 20
7256121.237889
 30
0.0
 42
0.394099
  0
VERTEX
  8
-21
  6
DASHDOT
 62
     7
  5
457
 10
962724.65335
 20
7256135.906024
 30
0.0
  0
VERTEX
  8
-21
  6
DASHDOT
 62
     7
  5
458
 10
962724.654
 20
7256135.906
 30
0.0
  0
VERTEX
  8
-21
  6
DASHDOT
 62
     7
  5
459
 10
962740.877
 20
7256909.643
 30
0.0
  0
VERTEX
  8
-21
  6
DASHDOT
 62
     7
  5
45A
 10
962740.87683
 20
7256909.64235
 30
0.0
 42
0.414214
  0
VERTEX
  8
-21
  6
DASHDOT
 62
     7
  5
45B
 10
962726.008654
 20
7256924.773948
 30
0.0
  0
SEQEND
  8
-21
  6
DASHDOT
 62
     7
  5
45C
  0
ARC
  8
-6
  6
CONTINUOUS
 62
     7
  5
45D
 10
962533.574848
 20
7259786.79622
 30
0.0
 40
3669.819713
 50
268.782197
 51
272.761467
210
0.0
220
0.0
230
1.0
  0
POLYLINE
  8
-6
  6
CONTINUOUS
 62
     7
  5
45E
 66
     1
 10
0.0
 20
0.0
 30
0.0
210
0.0
220
0.0
230
1.0
  0
VERTEX
  8
-6
  6
CONTINUOUS
 62
     7
  5
45F
 10
962800.255012
 20
7256126.678957
 30
0.0
 42
0.038366
  0
VERTEX
  8
-6
  6
CONTINUOUS
 62
     7
  5
460
 10
963326.708334
 20
7256207.368619
 30
0.0
 42
0.03819
  0
VERTEX
  8
-6
  6
CONTINUOUS
 62
     7
  5
461
 10
963835.869754
 20
7256367.764372
 30
0.0
 42
0.03819
  0
SEQEND
  8
-6
  6
CONTINUOUS
 62
     7
  5
462
  0
LINE
  8
-6
  6
CONTINUOUS
 62
     7
  5
463
 10
962816.287
 20
7256958.84
 30
0.0
 11
962800.255
 21
7256126.679
 31
0.0
  0
ARC
  8
-6
  6
CONTINUOUS
 62
     7
  5
464
 10
962709.656841
 20
7256136.220613
 30
0.0
 40
15.0
 50
272.761467
 51
358.798814
210
0.0
220
0.0
230
1.0
  0
LINE
  8
-6
  6
CONTINUOUS
 62
     7
  5
465
 10
960169.508
 20
7256170.073
 30
0.0
 11
960186.663
 21
7256994.918
 31
0.0
  0
LINE
  8
-6
  6
CONTINUOUS
 62
     7
  5
466
 10
960186.353
 20
7256979.998
 30
0.0
 11
962726.184
 21
7256924.574
 31
0.0
  0
LINE
  8
-6
  6
CONTINUOUS
 62
     7
  5
467
 10
961851.362
 20
7256945.368
 30
0.0
 11
961834.488
 21
7256134.024
 31
0.0
  0
ARC
  8
-6
  6
CONTINUOUS
 62
     7
  5
468
 10
962725.872376
 20
7256909.577194
 30
0.0
 40
15.0
 50
358.798814
 51
88.808508
210
0.0
220
0.0
230
1.0
  0
LINE
  8
-6
  6
CONTINUOUS
 62
     7
  5
469
 10
958601.164
 20
7255114.532
 30
0.0
 11
957891.112
 21
7255348.604
 31
0.0
  0
ARC
  8
-6
  6
CONTINUOUS
 62
     7
  5
46A
 10
957926.967004
 20
7255452.596019
 30
0.0
 40
110.0
 50
113.310142
 51
250.976119
210
0.0
220
0.0
230
1.0
  0
TEXT
  8
-11
  6
CONTINUOUS
 62
     7
  5
46B
 10
958262.359
 20
7255683.237
 30
0.0
 40
8.0
  1
199.11'
 50
20.738978
  7
ROMANS
210
0.0
220
0.0
230
1.0
  0
TEXT
  8
-11
  6
CONTINUOUS
 62
     7
  5
46C
 10
958251.679
 20
7255696.567
 30
0.0
 40
8.0
  1
R=3669.83'
 50
20.738978
  7
ROMANS
210
0.0
220
0.0
230
1.0
  0
LINE
  8
-6
  6
CONTINUOUS
 62
     7
  5
46D
 10
958589.482
 20
7255079.093
 30
0.0
 11
958601.164
 21
7255114.532
 31
0.0
  0
LINE
  8
-6
  6
CONTINUOUS
 62
     7
  5
46E
 10
963347.114
 20
7254308.598
 30
0.0
 11
960773.385
 21
7254359.295
 31
0.0
  0
LINE
  8
-6
  6
CONTINUOUS
 62
     7
  5
46F
 10
960892.162
 20
7254356.956
 30
0.0
 11
961824.031
 21
7254049.462
 31
0.0
  0
POLYLINE
  8
-6
  6
CONTINUOUS
 62
     7
  5
470
 66
     1
 10
0.0
 20
0.0
 30
0.0
  0
VERTEX
  8
-6
  6
CONTINUOUS
 62
     7
  5
471
 10
961824.031
 20
7254049.462
 30
0.0
  0
VERTEX
  8
-6
  6
CONTINUOUS
 62
     7
  5
472
 10
961823.311
 20
7254012.842
 30
0.0
  0
VERTEX
  8
-6
  6
CONTINUOUS
 62
     7
  5
473
 10
961948.615
 20
7253971.494
 30
0.0
  0
VERTEX
  8
-6
  6
CONTINUOUS
 62
     7
  5
474
 10
961949.337
 20
7254008.112
 30
0.0
  0
VERTEX
  8
-6
  6
CONTINUOUS
 62
     7
  5
475
 10
962701.599
 20
7253759.883
 30
0.0
  0
SEQEND
  8
-6
  6
CONTINUOUS
 62
     7
  5
476
  0
LINE
  8
-6
  6
CONTINUOUS
 62
     7
  5
477
 10
962487.511
 20
7254321.971
 30
0.0
 11
962477.652
 21
7253822.256
 31
0.0
  0
LINE
  8
-7
  6
CONTINUOUS
 62
     7
  5
478
 10
961291.79
 20
7254349.453
 30
0.0
 11
961289.281
 21
7254226.323
 31
0.0
  0
LINE
  8
-7
  6
CONTINUOUS
 62
     7
  5
479
 10
961515.121
 20
7254344.9
 30
0.0
 11
961511.208
 21
7254152.924
 31
0.0
  0
LINE
  8
-7
  6
CONTINUOUS
 62
     7
  5
47A
 10
961600.783
 20
7254343.154
 30
0.0
 11
961596.332
 21
7254124.77
 31
0.0
  0
LINE
  8
-7
  6
CONTINUOUS
 62
     7
  5
47B
 10
961686.445
 20
7254341.408
 30
0.0
 11
961681.455
 21
7254096.617
 31
0.0
  0
LINE
  8
-7
  6
CONTINUOUS
 62
     7
  5
47C
 10
961758.18
 20
7254339.946
 30
0.0
 11
961752.74
 21
7254073.041
 31
0.0
  0
LINE
  8
-7
  6
CONTINUOUS
 62
     7
  5
47D
 10
961829.915
 20
7254338.483
 30
0.0
 11
961824.031
 21
7254049.462
 31
0.0
  0
LINE
  8
-7
  6
CONTINUOUS
 62
     7
  5
47E
 10
961955.989
 20
7254335.913
 30
0.0
 11
961949.309
 21
7254008.026
 31
0.0
  0
LINE
  8
-7
  6
CONTINUOUS
 62
     7
  5
47F
 10
962069.666
 20
7254333.595
 30
0.0
 11
962062.27
 21
7253970.666
 31
0.0
  0
LINE
  8
-7
  6
CONTINUOUS
 62
     7
  5
480
 10
962174.438
 20
7254331.459
 30
0.0
 11
962166.384
 21
7253936.232
 31
0.0
  0
LINE
  8
-7
  6
CONTINUOUS
 62
     7
  5
481
 10
962363.405
 20
7254327.608
 30
0.0
 11
962354.16
 21
7253874.127
 31
0.0
  0
LINE
  8
-6
  6
CONTINUOUS
 62
     7
  5
482
 10
962700.868
 20
7253722.822
 30
0.0
 11
962717.747
 21
7253717.215
 31
0.0
  0
LINE
  8
-6
  6
CONTINUOUS
 62
     7
  5
483
 10
962717.747
 20
7253717.215
 30
0.0
 11
962729.886
 21
7254320.753
 31
0.0
  0
LINE
  8
-6
  6
CONTINUOUS
 62
     7
  5
484
 10
962874.638
 20
7253690.781
 30
0.0
 11
962887.172
 21
7254314.015
 31
0.0
  0
LINE
  8
-6
  6
CONTINUOUS
 62
     7
  5
485
 10
962692.809
 20
7253750.774
 30
0.0
 11
962874.638
 21
7253690.781
 31
0.0
  0
LINE
  8
-6
  6
CONTINUOUS
 62
     7
  5
486
 10
963347.109
 20
7254308.335
 30
0.0
 11
963331.246
 21
7253514.795
 31
0.0
  0
LINE
  8
-6
  6
CONTINUOUS
 62
     7
  5
487
 10
962900.312
 20
7253693.834
 30
0.0
 11
963331.979
 21
7253551.408
 31
0.0
  0
LINE
  8
-7
  6
CONTINUOUS
 62
     7
  5
488
 10
963117.526
 20
7254312.068
 30
0.0
 11
963103.254
 21
7253625.901
 31
0.0
  0
LINE
  8
-6
  6
CONTINUOUS
 62
     7
  5
489
 10
960225.911
 20
7254334.376
 30
0.0
 11
960632.45
 21
7254200.226
 31
0.0
  0
POLYLINE
  8
-6
  6
CONTINUOUS
 62
     7
  5
48A
 66
     1
 10
0.0
 20
0.0
 30
0.0
  0
VERTEX
  8
-6
  6
CONTINUOUS
 62
     7
  5
48B
 10
960621.353
 20
7253636.957
 30
0.0
  0
VERTEX
  8
-6
  6
CONTINUOUS
 62
     7
  5
48C
 10
960633.17
 20
7254236.846
 30
0.0
  0
VERTEX
  8
-6
  6
CONTINUOUS
 62
     7
  5
48D
 10
961046.158
 20
7254100.567
 30
0.0
  0
VERTEX
  8
-6
  6
CONTINUOUS
 62
     7
  5
48E
 10
961034.341
 20
7253500.68
 30
0.0
  0
SEQEND
  8
-6
  6
CONTINUOUS
 62
     7
  5
48F
  0
LINE
  8
-6
  6
CONTINUOUS
 62
     7
  5
490
 10
960982.072
 20
7253517.926
 30
0.0
 11
960993.89
 21
7254117.814
 31
0.0
  0
LINE
  8
-6
  6
CONTINUOUS
 62
     7
  5
491
 10
961045.437
 20
7254063.949
 30
0.0
 11
961426.03
 21
7253938.36
 31
0.0
  0
LINE
  8
-6
  6
CONTINUOUS
 62
     7
  5
492
 10
961858.902
 20
7253795.521
 30
0.0
 11
962697.353
 21
7253518.848
 31
0.0
  0
LINE
  8
-7
  6
CONTINUOUS
 62
     7
  5
493
 10
960339.816
 20
7253735.839
 30
0.0
 11
960351.299
 21
7254299.101
 31
0.0
  0
LINE
  8
-7
  6
CONTINUOUS
 62
     7
  5
494
 10
961133.217
 20
7253473.429
 30
0.0
 11
961144.7
 21
7254036.691
 31
0.0
  0
LINE
  8
-7
  6
CONTINUOUS
 62
     7
  5
495
 10
962310.06
 20
7253084.201
 30
0.0
 11
962321.543
 21
7253647.459
 31
0.0
  0
LINE
  8
-7
  6
CONTINUOUS
 62
     7
  5
496
 10
962382.187
 20
7253060.346
 30
0.0
 11
962393.67
 21
7253623.604
 31
0.0
  0
TEXT
  8
-13
  6
CONTINUOUS
 62
    14
  5
497
 10
959464.791
 20
7253086.633
 30
0.0
 40
8.0
  1
V1144 P159
 50
358.0988
  7
txt
 72
     4
 11
959500.084339
 21
7253089.463663
 31
0.0
210
0.0
220
0.0
230
1.0
  0
POLYLINE
  8
-21
  6
DASHDOT
 62
     7
  5
498
 66
     1
 10
0.0
 20
0.0
 30
0.0
  0
VERTEX
  8
-21
  6
DASHDOT
 62
     7
  5
499
 10
958710.599
 20
7253096.84
 30
0.0
  0
VERTEX
  8
-21
  6
DASHDOT
 62
     7
  5
49A
 10
958742.399
 20
7254054.812
 30
0.0
  0
VERTEX
  8
-21
  6
DASHDOT
 62
     7
  5
49B
 10
958779.885
 20
7254053.575
 30
0.0
  0
VERTEX
  8
-21
  6
DASHDOT
 62
     7
  5
49C
 10
958749.828
 20
7253148.073
 30
0.0
  0
VERTEX
  8
-21
  6
DASHDOT
 62
     7
  5
49D
 10
958749.827813
 20
7253148.073473
 30
0.0
 42
0.414214
  0
VERTEX
  8
-21
  6
DASHDOT
 62
     7
  5
49E
 10
958764.321914
 20
7253132.584088
 30
0.0
  0
VERTEX
  8
-21
  6
DASHDOT
 62
     7
  5
49F
 10
958764.322
 20
7253132.584
 30
0.0
  0
VERTEX
  8
-21
  6
DASHDOT
 62
     7
  5
4A0
 10
959978.653
 20
7253092.275
 30
0.0
  0
VERTEX
  8
-21
  6
DASHDOT
 62
     7
  5
4A1
 10
959978.653082
 20
7253092.275114
 30
0.0
 42
0.414214
  0
VERTEX
  8
-21
  6
DASHDOT
 62
     7
  5
4A2
 10
959994.142467
 20
7253106.769215
 30
0.0
  0
VERTEX
  8
-21
  6
DASHDOT
 62
     7
  5
4A3
 10
959994.142
 20
7253106.769
 30
0.0
  0
VERTEX
  8
-21
  6
DASHDOT
 62
     7
  5
4A4
 10
960038.169
 20
7254433.109
 30
0.0
  0
VERTEX
  8
-21
  6
DASHDOT
 62
     7
  5
4A5
 10
960075.258
 20
7254420.294
 30
0.0
  0
VERTEX
  8
-21
  6
DASHDOT
 62
     7
  5
4A6
 10
960029.873
 20
7253053.047
 30
0.0
  0
VERTEX
  8
-21
  6
DASHDOT
 62
     7
  5
4A7
 10
958710.599
 20
7253096.84
 30
0.0
  0
SEQEND
  8
-21
  6
DASHDOT
 62
     7
  5
4A8
  0
TEXT
  8
-11
  6
CONTINUOUS
 62
     7
  5
4A9
 10
958774.748
 20
7253520.549
 30
0.0
 40
8.0
  1
906'
 50
88.0988
  7
txt
 72
     4
 11
958771.189022
 21
7253533.901423
 31
0.0
210
0.0
220
0.0
230
1.0
  0
TEXT
  8
-11
  6
CONTINUOUS
 62
     7
  5
4AA
 10
958719.518
 20
7253518.016
 30
0.0
 40
8.0
  1
985.5'
 50
88.0988
  7
txt
 72
     4
 11
958716.165942
 21
7253537.60199
 31
0.0
210
0.0
220
0.0
230
1.0
  0
TEXT
  8
-11
  6
CONTINUOUS
 62
     7
  5
4AB
 10
959998.081
 20
7253508.306
 30
0.0
 40
8.0
  1
1327.07'
 50
88.0988
  7
txt
 72
     4
 11
959994.954606
 21
7253534.690246
 31
0.0
210
0.0
220
0.0
230
1.0
  0
TEXT
  8
-11
  6
CONTINUOUS
 62
     7
  5
4AC
 10
960058.61
 20
7253526.533
 30
0.0
 40
8.0
  1
1368'
 50
88.0988
  7
txt
 72
     4
 11
960055.144015
 21
7253542.68688
 31
0.0
210
0.0
220
0.0
230
1.0
  0
POLYLINE
  8
-21
  6
DASHDOT
 62
     7
  5
4AD
 66
     1
 10
0.0
 20
0.0
 30
0.0
 70
     1
  0
VERTEX
  8
-21
  6
DASHDOT
 62
     7
  5
4AE
 10
959916.252
 20
7254377.546
 30
0.0
  0
VERTEX
  8
-21
  6
DASHDOT
 62
     7
  5
4AF
 10
959078.214
 20
7254405.364
 30
0.0
  0
VERTEX
  8
-21
  6
DASHDOT
 62
     7
  5
4B0
 10
959077.882
 20
7254395.369
 30
0.0
  0
VERTEX
  8
-21
  6
DASHDOT
 62
     7
  5
4B1
 10
959998.375
 20
7254364.814
 30
0.0
  0
VERTEX
  8
-21
  6
DASHDOT
 62
     7
  5
4B2
 10
959999.039
 20
7254384.803
 30
0.0
  0
VERTEX
  8
-21
  6
DASHDOT
 62
     7
  5
4B3
 10
959916.584
 20
7254387.54
 30
0.0
  0
VERTEX
  8
-21
  6
DASHDOT
 62
     7
  5
4B4
 10
959916.252
 20
7254377.546
 30
0.0
  0
SEQEND
  8
-21
  6
DASHDOT
 62
     7
  5
4B5
  0
TEXT
  8
-13
  6
CONTINUOUS
 62
    14
  5
4B6
 10
959332.208
 20
7254388.521
 30
0.0
 40
8.0
  1
V1144 P160
 50
358.0988
  7
txt
 72
     4
 11
959367.469356
 21
7254391.352724
 31
0.0
210
0.0
220
0.0
230
1.0
  0
TEXT
  8
-22
  6
CONTINUOUS
 62
     3
  5
4B7
 10
957504.687
 20
7254484.702
 30
0.0
 40
8.0
  1
DRAINAGE EASEMENT 30' X 650'
 50
358.0988
  7
ROMANS
210
0.0
220
0.0
230
1.0
  0
TEXT
  8
-22
  6
CONTINUOUS
 62
     3
  5
4B8
 10
957840.563
 20
7254477.874
 30
0.0
 40
6.0
  1
650.00'
 50
358.0988
  7
txt
 72
     4
 11
957858.178881
 21
7254480.290904
 31
0.0
210
0.0
220
0.0
230
1.0
  0
TEXT
  8
-22
  6
CONTINUOUS
 62
     3
  5
4B9
 10
957853.884
 20
7254447.318
 30
0.0
 40
6.0
  1
650.00'
 50
358.0988
  7
txt
 72
     4
 11
957871.499881
 21
7254449.734904
 31
0.0
210
0.0
220
0.0
230
1.0
  0
TEXT
  8
-22
  6
CONTINUOUS
 62
     3
  5
4BA
 10
958135.055
 20
7254439.787
 30
0.0
 40
6.0
  1
30.00'
 50
88.0988
  7
txt
 72
     4
 11
958132.543279
 21
7254454.546454
 31
0.0
210
0.0
220
0.0
230
1.0
  0
TEXT
  8
-13
  6
CONTINUOUS
 62
    14
  5
4BB
 10
957744.535
 20
7254451.24
 30
0.0
 40
8.0
  1
V2534 P294
 50
358.0988
  7
txt
 72
     4
 11
957784.077998
 21
7254453.929598
 31
0.0
210
0.0
220
0.0
230
1.0
  0
LINE
  8
-6
  6
CONTINUOUS
 62
     7
  5
4BC
 10
958790.65
 20
7254404.929
 30
0.0
 11
958749.793
 21
7253148.1
 31
0.0
  0
LINE
  8
-6
  6
CONTINUOUS
 62
     7
  5
4BD
 10
958764.298
 20
7253132.621
 30
0.0
 11
959993.648
 21
7253092.658
 31
0.0
  0
LINE
  8
-6
  6
CONTINUOUS
 62
     7
  5
4BE
 10
959993.648
 20
7253092.658
 30
0.0
 11
960037.252
 21
7254434.019
 31
0.0
  0
POLYLINE
  8
-6
  6
CONTINUOUS
 62
     7
  5
4BF
 66
     1
 10
0.0
 20
0.0
 30
0.0
  0
VERTEX
  8
-6
  6
CONTINUOUS
 62
     7
  5
4C0
 10
960034.985
 20
7254364.479
 30
0.0
  0
VERTEX
  8
-6
  6
CONTINUOUS
 62
     7
  5
4C1
 10
959643.652
 20
7254377.2
 30
0.0
  0
VERTEX
  8
-6
  6
CONTINUOUS
 62
     7
  5
4C2
 10
959627.407
 20
7253877.464
 30
0.0
  0
VERTEX
  8
-6
  6
CONTINUOUS
 62
     7
  5
4C3
 10
960018.74
 20
7253864.743
 30
0.0
  0
SEQEND
  8
-6
  6
CONTINUOUS
 62
     7
  5
4C4
  0
LINE
  8
-6
  6
CONTINUOUS
 62
     7
  5
4C5
 10
959953.178
 20
7254387.149
 30
0.0
 11
960035.635
 21
7254384.468
 31
0.0
  0
ARC
  8
-6
  6
CONTINUOUS
 62
     7
  5
4C6
 10
960020.700891
 20
7254386.8378
 30
0.0
 40
15.0
 50
358.157967
 51
69.982425
210
0.0
220
0.0
230
1.0
  0
TEXT
  8
-10
  6
CONTINUOUS
 62
   134
  5
4C7
 10
959740.585
 20
7254166.471
 30
0.0
 40
13.999
  1
B
 50
358.0988
  7
txt
 72
     4
 11
959745.498654
 21
7254173.31175
 31
0.0
210
0.0
220
0.0
230
1.0
  0
TEXT
  8
-11
  6
CONTINUOUS
 62
     7
  5
4C8
 10
959752.633
 20
7254383.225
 30
0.0
 40
8.0
  1
391.64'
 50
358.0988
  7
txt
 72
     4
 11
959774.799569
 21
7254386.491398
 31
0.0
210
0.0
220
0.0
230
1.0
  0
TEXT
  8
-11
  6
CONTINUOUS
 62
     7
  5
4C9
 10
959788.602
 20
7253877.432
 30
0.0
 40
8.0
  1
391.54'
 50
358.0988
  7
txt
 72
     4
 11
959810.958464
 21
7253880.692094
 31
0.0
210
0.0
220
0.0
230
1.0
  0
TEXT
  8
-11
  6
CONTINUOUS
 62
     7
  5
4CA
 10
959647.348
 20
7254110.394
 30
0.0
 40
8.0
  1
500'
 50
88.0988
  7
txt
 72
     4
 11
959643.800534
 21
7254124.093232
 31
0.0
210
0.0
220
0.0
230
1.0
  0
TEXT
  8
-11
  6
CONTINUOUS
 62
     7
  5
4CB
 10
960021.818
 20
7254099.244
 30
0.0
 40
8.0
  1
500'
 50
88.0988
  7
txt
 72
     4
 11
960018.270534
 21
7254112.943232
 31
0.0
210
0.0
220
0.0
230
1.0
  0
LINE
  8
-6
  6
CONTINUOUS
 62
     7
  5
4CC
 10
958790.65
 20
7254404.929
 30
0.0
 11
959643.652
 21
7254377.2
 31
0.0
  0
LINE
  8
-6
  6
CONTINUOUS
 62
     7
  5
4CD
 10
958539.561
 20
7254891.485
 30
0.0
 11
958526.451
 21
7254476.037
 31
0.0
  0
LINE
  8
-6
  6
CONTINUOUS
 62
     7
  5
4CE
 10
958540.957
 20
7254460.572
 30
0.0
 11
958699.253
 21
7254455.426
 31
0.0
  0
LINE
  8
-6
  6
CONTINUOUS
 62
     7
  5
4CF
 10
958763.085
 20
7254425.836
 30
0.0
 11
959953.062
 21
7254387.152
 31
0.0
  0
LINE
  8
-7
  6
CONTINUOUS
 62
     7
  5
4D0
 10
958782.718
 20
7254831.451
 30
0.0
 11
958769.642
 21
7254425.892
 31
0.0
  0
LINE
  8
-7
  6
CONTINUOUS
 62
     7
  5
4D1
 10
958985.095
 20
7254758.858
 30
0.0
 11
958974.153
 21
7254419.512
 31
0.0
  0
LINE
  8
-7
  6
CONTINUOUS
 62
     7
  5
4D2
 10
959133.527
 20
7254707.829
 30
0.0
 11
959124.075
 21
7254414.677
 31
0.0
  0
LINE
  8
-7
  6
CONTINUOUS
 62
     7
  5
4D3
 10
959281.96
 20
7254656.8
 30
0.0
 11
959273.996
 21
7254409.844
 31
0.0
  0
LINE
  8
-7
  6
CONTINUOUS
 62
     7
  5
4D4
 10
959430.393
 20
7254605.77
 30
0.0
 11
959423.92
 21
7254405.009
 31
0.0
  0
TEXT
  8
-11
  6
CONTINUOUS
 62
     7
  5
4D5
 10
958874.686
 20
7254784.414
 30
0.0
 40
8.0
  1
214.21'
 50
340.434911
  7
txt
 72
     4
 11
958895.820543
 21
7254781.14794
 31
0.0
210
0.0
220
0.0
230
1.0
  0
ARC
  8
-7
  6
CONTINUOUS
 62
     7
  5
4D6
 10
958696.267983
 20
7254365.475515
 30
0.0
 40
90.0
 50
42.081764
 51
88.099331
210
0.0
220
0.0
230
1.0
  0
ARC
  8
-7
  6
CONTINUOUS
 62
     7
  5
4D7
 10
958541.443209
 20
7254475.553605
 30
0.0
 40
15.0
 50
178.153247
 51
268.098797
210
0.0
220
0.0
230
1.0
  0
ARC
  8
-7
  6
CONTINUOUS
 62
     7
  5
4D8
 10
958554.553209
 20
7254891.001606
 30
0.0
 40
15.0
 50
70.988281
 51
178.15325
210
0.0
220
0.0
230
1.0
  0
LINE
  8
-6
  6
CONTINUOUS
 62
     7
  5
4D9
 10
958502.92
 20
7254919.304
 30
0.0
 11
958487.0
 21
7254414.8
 31
0.0
  0
LINE
  8
-6
  6
CONTINUOUS
 62
     7
  5
4DA
 10
958753.162
 20
7254406.149
 30
0.0
 11
958487.0
 21
7254414.8
 31
0.0
  0
TEXT
  8
-13
  6
CONTINUOUS
 62
    14
  5
4DB
 10
962233.697
 20
7253094.362
 30
0.0
 40
8.0
  1
V788 P633
 50
341.698786
  7
txt
 72
     1
 11
962266.827919
 21
7253083.404217
 31
0.0
210
0.0
220
0.0
230
1.0
  0
TEXT
  8
-22
  6
CONTINUOUS
 62
     3
  5
4DC
 10
962237.724
 20
7253110.528
 30
0.0
 40
6.0
  1
882.92'
 50
341.698786
  7
txt
 72
     1
 11
962254.431872
 21
7253105.002007
 31
0.0
210
0.0
220
0.0
230
1.0
  0
POLYLINE
  8
-21
  6
DASHDOT
 62
     7
  5
4DD
 66
     1
 10
0.0
 20
0.0
 30
0.0
 70
     1
  0
VERTEX
  8
-21
  6
DASHDOT
 62
     7
  5
4DE
 10
962620.633
 20
7252981.482
 30
0.0
  0
VERTEX
  8
-21
  6
DASHDOT
 62
     7
  5
4DF
 10
961782.373
 20
7253258.73
 30
0.0
  0
VERTEX
  8
-21
  6
DASHDOT
 62
     7
  5
4E0
 10
961781.41
 20
7253237.822
 30
0.0
  0
VERTEX
  8
-21
  6
DASHDOT
 62
     7
  5
4E1
 10
962619.671
 20
7252960.574
 30
0.0
  0
VERTEX
  8
-21
  6
DASHDOT
 62
     7
  5
4E2
 10
962620.633
 20
7252981.482
 30
0.0
  0
SEQEND
  8
-21
  6
DASHDOT
 62
     7
  5
4E3
  0
TEXT
  8
-13
  6
CONTINUOUS
 62
    14
  5
4E4
 10
960917.109
 20
7253531.174
 30
0.0
 40
8.0
  1
V990 P191
 50
341.698786
  7
txt
 72
     1
 11
960949.611342
 21
7253528.850322
 31
0.0
210
0.0
220
0.0
230
1.0
 73
     3
  0
POLYLINE
  8
-21
  6
DASHDOT
 62
     7
  5
4E5
 66
     1
 10
0.0
 20
0.0
 30
0.0
 70
     1
  0
VERTEX
  8
-21
  6
DASHDOT
 62
     7
  5
4E6
 10
960054.932
 20
7253823.869
 30
0.0
  0
VERTEX
  8
-21
  6
DASHDOT
 62
     7
  5
4E7
 10
960054.506
 20
7253802.944
 30
0.0
  0
VERTEX
  8
-21
  6
DASHDOT
 62
     7
  5
4E8
 10
961846.71
 20
7253210.187
 30
0.0
  0
VERTEX
  8
-21
  6
DASHDOT
 62
     7
  5
4E9
 10
961847.137
 20
7253231.113
 30
0.0
  0
VERTEX
  8
-21
  6
DASHDOT
 62
     7
  5
4EA
 10
960054.932
 20
7253823.869
 30
0.0
  0
SEQEND
  8
-21
  6
DASHDOT
 62
     7
  5
4EB
  0
LINE
  8
-6
  6
CONTINUOUS
 62
     7
  5
4EC
 10
957648.303
 20
7255780.12
 30
0.0
 11
957507.585
 21
7255760.22
 31
0.0
  0
LINE
  8
-6
  6
CONTINUOUS
 62
     7
  5
4ED
 10
957471.718
 20
7254143.389
 30
0.0
 11
957886.63
 21
7254135.044
 31
0.0
  0
LINE
  8
-6
  6
CONTINUOUS
 62
     7
  5
4EE
 10
957886.63
 20
7254135.044
 30
0.0
 11
957873.876
 21
7253735.248
 31
0.0
  0
LINE
  8
-6
  6
CONTINUOUS
 62
     7
  5
4EF
 10
957873.876
 20
7253735.248
 30
0.0
 11
957458.964
 21
7253743.592
 31
0.0
  0
LINE
  8
-6
  6
CONTINUOUS
 62
     7
  5
4F0
 10
957473.961
 20
7253743.29
 30
0.0
 11
957486.716
 21
7254143.087
 31
0.0
  0
TEXT
  8
-11
  6
CONTINUOUS
 62
     7
  5
4F1
 10
957812.532
 20
7253950.418
 30
0.0
 40
8.0
  1
400'
 50
88.0988
  7
ROMANS
210
0.0
220
0.0
230
1.0
  0
LINE
  8
-21
  6
DASHDOT
 62
     7
  5
4F2
 10
957480.959
 20
7254043.129
 30
0.0
 11
957880.868
 21
7254034.812
 31
0.0
  0
LINE
  8
-21
  6
DASHDOT
 62
     7
  5
4F3
 10
957880.868
 20
7254034.812
 30
0.0
 11
957880.217
 21
7254014.821
 31
0.0
  0
LINE
  8
-21
  6
DASHDOT
 62
     7
  5
4F4
 10
957880.217
 20
7254014.821
 30
0.0
 11
957480.308
 21
7254023.138
 31
0.0
  0
LINE
  8
-21
  6
DASHDOT
 62
     7
  5
4F5
 10
957480.308
 20
7254023.138
 30
0.0
 11
957480.959
 21
7254043.129
 31
0.0
  0
TEXT
  8
-22
  6
CONTINUOUS
 62
     3
  5
4F6
 10
957517.995
 20
7254134.166
 30
0.0
 40
8.0
  1
STORM WATER STORAGE AND DRAINAGE EASEMENT
 50
358.0988
  7
txt
 72
     4
 11
957679.165008
 21
7254132.818264
 31
0.0
210
0.0
220
0.0
230
1.0
  0
POLYLINE
  8
-6
  6
CONTINUOUS
 62
     7
  5
4F7
 66
     1
 10
0.0
 20
0.0
 30
0.0
  0
VERTEX
  8
-6
  6
CONTINUOUS
 62
     7
  5
4F8
 10
958502.92
 20
7254919.304
 30
0.0
  0
VERTEX
  8
-6
  6
CONTINUOUS
 62
     7
  5
4F9
 10
958290.848
 20
7254989.215
 30
0.0
  0
VERTEX
  8
-6
  6
CONTINUOUS
 62
     7
  5
4FA
 10
957754.238
 20
7255086.057
 30
0.0
  0
VERTEX
  8
-6
  6
CONTINUOUS
 62
     7
  5
4FB
 10
957682.777
 20
7255031.346
 30
0.0
  0
VERTEX
  8
-6
  6
CONTINUOUS
 62
     7
  5
4FC
 10
957559.538
 20
7254734.729
 30
0.0
  0
SEQEND
  8
-6
  6
CONTINUOUS
 62
     7
  5
4FD
  0
LINE
  8
-6
  6
CONTINUOUS
 62
     7
  5
4FE
 10
957481.532
 20
7254453.613
 30
0.0
 11
957496.552
 21
7254453.138
 31
0.0
  0
TEXT
  8
-11
  6
CONTINUOUS
 62
     7
  5
4FF
 10
957455.846
 20
7254837.929
 30
0.0
 40
8.0
  1
S20%%d42'W
 50
67.398867
  7
ROMANS
210
0.0
220
0.0
230
1.0
  0
TEXT
  8
-11
  6
CONTINUOUS
 62
     7
  5
500
 10
957469.588
 20
7255161.822
 30
0.0
 40
8.0
  1
N80%%d03'W
 50
348.149042
  7
ROMANS
210
0.0
220
0.0
230
1.0
  0
TEXT
  8
-11
  6
CONTINUOUS
 62
     7
  5
501
 10
957479.935
 20
7255145.737
 30
0.0
 40
8.0
  1
145'
 50
348.149042
  7
ROMANS
210
0.0
220
0.0
230
1.0
  0
TEXT
  8
-11
  6
CONTINUOUS
 62
     7
  5
502
 10
957404.187
 20
7254863.805
 30
0.0
 40
8.0
  1
419' 
 50
67.398792
  7
ROMANS
210
0.0
220
0.0
230
1.0
  0
ARC
  8
-6
  6
CONTINUOUS
 62
     7
  5
503
 10
958255.25622
 20
7254431.271169
 30
0.0
 40
759.02
 50
156.43415
 51
178.349025
210
0.0
220
0.0
230
1.0
  0
LINE
  8
-6
  6
CONTINUOUS
 62
     7
  5
504
 10
957429.427
 20
7255168.067
 30
0.0
 11
957572.864
 21
7255138.071
 31
0.0
  0
LINE
  8
-6
  6
CONTINUOUS
 62
     7
  5
505
 10
957572.864
 20
7255138.071
 30
0.0
 11
957583.292
 21
7255104.661
 31
0.0
  0
LINE
  8
-6
  6
CONTINUOUS
 62
     7
  5
506
 10
957481.532
 20
7254453.613
 30
0.0
 11
957471.718
 21
7254143.389
 31
0.0
  0
LINE
  8
-6
  6
CONTINUOUS
 62
     7
  5
507
 10
957459.072
 20
7253743.589
 30
0.0
 11
957411.027
 21
7251956.062
 31
0.0
  0
TEXT
  8
-11
  6
CONTINUOUS
 62
     7
  5
508
 10
957427.265
 20
7254218.199
 30
0.0
 40
8.0
  1
60'
 50
358.0988
  7
txt
 72
     4
 11
957436.808521
 21
7254221.884412
 31
0.0
210
0.0
220
0.0
230
1.0
  0
TEXT
  8
-11
  6
CONTINUOUS
 62
     7
  5
509
 10
957413.257
 20
7253796.209
 30
0.0
 40
8.0
  1
60'
 50
358.0988
  7
txt
 72
     4
 11
957422.800521
 21
7253799.894412
 31
0.0
210
0.0
220
0.0
230
1.0
  0
LINE
  8
-21
  6
DASHDOT
 62
     7
  5
50A
 10
961651.204
 20
7253327.882
 30
0.0
 11
962607.657
 21
7254216.325
 31
0.0
  0
LINE
  8
-6
  6
CONTINUOUS
 62
     7
  5
50B
 10
958589.482
 20
7255079.093
 30
0.0
 11
960773.385
 21
7254359.295
 31
0.0
  0
TEXT
  8
-13
  6
CONTINUOUS
 62
    14
  5
50C
 10
963069.637
 20
7254297.952
 30
0.0
 40
8.0
  1
V 1048 P487
 50
358.0988
  7
txt
 72
     4
 11
963112.138369
 21
7254300.543396
 31
0.0
210
0.0
220
0.0
230
1.0
  0
POLYLINE
  8
-21
  6
DASHDOT
 62
     7
  5
50D
 66
     1
 10
0.0
 20
0.0
 30
0.0
 70
     1
  0
VERTEX
  8
-21
  6
DASHDOT
 62
     7
  5
50E
 10
962938.346
 20
7254302.141
 30
0.0
  0
VERTEX
  8
-21
  6
DASHDOT
 62
     7
  5
50F
 10
963372.603
 20
7254293.109
 30
0.0
  0
VERTEX
  8
-21
  6
DASHDOT
 62
     7
  5
510
 10
963372.914
 20
7254308.105
 30
0.0
  0
VERTEX
  8
-21
  6
DASHDOT
 62
     7
  5
511
 10
962938.658
 20
7254317.137
 30
0.0
  0
VERTEX
  8
-21
  6
DASHDOT
 62
     7
  5
512
 10
962938.346
 20
7254302.141
 30
0.0
  0
SEQEND
  8
-21
  6
DASHDOT
 62
     7
  5
513
  0
POLYLINE
  8
-21
  6
DASHDOT
 62
     7
  5
514
 66
     1
 10
0.0
 20
0.0
 30
0.0
 70
     1
  0
VERTEX
  8
-21
  6
DASHDOT
 62
     7
  5
515
 10
962707.917
 20
7254303.347
 30
0.0
  0
VERTEX
  8
-21
  6
DASHDOT
 62
     7
  5
516
 10
962708.281
 20
7254320.842
 30
0.0
  0
VERTEX
  8
-21
  6
DASHDOT
 62
     7
  5
517
 10
962723.276
 20
7254320.531
 30
0.0
  0
VERTEX
  8
-21
  6
DASHDOT
 62
     7
  5
518
 10
962723.224
 20
7254318.031
 30
0.0
  0
VERTEX
  8
-21
  6
DASHDOT
 62
     7
  5
519
 10
962912.984
 20
7254314.084
 30
0.0
  0
VERTEX
  8
-21
  6
DASHDOT
 62
     7
  5
51A
 10
962912.672
 20
7254299.088
 30
0.0
  0
VERTEX
  8
-21
  6
DASHDOT
 62
     7
  5
51B
 10
962707.917
 20
7254303.347
 30
0.0
  0
SEQEND
  8
-21
  6
DASHDOT
 62
     7
  5
51C
  0
TEXT
  8
-13
  6
CONTINUOUS
 62
    14
  5
51D
 10
962825.487
 20
7254306.846
 30
0.0
 40
8.0
  1
V1050 P631
 50
358.0988
  7
txt
 72
     4
 11
962861.534923
 21
7254309.651615
 31
0.0
210
0.0
220
0.0
230
1.0
  0
POLYLINE
  8
-21
  6
DASHDOT
 62
     7
  5
51E
 66
     1
 10
0.0
 20
0.0
 30
0.0
 70
     1
  0
VERTEX
  8
-21
  6
DASHDOT
 62
     7
  5
51F
 10
962723.069
 20
7254310.533
 30
0.0
  0
VERTEX
  8
-21
  6
DASHDOT
 62
     7
  5
520
 10
962708.073
 20
7254310.845
 30
0.0
  0
VERTEX
  8
-21
  6
DASHDOT
 62
     7
  5
521
 10
962706.825
 20
7254250.858
 30
0.0
  0
VERTEX
  8
-21
  6
DASHDOT
 62
     7
  5
522
 10
962721.821
 20
7254250.546
 30
0.0
  0
VERTEX
  8
-21
  6
DASHDOT
 62
     7
  5
523
 10
962723.069
 20
7254310.533
 30
0.0
  0
SEQEND
  8
-21
  6
DASHDOT
 62
     7
  5
524
  0
POLYLINE
  8
-21
  6
DASHDOT
 62
     7
  5
525
 66
     1
 10
0.0
 20
0.0
 30
0.0
 70
     1
  0
VERTEX
  8
-21
  6
DASHDOT
 62
     7
  5
526
 10
962715.415
 20
7254303.191
 30
0.0
  0
VERTEX
  8
-21
  6
DASHDOT
 62
     7
  5
527
 10
962715.727
 20
7254318.187
 30
0.0
  0
VERTEX
  8
-21
  6
DASHDOT
 62
     7
  5
528
 10
962655.74
 20
7254319.435
 30
0.0
  0
VERTEX
  8
-21
  6
DASHDOT
 62
     7
  5
529
 10
962655.428
 20
7254304.439
 30
0.0
  0
VERTEX
  8
-21
  6
DASHDOT
 62
     7
  5
52A
 10
962715.415
 20
7254303.191
 30
0.0
  0
SEQEND
  8
-21
  6
DASHDOT
 62
     7
  5
52B
  0
TEXT
  8
-13
  6
CONTINUOUS
 62
    14
  5
52C
 10
962635.829
 20
7254308.218
 30
0.0
 40
8.0
  1
V1052 P43
 50
358.0988
  7
txt
 72
     4
 11
962669.737102
 21
7254311.094645
 31
0.0
210
0.0
220
0.0
230
1.0
  0
TEXT
  8
-13
  6
CONTINUOUS
 62
    14
  5
52D
 10
962717.6
 20
7254222.581
 30
0.0
 40
8.0
  1
V1050 P632
 50
88.0988
  7
txt
 72
     4
 11
962714.841396
 21
7254260.045143
 31
0.0
210
0.0
220
0.0
230
1.0
  0
TEXT
  8
-11
  6
CONTINUOUS
 62
     7
  5
52E
 10
961796.912
 20
7253492.632
 30
0.0
 40
8.0
  1
563.39'
 50
88.0988
  7
ROMANS
210
0.0
220
0.0
230
1.0
  0
TEXT
  8
-11
  6
CONTINUOUS
 62
     7
  5
52F
 10
961785.532
 20
7253506.756
 30
0.0
 40
8.0
  1
600'
 50
88.0988
  7
ROMANS
210
0.0
220
0.0
230
1.0
  0
LINE
  8
-6
  6
CONTINUOUS
 62
     7
  5
530
 10
961414.934
 20
7253375.091
 30
0.0
 11
961426.752
 21
7253974.978
 31
0.0
  0
LINE
  8
-6
  6
CONTINUOUS
 62
     7
  5
531
 10
961426.752
 20
7253974.978
 30
0.0
 11
961859.623
 21
7253832.138
 31
0.0
  0
LINE
  8
-6
  6
CONTINUOUS
 62
     7
  5
532
 10
961859.623
 20
7253832.138
 30
0.0
 11
961847.806
 21
7253232.255
 31
0.0
  0
LINE
  8
-6
  6
CONTINUOUS
 62
     7
  5
533
 10
960074.35
 20
7254421.23
 30
0.0
 11
960226.632
 21
7254370.978
 31
0.0
  0
LINE
  8
-6
  6
CONTINUOUS
 62
     7
  5
534
 10
960226.632
 20
7254370.978
 30
0.0
 11
960214.815
 21
7253771.11
 31
0.0
  0
LINE
  8
-6
  6
CONTINUOUS
 62
     7
  5
535
 10
962686.256
 20
7252955.582
 30
0.0
 11
962698.073
 21
7253555.465
 31
0.0
  0
LINE
  8
-6
  6
CONTINUOUS
 62
     7
  5
536
 10
960054.932
 20
7253823.869
 30
0.0
 11
962686.256
 21
7252955.582
 31
0.0
  0
LINE
  8
-6
  6
CONTINUOUS
 62
     7
  5
537
 10
960054.254
 20
7253803.031
 30
0.0
 11
962679.989
 21
7252936.59
 31
0.0
  0
LINE
  8
-6
  6
CONTINUOUS
 62
     7
  5
538
 10
962698.073
 20
7253555.465
 30
0.0
 11
963766.541
 21
7253201.135
 31
0.0
  0
LINE
  8
-6
  6
CONTINUOUS
 62
     7
  5
539
 10
963629.274
 20
7254303.039
 30
0.0
 11
963611.547
 21
7253421.493
 31
0.0
  0
LINE
  8
-6
  6
CONTINUOUS
 62
     7
  5
53A
 10
963629.274
 20
7254303.039
 30
0.0
 11
963765.297
 21
7254300.303
 31
0.0
  0
LINE
  8
-6
  6
CONTINUOUS
 62
     7
  5
53B
 10
963612.283
 20
7253458.105
 30
0.0
 11
963771.113
 21
7253405.701
 31
0.0
  0
LINE
  8
-6
  6
CONTINUOUS
 62
     7
  5
53C
 10
963331.246
 20
7253514.795
 30
0.0
 11
963611.547
 21
7253421.493
 31
0.0
  0
TEXT
  8
-15
  6
CONTINUOUS
 62
    30
  5
53D
 10
963596.485
 20
7253785.276
 30
0.0
 40
50.0
  1
COVER-ALL
 50
43.0988
  7
ROMANC
 72
     4
 11
963747.850896
 21
7253961.154047
 31
0.0
210
0.0
220
0.0
230
1.0
  0
POLYLINE
  8
-21
  6
DASHDOT
 62
     7
  5
53E
 66
     1
 10
0.0
 20
0.0
 30
0.0
  0
VERTEX
  8
-21
  6
DASHDOT
 62
     7
  5
53F
 10
963632.15
 20
7253451.535
 30
0.0
  0
VERTEX
  8
-21
  6
DASHDOT
 62
     7
  5
540
 10
963612.283
 20
7253458.105
 30
0.0
  0
VERTEX
  8
-21
  6
DASHDOT
 62
     7
  5
541
 10
963629.854
 20
7254303.027
 30
0.0
  0
VERTEX
  8
-21
  6
DASHDOT
 62
     7
  5
542
 10
963649.849
 20
7254302.611
 30
0.0
  0
VERTEX
  8
-21
  6
DASHDOT
 62
     7
  5
543
 10
963632.15
 20
7253451.535
 30
0.0
  0
SEQEND
  8
-21
  6
DASHDOT
 62
     7
  5
544
  0
TEXT
  8
-10
  6
CONTINUOUS
 62
   134
  5
545
 10
963748.42
 20
7253871.546
 30
0.0
 40
13.999
  1
A
 50
358.0988
  7
txt
 72
     4
 11
963754.04926
 21
7253878.362996
 31
0.0
210
0.0
220
0.0
230
1.0
  0
TEXT
  8
-11
  6
CONTINUOUS
 62
     7
  5
546
 10
963660.26
 20
7254054.248
 30
0.0
 40
8.0
  1
845.1'
 50
88.0988
  7
txt
 72
     4
 11
963656.873472
 21
7254072.795562
 31
0.0
210
0.0
220
0.0
230
1.0
  0
TEXT
  8
-11
  6
CONTINUOUS
 62
     7
  5
547
 10
963612.985
 20
7254055.578
 30
0.0
 40
8.0
  1
881.72'
 50
88.0988
  7
txt
 72
     4
 11
963609.725934
 21
7254077.965447
 31
0.0
210
0.0
220
0.0
230
1.0
  0
TEXT
  8
-11
  6
CONTINUOUS
 62
     7
  5
548
 10
963710.854
 20
7254274.153
 30
0.0
 40
8.0
  1
136.05'
 50
358.0988
  7
txt
 72
     4
 11
963732.988586
 21
7254277.420459
 31
0.0
210
0.0
220
0.0
230
1.0
  0
TEXT
  8
-11
  6
CONTINUOUS
 62
     7
  5
549
 10
963746.043
 20
7254306.45
 30
0.0
 40
8.0
  1
200.71'
 50
358.0988
  7
txt
 72
     4
 11
963768.367482
 21
7254309.711156
 31
0.0
210
0.0
220
0.0
230
1.0
  0
TEXT
  8
-22
  6
CONTINUOUS
 62
     3
  5
54A
 10
963636.606
 20
7254047.186
 30
0.0
 40
6.0
  1
20'UUE-HEREIN GRANTED
 50
88.808639
  7
txt
 72
     1
 11
963637.812666
 21
7254105.209454
 31
0.0
210
0.0
220
0.0
230
1.0
  0
TEXT
  8
-11
  6
CONTINUOUS
 62
     7
  5
54B
 10
963648.056
 20
7253417.461
 30
0.0
 40
8.0
  1
36.62'
 50
88.0988
  7
txt
 72
     4
 11
963644.697638
 21
7253436.857095
 31
0.0
210
0.0
220
0.0
230
1.0
  0
TEXT
  8
-11
  6
CONTINUOUS
 62
     7
  5
54C
 10
963719.383
 20
7253435.903
 30
0.0
 40
8.0
  1
210'
 50
341.0988
  7
txt
 72
     4
 11
963732.209555
 21
7253435.739167
 31
0.0
210
0.0
220
0.0
230
1.0
  0
POLYLINE
  8
-21
  6
DASHDOT
 62
     7
  5
54D
 66
     1
 10
0.0
 20
0.0
 30
0.0
  0
VERTEX
  8
-21
  6
DASHDOT
 62
     7
  5
54E
 10
963790.749
 20
7254284.413
 30
0.0
  0
VERTEX
  8
-21
  6
DASHDOT
 62
     7
  5
54F
 10
963372.603
 20
7254293.109
 30
0.0
  0
VERTEX
  8
-21
  6
DASHDOT
 62
     7
  5
550
 10
963372.914
 20
7254308.106
 30
0.0
  0
VERTEX
  8
-21
  6
DASHDOT
 62
     7
  5
551
 10
963791.084
 20
7254299.409
 30
0.0
  0
SEQEND
  8
-21
  6
DASHDOT
 62
     7
  5
552
  0
TEXT
  8
-13
  6
CONTINUOUS
 62
    14
  5
553
 10
963492.635
 20
7254295.966
 30
0.0
 40
8.0
  1
V1048 P483
 50
358.0988
  7
txt
 72
     4
 11
963530.730795
 21
7254298.703637
 31
0.0
210
0.0
220
0.0
230
1.0
  0
TEXT
  8
-22
  6
CONTINUOUS
 62
     3
  5
554
 10
963419.42
 20
7254311.409
 30
0.0
 40
6.0
  1
15'OVERHEAD POWER LINE EASEMENT
 50
358.0988
  7
txt
 72
     4
 11
963507.197237
 21
7254311.496941
 31
0.0
210
0.0
220
0.0
230
1.0
  0
LINE
  8
-6
  6
CONTINUOUS
 62
     7
  5
555
 10
962732.911
 20
7256529.742
 30
0.0
 11
962469.829
 21
7256535.263
 31
0.0
  0
LINE
  8
-6
  6
CONTINUOUS
 62
     7
  5
556
 10
962469.829
 20
7256535.263
 30
0.0
 11
962461.066
 21
7256117.694
 31
0.0
  0
LINE
  8
-6
  6
CONTINUOUS
 62
     7
  5
557
 10
962469.41
 20
7256515.264
 30
0.0
 11
962732.492
 21
7256509.746
 31
0.0
  0
LINE
  8
-6
  6
CONTINUOUS
 62
     7
  5
558
 10
962669.865
 20
7256511.059
 30
0.0
 11
962661.649
 21
7256119.212
 31
0.0
  0
TEXT
  8
-11
  6
CONTINUOUS
 62
     7
  5
559
 10
962539.682
 20
7256539.161
 30
0.0
 40
8.0
  1
262.5'
 50
358.0988
  7
txt
 72
     4
 11
962559.26799
 21
7256542.513058
 31
0.0
210
0.0
220
0.0
230
1.0
  0
TEXT
  8
-11
  6
CONTINUOUS
 62
     7
  5
55A
 10
962526.967
 20
7256505.191
 30
0.0
 40
8.0
  1
200.5'
 50
358.0988
  7
txt
 72
     4
 11
962546.678921
 21
7256508.538878
 31
0.0
210
0.0
220
0.0
230
1.0
  0
TEXT
  8
-11
  6
CONTINUOUS
 62
     7
  5
55B
 10
962514.389
 20
7256126.265
 30
0.0
 40
8.0
  1
200.5'
 50
358.0988
  7
txt
 72
     4
 11
962534.100921
 21
7256129.612878
 31
0.0
210
0.0
220
0.0
230
1.0
  0
TEXT
  8
-11
  6
CONTINUOUS
 62
     7
  5
55C
 10
962671.443
 20
7256502.48
 30
0.0
 40
8.0
  1
62'
 50
358.0988
  7
txt
 72
     4
 11
962681.018504
 21
7256506.16435
 31
0.0
210
0.0
220
0.0
230
1.0
  0
TEXT
  8
-11
  6
CONTINUOUS
 62
     7
  5
55D
 10
962482.158
 20
7256517.087
 30
0.0
 40
8.0
  1
20'
 50
88.0988
  7
txt
 72
     4
 11
962478.478892
 21
7256526.820417
 31
0.0
210
0.0
220
0.0
230
1.0
  0
TEXT
  8
-11
  6
CONTINUOUS
 62
     7
  5
55E
 10
962723.688
 20
7256515.352
 30
0.0
 40
8.0
  1
20'
 50
88.0988
  7
txt
 72
     4
 11
962720.008892
 21
7256525.085417
 31
0.0
210
0.0
220
0.0
230
1.0
  0
TEXT
  8
-11
  6
CONTINUOUS
 62
     7
  5
55F
 10
962452.766
 20
7256289.815
 30
0.0
 40
8.0
  1
394.8'
 50
88.0988
  7
txt
 72
     4
 11
962449.420212
 21
7256309.589886
 31
0.0
210
0.0
220
0.0
230
1.0
  0
TEXT
  8
-11
  6
CONTINUOUS
 62
     7
  5
560
 10
962641.061
 20
7256311.923
 30
0.0
 40
8.0
  1
390.3'
 50
88.0988
  7
txt
 72
     4
 11
962637.70788
 21
7256331.477008
 31
0.0
210
0.0
220
0.0
230
1.0
  0
TEXT
  8
-10
  6
CONTINUOUS
 62
   134
  5
561
 10
960967.363
 20
7256567.197
 30
0.0
 40
13.999
  1
1
 50
358.0988
  7
ROMANS
 11
960967.827432
 21
7256581.188294
 31
0.0
210
0.0
220
0.0
230
1.0
 73
     3
  0
LINE
  8
-6
  6
CONTINUOUS
 62
     7
  5
562
 10
962740.869
 20
7256909.263
 30
0.0
 11
962732.911
 21
7256529.742
 31
0.0
  0
LINE
  8
-6
  6
CONTINUOUS
 62
     7
  5
563
 10
962732.492
 20
7256509.746
 30
0.0
 11
962724.654
 21
7256135.907
 31
0.0
  0
LINE
  8
-21
  6
DASHDOT
 62
     7
  5
564
 10
960076.171
 20
7254393.386
 30
0.0
 11
962698.928
 21
7253523.593
 31
0.0
  0
LINE
  8
-21
  6
DASHDOT
 62
     7
  5
565
 10
960982.503
 20
7254339.33
 30
0.0
 11
960918.047
 21
7254360.648
 31
0.0
  0
LINE
  8
-21
  6
DASHDOT
 62
     7
  5
566
 10
960892.162
 20
7254356.956
 30
0.0
 11
962513.163
 21
7254323.912
 31
0.0
  0
LINE
  8
-21
  6
DASHDOT
 62
     7
  5
567
 10
962513.374
 20
7254324.551
 30
0.0
 11
962512.966
 21
7254304.556
 31
0.0
  0
LINE
  8
-21
  6
DASHDOT
 62
     7
  5
568
 10
962538.64
 20
7254307.609
 30
0.0
 11
960982.503
 21
7254339.33
 31
0.0
  0
TEXT
  8
-22
  6
CONTINUOUS
 62
     3
  5
569
 10
961339.66
 20
7254317.753
 30
0.0
 40
8.0
  1
20' ELECTRIC UTILITY EASEMENT
 50
358.786103
  7
ROMANS
210
0.0
220
0.0
230
1.0
  0
TEXT
  8
-22
  6
CONTINUOUS
 62
     3
  5
56A
 10
962704.935
 20
7254250.054
 30
0.0
 40
8.0
  1
GWE
 50
88.0988
  7
txt
 72
     4
 11
962701.329045
 21
7254261.991203
 31
0.0
210
0.0
220
0.0
230
1.0
  0
TEXT
  8
-22
  6
CONTINUOUS
 62
     3
  5
56B
 10
962655.964
 20
7254294.733
 30
0.0
 40
8.0
  1
GWE
 50
358.0988
  7
txt
 72
     4
 11
962667.901203
 21
7254298.338955
 31
0.0
210
0.0
220
0.0
230
1.0
  0
TEXT
  8
-13
  6
CONTINUOUS
 62
    14
  5
56C
 10
962545.305
 20
7253780.448
 30
0.0
 40
8.0
  1
V1337 P969
 50
341.698925
  7
txt
 72
     1
 11
962580.558848
 21
7253768.788171
 31
0.0
210
0.0
220
0.0
230
1.0
  0
TEXT
  8
-13
  6
CONTINUOUS
 62
    14
  5
56D
 10
962715.067
 20
7253726.609
 30
0.0
 40
8.0
  1
V1337 P971
 50
88.0988
  7
txt
 72
     4
 11
962712.267656
 21
7253762.845819
 31
0.0
210
0.0
220
0.0
230
1.0
  0
LINE
  8
-21
  6
DASHDOT
 62
     7
  5
56E
 10
958058.416
 20
7255612.359
 30
0.0
 11
957861.564
 21
7255532.23
 31
0.0
  0
TEXT
  8
-22
  6
CONTINUOUS
 62
     3
  5
56F
 10
957899.884
 20
7255369.445
 30
0.0
 40
8.0
  1
GWE
 50
84.0988
  7
txt
 72
     4
 11
957897.119526
 21
7255381.604663
 31
0.0
210
0.0
220
0.0
230
1.0
  0
TEXT
  8
-22
  6
CONTINUOUS
 62
     3
  5
570
 10
957907.681
 20
7255443.564
 30
0.0
 40
8.0
  1
GWE CLOSED BY ORDINANCE
 50
84.0988
  7
txt
 72
     4
 11
957912.982543
 21
7255533.760914
 31
0.0
210
0.0
220
0.0
230
1.0
  0
POLYLINE
  8
-21
  6
DASHDOT
 62
     7
  5
571
 66
     1
 10
0.0
 20
0.0
 30
0.0
 70
     1
  0
VERTEX
  8
-21
  6
DASHDOT
 62
     7
  5
572
 10
962700.644
 20
7253722.208
 30
0.0
  0
VERTEX
  8
-21
  6
DASHDOT
 62
     7
  5
573
 10
962701.39
 20
7253758.8
 30
0.0
  0
VERTEX
  8
-21
  6
DASHDOT
 62
     7
  5
574
 10
962718.28
 20
7253753.214
 30
0.0
  0
VERTEX
  8
-21
  6
DASHDOT
 62
     7
  5
575
 10
962717.534
 20
7253716.622
 30
0.0
  0
VERTEX
  8
-21
  6
DASHDOT
 62
     7
  5
576
 10
962700.644
 20
7253722.208
 30
0.0
  0
SEQEND
  8
-21
  6
DASHDOT
 62
     7
  5
577
  0
TEXT
  8
-22
  6
CONTINUOUS
 62
     3
  5
578
 10
957411.652
 20
7256240.011
 30
0.0
 40
6.0
  1
30'
 50
88.099389
  7
txt
 72
     1
 11
957411.890927
 21
7256247.211037
 31
0.0
210
0.0
220
0.0
230
1.0
  0
TEXT
  8
-22
  6
CONTINUOUS
 62
     3
  5
579
 10
957830.799
 20
7256255.052
 30
0.0
 40
6.0
  1
850.00'
 50
358.772964
  7
txt
 72
     1
 11
957848.462949
 21
7256254.673654
 31
0.0
210
0.0
220
0.0
230
1.0
  0
TEXT
  8
-22
  6
CONTINUOUS
 62
     3
  5
57A
 10
958270.635
 20
7256223.05
 30
0.0
 40
6.0
  1
30'
 50
88.099389
  7
txt
 72
     1
 11
958270.873927
 21
7256230.250037
 31
0.0
210
0.0
220
0.0
230
1.0
  0
TEXT
  8
-22
  6
CONTINUOUS
 62
     3
  5
57B
 10
957830.211
 20
7256216.46
 30
0.0
 40
6.0
  1
850.00'
 50
358.772964
  7
txt
 72
     1
 11
957847.874949
 21
7256216.081654
 31
0.0
210
0.0
220
0.0
230
1.0
  0
TEXT
  8
-13
  6
CONTINUOUS
 62
    14
  5
57C
 10
957859.094
 20
7256235.684
 30
0.0
 40
8.0
  1
V2976 P118
 50
358.772964
  7
txt
 72
     1
 11
957894.768818
 21
7256234.919878
 31
0.0
210
0.0
220
0.0
230
1.0
  0
POLYLINE
  8
-6
  6
CONTINUOUS
 62
     7
  5
57D
 66
     1
 10
0.0
 20
0.0
 30
0.0
  0
VERTEX
  8
-6
  6
CONTINUOUS
 62
     7
  5
57E
 10
962506.038
 20
7253974.106
 30
0.0
  0
VERTEX
  8
-6
  6
CONTINUOUS
 62
     7
  5
57F
 10
962705.74
 20
7253970.172
 30
0.0
  0
VERTEX
  8
-6
  6
CONTINUOUS
 62
     7
  5
580
 10
962700.87
 20
7253722.822
 30
0.0
  0
SEQEND
  8
-6
  6
CONTINUOUS
 62
     7
  5
581
  0
TEXT
  8
-11
  6
CONTINUOUS
 62
     7
  5
582
 10
962581.277
 20
7253961.453
 30
0.0
 40
8.0
  1
199.74'
 50
358.0988
  7
txt
 72
     4
 11
962603.474552
 21
7253964.718369
 31
0.0
210
0.0
220
0.0
230
1.0
  0
TEXT
  8
-11
  6
CONTINUOUS
 62
     7
  5
583
 10
962513.775
 20
7253877.239
 30
0.0
 40
8.0
  1
149.28'
 50
88.0988
  7
txt
 72
     4
 11
962510.514906
 21
7253899.595464
 31
0.0
210
0.0
220
0.0
230
1.0
  0
TEXT
  8
-11
  6
CONTINUOUS
 62
     7
  5
584
 10
962712.146
 20
7253835.535
 30
0.0
 40
8.0
  1
247.41'
 50
88.0988
  7
txt
 72
     4
 11
962708.899475
 21
7253858.300239
 31
0.0
210
0.0
220
0.0
230
1.0
  0
TEXT
  8
-11
  6
CONTINUOUS
 62
     7
  5
585
 10
962701.268
 20
7253836.066
 30
0.0
 40
8.0
  1
210'79'
 50
88.0988
  7
txt
 72
     4
 11
962697.989062
 21
7253857.854777
 31
0.0
210
0.0
220
0.0
230
1.0
  0
TEXT
  8
-11
  6
CONTINUOUS
 62
     7
  5
586
 10
962707.211
 20
7253958.887
 30
0.0
 40
8.0
  1
17'
 50
358.0988
  7
txt
 72
     4
 11
962715.591162
 21
7253962.611029
 31
0.0
210
0.0
220
0.0
230
1.0
  0
TEXT
  8
-11
  6
CONTINUOUS
 62
     7
  5
587
 10
962585.627
 20
7253800.334
 30
0.0
 40
8.0
  1
209'
 50
341.0988
  7
txt
 72
     4
 11
962599.615339
 21
7253799.772372
 31
0.0
210
0.0
220
0.0
230
1.0
  0
LINE
  8
-21
  6
DASHDOT
 62
     7
  5
588
 10
962683.508
 20
7253764.73
 30
0.0
 11
962687.689
 21
7253969.934
 31
0.0
  0
LINE
  8
-21
  6
DASHDOT
 62
     7
  5
589
 10
962687.689
 20
7253969.934
 30
0.0
 11
962700.687
 21
7253969.669
 31
0.0
  0
LINE
  8
-21
  6
DASHDOT
 62
     7
  5
58A
 10
962700.687
 20
7253969.669
 30
0.0
 11
962696.424
 21
7253760.462
 31
0.0
  0
LINE
  8
-21
  6
DASHDOT
 62
     7
  5
58B
 10
962696.424
 20
7253760.462
 30
0.0
 11
962683.508
 21
7253764.73
 31
0.0
  0
LINE
  8
-21
  6
DASHDOT
 62
     7
  5
58C
 10
962696.424
 20
7253760.462
 30
0.0
 11
962700.687
 21
7253969.669
 31
0.0
  0
LINE
  8
-21
  6
DASHDOT
 62
     7
  5
58D
 10
962700.687
 20
7253969.669
 30
0.0
 11
962705.686
 21
7253969.567
 31
0.0
  0
LINE
  8
-21
  6
DASHDOT
 62
     7
  5
58E
 10
962705.686
 20
7253969.567
 30
0.0
 11
962701.392
 21
7253758.82
 31
0.0
  0
LINE
  8
-21
  6
DASHDOT
 62
     7
  5
58F
 10
962701.392
 20
7253758.82
 30
0.0
 11
962696.424
 21
7253760.462
 31
0.0
  0
TEXT
  8
-22
  6
CONTINUOUS
 62
     3
  5
590
 10
962681.33
 20
7253770.326
 30
0.0
 40
8.0
  1
18'PRIVATE ACCESS EASEMENT
 50
88.0988
  7
txt
 72
     4
 11
962680.547232
 21
7253867.313359
 31
0.0
210
0.0
220
0.0
230
1.0
  0
TEXT
  8
-22
  6
CONTINUOUS
 62
     3
  5
591
 10
962699.299
 20
7253764.589
 30
0.0
 40
8.0
  1
5'UUE
 50
88.0988
  7
txt
 72
     4
 11
962695.8362
 21
7253780.838827
 31
0.0
210
0.0
220
0.0
230
1.0
  0
TEXT
  8
-13
  6
CONTINUOUS
 62
    14
  5
592
 10
962696.398
 20
7253883.866
 30
0.0
 40
8.0
  1
V2440 P88
 50
88.0988
  7
txt
 72
     4
 11
962693.573641
 21
7253919.349234
 31
0.0
210
0.0
220
0.0
230
1.0
  0
TEXT
  8
-10
  6
CONTINUOUS
 62
   134
  5
593
 10
962596.079
 20
7253881.276
 30
0.0
 40
13.999
  1
1
 50
358.0988
  7
txt
 72
     4
 11
962598.51402
 21
7253888.199027
 31
0.0
210
0.0
220
0.0
230
1.0
  0
TEXT
  8
-15
  6
CONTINUOUS
 62
    30
  5
594
 10
962348.426
 20
7253673.933
 30
0.0
 40
50.0
  1
D AND D
 50
43.0988
  7
ROMANC
 72
     4
 11
962472.770981
 21
7253824.526383
 31
0.0
210
0.0
220
0.0
230
1.0
  0
TEXT
  8
-15
  6
CONTINUOUS
 62
    30
  5
595
 10
962290.673
 20
7253467.152
 30
0.0
 40
50.0
  1
INVESTMENTS
 50
43.0988
  7
ROMANC
 72
     4
 11
962484.15256
 21
7253682.437663
 31
0.0
210
0.0
220
0.0
230
1.0
  0
POLYLINE
  8
-21
  6
DASHDOT
 62
     7
  5
596
 66
     1
 10
0.0
 20
0.0
 30
0.0
 70
     1
  0
VERTEX
  8
-21
  6
DASHDOT
 62
     7
  5
597
 10
957903.947
 20
7255559.155
 30
0.0
  0
VERTEX
  8
-21
  6
DASHDOT
 62
     7
  5
598
 10
957909.19
 20
7255561.289
 30
0.0
  0
VERTEX
  8
-21
  6
DASHDOT
 62
     7
  5
599
 10
957889.62
 20
7255360.541
 30
0.0
  0
VERTEX
  8
-21
  6
DASHDOT
 62
     7
  5
59A
 10
957884.881
 20
7255363.582
 30
0.0
  0
VERTEX
  8
-21
  6
DASHDOT
 62
     7
  5
59B
 10
957903.947
 20
7255559.155
 30
0.0
  0
SEQEND
  8
-21
  6
DASHDOT
 62
     7
  5
59C
  0
POLYLINE
  8
-25
  6
CONTINUOUS
 62
   212
  5
59E
 66
     1
 10
0.0
 20
0.0
 30
0.0
 70
     1
  0
VERTEX
  8
-25
  6
CONTINUOUS
 62
   212
  5
59F
 10
957903.949
 20
7255559.168
 30
0.0
  0
VERTEX
  8
-25
  6
CONTINUOUS
 62
   212
  5
5A0
 10
957909.19
 20
7255561.289
 30
0.0
  0
VERTEX
  8
-25
  6
CONTINUOUS
 62
   212
  5
5A1
 10
957896.969
 20
7255435.924
 30
0.0
  0
VERTEX
  8
-25
  6
CONTINUOUS
 62
   212
  5
5A2
 10
957891.982
 20
7255436.41
 30
0.0
  0
VERTEX
  8
-25
  6
CONTINUOUS
 62
   212
  5
5A3
 10
957903.949
 20
7255559.168
 30
0.0
  0
SEQEND
  8
-25
  6
CONTINUOUS
 62
   212
  5
5A4
  0
TEXT
  8
-13
  6
CONTINUOUS
 62
    14
  5
5A5
 10
957882.446
 20
7255373.852
 30
0.0
 40
8.0
  1
V1289 P597
 50
84.0988
  7
txt
 72
     4
 11
957882.281573
 21
7255411.166648
 31
0.0
210
0.0
220
0.0
230
1.0
  0
TEXT
  8
-13
  6
CONTINUOUS
 62
    14
  5
5A6
 10
957892.296
 20
7255473.212
 30
0.0
 40
8.0
  1
V3480 P200
 50
84.0988
  7
txt
 72
     4
 11
957892.338948
 21
7255512.532959
 31
0.0
210
0.0
220
0.0
230
1.0
  0
TEXT
  8
-19
  6
CONTINUOUS
 62
     1
  5
5A7
 10
957410.532
 20
7252985.759
 30
0.0
 40
24.0
  1
MARTIN LUTHER KING JR.  BLVD
 50
88.0988
  7
ROMANC
 72
     4
 11
957410.055029
 21
7253333.096026
 31
0.0
210
0.0
220
0.0
230
1.0
  0
TEXT
  8
-11
  6
CONTINUOUS
 62
     7
  5
5A8
 10
959968.528
 20
7254422.686
 30
0.0
 40
8.0
  1
75.28'
 50
340.434925
  7
ROMANS
 72
     4
 11
959989.969721
 21
7254419.310775
 31
0.0
210
0.0
220
0.0
230
1.0
  0
TEXT
  8
-10
  6
CONTINUOUS
 62
   134
  5
5A9
 10
959980.229
 20
7254391.37
 30
0.0
 40
13.999
  1
A
 50
357.434925
  7
txt
 72
     4
 11
959985.936868
 21
7254398.121314
 31
0.0
210
0.0
220
0.0
230
1.0
  0
LINE
  8
-7
  6
CONTINUOUS
 62
     7
  5
5AA
 10
959774.871
 20
7254524.501
 30
0.0
 11
959770.681
 21
7254394.555
 31
0.0
  0
LINE
  8
-7
  6
CONTINUOUS
 62
     7
  5
5AB
 10
959953.037
 20
7254387.152
 30
0.0
 11
959954.315
 21
7254425.652
 31
0.0
  0
TEXT
  8
-11
  6
CONTINUOUS
 62
     7
  5
5AC
 10
959680.194
 20
7254397.771
 30
0.0
 40
8.0
  1
150.58'
 50
358.098703
  7
txt
 72
     1
 11
959702.385776
 21
7254397.03432
 31
0.0
210
0.0
220
0.0
230
1.0
  0
TEXT
  8
-11
  6
CONTINUOUS
 62
     7
  5
5AD
 10
959792.232
 20
7254394.152
 30
0.0
 40
8.0
  1
178.13'
 50
358.098703
  7
txt
 72
     1
 11
959813.070521
 21
7254393.460243
 31
0.0
210
0.0
220
0.0
230
1.0
  0
TEXT
  8
-10
  6
CONTINUOUS
 62
   134
  5
5AE
 10
959617.26
 20
7254448.768
 30
0.0
 40
13.999
  1
 7A
 50
358.098703
  7
txt
 72
     1
 11
959636.70329
 21
7254448.122559
 31
0.0
210
0.0
220
0.0
230
1.0
  0
TEXT
  8
-10
  6
CONTINUOUS
 62
   134
  5
5AF
 10
959788.258
 20
7254425.639
 30
0.0
 40
13.999
  1
7B
 50
358.098703
  7
txt
 72
     1
 11
959799.989538
 21
7254425.249559
 31
0.0
210
0.0
220
0.0
230
1.0
  0
TEXT
  8
-13
  6
CONTINUOUS
 62
    14
  5
5B0
 10
959801.7
 20
7254473.511
 30
0.0
 40
6.0
  1
V2938 P252
 50
340.988125
  7
txt
 72
     1
 11
959829.258953
 21
7254464.015302
 31
0.0
210
0.0
220
0.0
230
1.0
  0
TEXT
  8
-22
  6
CONTINUOUS
 62
     3
  5
5B1
 10
959634.58
 20
7254513.068
 30
0.0
 40
6.0
  1
45' BUILDING SETBACK 
 50
340.988133
  7
txt
 72
     1
 11
959687.836316
 21
7254494.718041
 31
0.0
210
0.0
220
0.0
230
1.0
  0
TEXT
  8
-13
  6
CONTINUOUS
 62
    14
  5
5B2
 10
959752.429
 20
7254470.528
 30
0.0
 40
6.0
  1
V2938 P252
 50
340.988125
  7
txt
 72
     1
 11
959779.987953
 21
7254461.032302
 31
0.0
210
0.0
220
0.0
230
1.0
  0
TEXT
  8
-22
  6
CONTINUOUS
 62
     3
  5
5B3
 10
959639.384
 20
7254434.144
 30
0.0
 40
6.0
  1
5' UUE-SPS
 50
88.153269
  7
txt
 72
     1
 11
959640.182495
 21
7254458.909131
 31
0.0
210
0.0
220
0.0
230
1.0
  0
TEXT
  8
-22
  6
CONTINUOUS
 62
     3
  5
5B4
 10
959784.429
 20
7254397.957
 30
0.0
 40
6.0
  1
5' UUE-SPS
 50
88.153269
  7
txt
 72
     1
 11
959785.227495
 21
7254422.722131
 31
0.0
210
0.0
220
0.0
230
1.0
  0
POLYLINE
  8
-21
  6
DASHDOT
 62
     7
  5
5B5
 66
     1
 10
0.0
 20
0.0
 30
0.0
 70
     1
  0
VERTEX
  8
-21
  6
DASHDOT
 62
     7
  5
5B6
 10
959630.172
 20
7254574.348
 30
0.0
  0
VERTEX
  8
-21
  6
DASHDOT
 62
     7
  5
5B7
 10
959624.487
 20
7254398.058
 30
0.0
  0
VERTEX
  8
-21
  6
DASHDOT
 62
     7
  5
5B8
 10
959629.485
 20
7254397.892
 30
0.0
  0
VERTEX
  8
-21
  6
DASHDOT
 62
     7
  5
5B9
 10
959635.12
 20
7254572.643
 30
0.0
  0
SEQEND
  8
-21
  6
DASHDOT
 62
     7
  5
5BA
  0
POLYLINE
  8
-21
  6
DASHDOT
 62
     7
  5
5BB
 66
     1
 10
0.0
 20
0.0
 30
0.0
 70
     1
  0
VERTEX
  8
-21
  6
DASHDOT
 62
     7
  5
5BC
 10
959779.818
 20
7254522.795
 30
0.0
  0
VERTEX
  8
-21
  6
DASHDOT
 62
     7
  5
5BD
 10
959774.871
 20
7254524.501
 30
0.0
  0
VERTEX
  8
-21
  6
DASHDOT
 62
     7
  5
5BE
 10
959770.681
 20
7254394.555
 30
0.0
  0
VERTEX
  8
-21
  6
DASHDOT
 62
     7
  5
5BF
 10
959775.678
 20
7254394.389
 30
0.0
  0
SEQEND
  8
-21
  6
DASHDOT
 62
     7
  5
5C0
  0
TEXT
  8
-11
  6
CONTINUOUS
 62
     7
  5
5C1
 10
959802.571
 20
7254488.254
 30
0.0
 40
8.0
  1
186.52'
 50
340.988178
  7
txt
 72
     1
 11
959826.020527
 21
7254488.635835
 31
0.0
210
0.0
220
0.0
230
1.0
 73
     3
  0
TEXT
  8
-11
  6
CONTINUOUS
 62
     7
  5
5C2
 10
959640.823
 20
7254543.987
 30
0.0
 40
8.0
  1
157.6'
 50
340.988178
  7
txt
 72
     1
 11
959660.520976
 21
7254545.661463
 31
0.0
210
0.0
220
0.0
230
1.0
 73
     3
  0
TEXT
  8
-11
  6
CONTINUOUS
 62
     7
  5
5C3
 10
959769.28
 20
7254411.218
 30
0.0
 40
8.0
  1
130.02'
 50
88.153408
  7
txt
 72
     1
 11
959761.998615
 21
7254433.636274
 31
0.0
210
0.0
220
0.0
230
1.0
 73
     3
  0
LINE
  8
-21
  6
DASHDOT
 62
     7
  5
5C4
 10
959953.938
 20
7254398.814
 30
0.0
 11
959628.649
 21
7254510.895
 31
0.0
  0
LINE
  8
-6
  6
CONTINUOUS
 62
     7
  5
5C5
 10
959955.505
 20
7254462.252
 30
0.0
 11
959630.095
 21
7254574.125
 31
0.0
  0
TEXT
  8
-11
  6
CONTINUOUS
 62
     7
  5
5C6
 10
959950.303
 20
7254392.51
 30
0.0
 40
8.0
  1
75.14'
 50
87.434925
  7
txt
 72
     4
 11
959947.132989
 21
7254411.126524
 31
0.0
210
0.0
220
0.0
230
1.0
  0
LINE
  8
-7
  6
CONTINUOUS
 62
     7
  5
5C7
 10
959624.487
 20
7254398.058
 30
0.0
 11
959628.992
 21
7254537.736
 31
0.0
  0
POLYLINE
  8
-21
  6
DASHDOT
 62
     7
  5
5C8
 66
     1
 10
0.0
 20
0.0
 30
0.0
 70
     1
  0
VERTEX
  8
-21
  6
DASHDOT
 62
     7
  5
5C9
 10
959630.172
 20
7254574.348
 30
0.0
  0
VERTEX
  8
-21
  6
DASHDOT
 62
     7
  5
5CA
 10
959628.992
 20
7254537.735
 30
0.0
  0
VERTEX
  8
-21
  6
DASHDOT
 62
     7
  5
5CB
 10
959954.29
 20
7254425.65
 30
0.0
  0
VERTEX
  8
-21
  6
DASHDOT
 62
     7
  5
5CC
 10
959955.505
 20
7254462.252
 30
0.0
  0
SEQEND
  8
-21
  6
DASHDOT
 62
     7
  5
5CD
  0
LINE
  8
-6
  6
CONTINUOUS
 62
     7
  5
5CE
 10
959628.94
 20
7254537.512
 30
0.0
 11
959630.095
 21
7254574.125
 31
0.0
  0
LINE
  8
-6
  6
CONTINUOUS
 62
     7
  5
5CF
 10
959954.315
 20
7254425.652
 30
0.0
 11
959955.505
 21
7254462.252
 31
0.0
  0
LINE
  8
-6
  6
CONTINUOUS
 62
     7
  5
5D0
 10
960025.877
 20
7254401.05
 30
0.0
 11
959954.315
 21
7254425.652
 31
0.0
  0
LINE
  8
-6
  6
CONTINUOUS
 62
     7
  5
5D1
 10
959628.94
 20
7254537.512
 30
0.0
 11
958559.431
 21
7254905.197
 31
0.0
  0
TEXT
  8
-22
  6
CONTINUOUS
 62
     3
  5
5D2
 10
959680.18
 20
7254526.471
 30
0.0
 40
6.0
  1
35' R-O-W RESERVATION
 50
340.988125
  7
txt
 72
     1
 11
959734.804382
 21
7254507.649653
 31
0.0
210
0.0
220
0.0
230
1.0
  0
LINE
  8
-6
  6
CONTINUOUS
 62
     7
  5
5D3
 10
963680.706
 20
7256311.248
 30
0.0
 11
963693.87
 21
7256944.169
 31
0.0
  0
POLYLINE
  8
-6
  6
CONTINUOUS
 62
     7
  5
5D4
 66
     1
 10
0.0
 20
0.0
 30
0.0
  0
VERTEX
  8
-6
  6
CONTINUOUS
 62
     7
  5
5D5
 10
958753.162
 20
7254406.149
 30
0.0
  0
VERTEX
  8
-6
  6
CONTINUOUS
 62
     7
  5
5D6
 10
958710.599
 20
7253096.84
 30
0.0
  0
VERTEX
  8
-6
  6
CONTINUOUS
 62
     7
  5
5D7
 10
960029.903
 20
7253053.952
 30
0.0
  0
VERTEX
  8
-6
  6
CONTINUOUS
 62
     7
  5
5D8
 10
960054.254
 20
7253803.031
 30
0.0
  0
SEQEND
  8
-6
  6
CONTINUOUS
 62
     7
  5
5D9
  0
LINE
  8
-6
  6
CONTINUOUS
 62
     7
  5
5DA
 10
960054.932
 20
7253823.869
 30
0.0
 11
960074.35
 21
7254421.23
 31
0.0
  0
ARC
  8
-0
  6
CONTINUOUS
 62
     2
  5
5DC
 10
958764.785439
 20
7253147.612731
 30
0.0
 40
15.0
 50
178.1381
 51
268.138133
210
0.0
220
0.0
230
1.0
  0
TEXT
  8
-19
  6
CONTINUOUS
 62
     1
  5
5DD
 10
959091.664
 20
7253090.575
 30
0.0
 40
24.0
  1
E 78TH ST
 50
358.0988
  7
ROMANC
 72
     4
 11
959205.568596
 21
7253098.800617
 31
0.0
210
0.0
220
0.0
230
1.0
  0
LINE
  8
-6
  6
CONTINUOUS
 62
     7
  5
5DE
 10
963973.194
 20
7256982.331
 30
0.0
 11
957551.422
 21
7257089.333
 31
0.0
  0
LINE
  8
-6
  6
CONTINUOUS
 62
     7
  5
5DF
 10
962816.287
 20
7256958.84
 30
0.0
 11
963835.285
 21
7256941.805
 31
0.0
  0
LINE
  8
-6
  6
CONTINUOUS
 62
     7
  5
5E0
 10
957566.28
 20
7257045.363
 30
0.0
 11
960186.663
 21
7256994.918
 31
0.0
  0
ARC
  8
-6
  6
CONTINUOUS
 62
     7
  5
5E1
 10
957509.435143
 20
7251944.245553
 30
0.0
 40
99.115039
 50
173.152939
 51
258.285317
210
0.0
220
0.0
230
1.0
  0
LINE
  8
-6
  6
CONTINUOUS
 62
     7
  5
5E2
 10
957583.292
 20
7255104.661
 30
0.0
 11
957448.722
 21
7254780.771
 31
0.0
  0
ARC
  8
-6
  6
CONTINUOUS
 62
     7
  5
5E3
 10
958255.25622
 20
7254431.271169
 30
0.0
 40
879.02
 50
156.43415
 51
163.650819
210
0.0
220
0.0
230
1.0
  0
ARC
  8
-6
  6
CONTINUOUS
 62
     7
  5
5E4
 10
957565.991085
 20
7257030.366035
 30
0.0
 40
15.0
 50
88.897131
 51
177.988667
210
0.0
220
0.0
230
1.0
  0
LINE
  8
-6
  6
CONTINUOUS
 62
     7
  5
5E5
 10
957551.0
 20
7257030.892
 30
0.0
 11
957541.089
 21
7256748.67
 31
0.0
  0
ARC
  8
-6
  6
CONTINUOUS
 62
     7
  5
5E6
 10
956987.058665
 20
7256784.091912
 30
0.0
 40
555.16153
 50
334.556519
 51
356.341775
210
0.0
220
0.0
230
1.0
  0
ARC
  8
-6
  6
CONTINUOUS
 62
     7
  5
5E7
 10
957386.465796
 20
7256443.348073
 30
0.0
 40
144.351836
 50
359.294531
 51
45.091506
210
0.0
220
0.0
230
1.0
  0
LINE
  8
-6
  6
CONTINUOUS
 62
     7
  5
5E8
 10
957530.807
 20
7256441.571
 30
0.0
 11
957507.585
 21
7255760.22
 31
0.0
  0
POLYLINE
  8
-25
  6
CONTINUOUS
 62
   212
  5
5E9
 66
     1
 10
0.0
 20
0.0
 30
0.0
 70
     1
  0
VERTEX
  8
-25
  6
CONTINUOUS
 62
   212
  5
5EA
 10
957390.776
 20
7255550.832
 30
0.0
  0
VERTEX
  8
-25
  6
CONTINUOUS
 62
   212
  5
5EB
 10
957890.501
 20
7255534.245
 30
0.0
  0
VERTEX
  8
-25
  6
CONTINUOUS
 62
   212
  5
5EC
 10
957892.99
 20
7255609.203
 30
0.0
  0
VERTEX
  8
-25
  6
CONTINUOUS
 62
   212
  5
5ED
 10
957393.265
 20
7255625.791
 30
0.0
  0
VERTEX
  8
-25
  6
CONTINUOUS
 62
   212
  5
5EE
 10
957390.776
 20
7255550.832
 30
0.0
  0
SEQEND
  8
-25
  6
CONTINUOUS
 62
   212
  5
5EF
  0
POLYLINE
  8
-25
  6
CONTINUOUS
 62
   212
  5
5F0
 66
     1
 10
0.0
 20
0.0
 30
0.0
 70
     1
  0
VERTEX
  8
-25
  6
CONTINUOUS
 62
   212
  5
5F1
 10
958169.47
 20
7254895.657
 30
0.0
  0
VERTEX
  8
-25
  6
CONTINUOUS
 62
   212
  5
5F2
 10
957369.91
 20
7254922.199
 30
0.0
  0
VERTEX
  8
-25
  6
CONTINUOUS
 62
   212
  5
5F3
 10
957367.422
 20
7254847.24
 30
0.0
  0
VERTEX
  8
-25
  6
CONTINUOUS
 62
   212
  5
5F4
 10
958166.981
 20
7254820.698
 30
0.0
  0
VERTEX
  8
-25
  6
CONTINUOUS
 62
   212
  5
5F5
 10
958169.47
 20
7254895.657
 30
0.0
  0
SEQEND
  8
-25
  6
CONTINUOUS
 62
   212
  5
5F6
  0
TEXT
  8
-13
  6
CONTINUOUS
 62
    14
  5
5F7
 10
957703.797
 20
7255554.658
 30
0.0
 40
8.0
  1
V6524 P48
 50
358.098836
  7
txt
 72
     1
 11
957739.4749
 21
7255561.478123
 31
0.0
210
0.0
220
0.0
230
1.0
 73
     3
  0
TEXT
  8
-13
  6
CONTINUOUS
 62
    14
  5
5F8
 10
957709.19
 20
7254868.993
 30
0.0
 40
8.0
  1
V3088 P212
 50
358.098767
  7
txt
 72
     1
 11
957746.775298
 21
7254867.745357
 31
0.0
210
0.0
220
0.0
230
1.0
  0
TEXT
  8
-13
  6
CONTINUOUS
 62
    14
  5
5F9
 10
957703.386
 20
7254857.36
 30
0.0
 40
8.0
  1
V6524 P47
 50
358.098767
  7
txt
 72
     1
 11
957738.830477
 21
7254856.183422
 31
0.0
210
0.0
220
0.0
230
1.0
  0
POLYLINE
  8
-21
  6
DASHDOT
 62
     7
  5
5FA
 66
     1
 10
0.0
 20
0.0
 30
0.0
 70
     1
  0
VERTEX
  8
-21
  6
DASHDOT
 62
     7
  5
5FB
 10
957413.41
 20
7256232.647
 30
0.0
  0
VERTEX
  8
-21
  6
DASHDOT
 62
     7
  5
5FC
 10
957414.404
 20
7256262.63
 30
0.0
  0
VERTEX
  8
-21
  6
DASHDOT
 62
     7
  5
5FD
 10
958264.209
 20
7256244.428
 30
0.0
  0
VERTEX
  8
-21
  6
DASHDOT
 62
     7
  5
5FE
 10
958263.214
 20
7256214.445
 30
0.0
  0
VERTEX
  8
-21
  6
DASHDOT
 62
     7
  5
5FF
 10
957413.41
 20
7256232.647
 30
0.0
  0
SEQEND
  8
-21
  6
DASHDOT
 62
     7
  5
600
  0
POLYLINE
  8
-21
  6
DASHDOT
 62
     7
  5
601
 66
     1
 10
0.0
 20
0.0
 30
0.0
 70
     1
  0
VERTEX
  8
-21
  6
DASHDOT
 62
     7
  5
602
 10
957480.198
 20
7254482.532
 30
0.0
  0
VERTEX
  8
-21
  6
DASHDOT
 62
     7
  5
603
 10
958130.058
 20
7254469.016
 30
0.0
  0
VERTEX
  8
-21
  6
DASHDOT
 62
     7
  5
604
 10
958129.08
 20
7254439.031
 30
0.0
  0
VERTEX
  8
-21
  6
DASHDOT
 62
     7
  5
605
 10
957479.221
 20
7254452.548
 30
0.0
  0
VERTEX
  8
-21
  6
DASHDOT
 62
     7
  5
606
 10
957480.198
 20
7254482.532
 30
0.0
  0
SEQEND
  8
-21
  6
DASHDOT
 62
     7
  5
607
  0
LINE
  8
-7
  6
CONTINUOUS
 62
     7
  5
608
 10
958779.23
 20
7254053.615
 30
0.0
 11
959103.058
 21
7254043.088
 31
0.0
  0
LINE
  8
-7
  6
CONTINUOUS
 62
     7
  5
609
 10
959114.479
 20
7254394.402
 30
0.0
 11
959103.058
 21
7254043.088
 31
0.0
  0
LINE
  8
-7
  6
CONTINUOUS
 62
     7
  5
60A
 10
959252.336
 20
7254389.921
 30
0.0
 11
959237.017
 21
7253918.67
 31
0.0
  0
LINE
  8
-7
  6
CONTINUOUS
 62
     7
  5
60B
 10
958775.331
 20
7253933.678
 30
0.0
 11
959237.017
 21
7253918.67
 31
0.0
  0
POLYLINE
  8
-21
  6
DASHDOT
 62
     7
  5
60C
 66
     1
 10
0.0
 20
0.0
 30
0.0
 70
     1
  0
VERTEX
  8
-21
  6
DASHDOT
 62
     7
  5
60D
 10
958776.568
 20
7253953.648
 30
0.0
  0
VERTEX
  8
-21
  6
DASHDOT
 62
     7
  5
60E
 10
959237.667
 20
7253938.659
 30
0.0
  0
VERTEX
  8
-21
  6
DASHDOT
 62
     7
  5
60F
 10
959237.017
 20
7253918.67
 30
0.0
  0
VERTEX
  8
-21
  6
DASHDOT
 62
     7
  5
610
 10
958775.331
 20
7253933.678
 30
0.0
  0
SEQEND
  8
-21
  6
DASHDOT
 62
     7
  5
611
  0
TEXT
  8
-22
  6
CONTINUOUS
 62
     3
  5
612
 10
958841.908
 20
7253938.848
 30
0.0
 40
6.0
  1
20' POWER LINE ESMT
 50
358.138136
  7
txt
 72
     1
 11
958893.686692
 21
7253943.167994
 31
0.0
210
0.0
220
0.0
230
1.0
 73
     3
  0
TEXT
  8
-11
  6
CONTINUOUS
 62
     7
  5
613
 10
958992.86
 20
7253929.608
 30
0.0
 40
8.0
  1
461.93'
 50
358.138144
  7
txt
 72
     1
 11
959014.894361
 21
7253928.89173
 31
0.0
210
0.0
220
0.0
230
1.0
  0
TEXT
  8
-11
  6
CONTINUOUS
 62
     7
  5
614
 10
958788.816
 20
7253991.063
 30
0.0
 40
8.0
  1
120'
 50
88.098836
  7
txt
 72
     1
 11
958781.224746
 21
7254003.509695
 31
0.0
210
0.0
220
0.0
230
1.0
 73
     3
  0
TEXT
  8
-11
  6
CONTINUOUS
 62
     7
  5
615
 10
958939.15
 20
7254051.418
 30
0.0
 40
8.0
  1
324'
 50
358.138083
  7
txt
 72
     1
 11
958952.9687
 21
7254050.968781
 31
0.0
210
0.0
220
0.0
230
1.0
  0
TEXT
  8
-11
  6
CONTINUOUS
 62
     7
  5
616
 10
959242.301
 20
7254173.571
 30
0.0
 40
8.0
  1
471.5'
 50
88.138136
  7
txt
 72
     1
 11
959242.900634
 21
7254192.017256
 31
0.0
210
0.0
220
0.0
230
1.0
  0
TEXT
  8
-11
  6
CONTINUOUS
 62
     7
  5
617
 10
959105.655
 20
7254215.321
 30
0.0
 40
8.0
  1
351.5'
 50
88.138006
  7
txt
 72
     1
 11
959106.247528
 21
7254233.547371
 31
0.0
210
0.0
220
0.0
230
1.0
  0
TEXT
  8
-11
  6
CONTINUOUS
 62
     7
  5
618
 10
958795.767
 20
7254223.784
 30
0.0
 40
8.0
  1
351.5'
 50
88.138083
  7
txt
 72
     1
 11
958788.363727
 21
7254242.270299
 31
0.0
210
0.0
220
0.0
230
1.0
 73
     3
  0
TEXT
  8
-11
  6
CONTINUOUS
 62
     7
  5
619
 10
958944.916
 20
7254388.908
 30
0.0
 40
8.0
  1
324'
 50
358.138111
  7
txt
 72
     1
 11
958958.994624
 21
7254396.454564
 31
0.0
210
0.0
220
0.0
230
1.0
 73
     3
  0
TEXT
  8
-11
  6
CONTINUOUS
 62
     7
  5
61A
 10
959159.777
 20
7254381.645
 30
0.0
 40
8.0
  1
137.93'
 50
358.098811
  7
txt
 72
     1
 11
959182.108254
 21
7254388.908138
 31
0.0
210
0.0
220
0.0
230
1.0
 73
     3
  0
LINE
  8
-6
  6
CONTINUOUS
 62
     7
  5
61B
 10
959238.852
 20
7253975.12
 30
0.0
 11
959630.168
 21
7253962.399
 31
0.0
  0
POLYLINE
  8
-21
  6
DASHDOT
 62
     7
  5
61C
 66
     1
 10
0.0
 20
0.0
 30
0.0
 70
     1
  0
VERTEX
  8
-21
  6
DASHDOT
 62
     7
  5
61D
 10
959252.336
 20
7254389.921
 30
0.0
  0
VERTEX
  8
-21
  6
DASHDOT
 62
     7
  5
61E
 10
959643.652
 20
7254377.2
 30
0.0
  0
VERTEX
  8
-21
  6
DASHDOT
 62
     7
  5
61F
 10
959642.677
 20
7254347.216
 30
0.0
  0
VERTEX
  8
-21
  6
DASHDOT
 62
     7
  5
620
 10
959251.361
 20
7254359.937
 30
0.0
  0
SEQEND
  8
-21
  6
DASHDOT
 62
     7
  5
621
  0
TEXT
  8
-10
  6
CONTINUOUS
 62
   134
  5
622
 10
959437.92
 20
7254171.23
 30
0.0
 40
13.999
  1
A
 50
358.0988
  7
ROMANS
 11
959438.384432
 21
7254185.221294
 31
0.0
210
0.0
220
0.0
230
1.0
 73
     3
  0
TEXT
  8
-15
  6
CONTINUOUS
 62
    30
  5
623
 10
959320.324
 20
7254102.058
 30
0.0
 40
50.0
  1
KINSEY
 50
43.0988
  7
ROMANC
 72
     4
 11
959414.631706
 21
7254224.544179
 31
0.0
210
0.0
220
0.0
230
1.0
  0
TEXT
  8
-15
  6
CONTINUOUS
 62
    30
  5
624
 10
959340.521
 20
7254018.241
 30
0.0
 40
50.0
  1
ADDITION
 50
43.0988
  7
ROMANC
 72
     4
 11
959465.729049
 21
7254169.641995
 31
0.0
210
0.0
220
0.0
230
1.0
  0
TEXT
  8
-11
  6
CONTINUOUS
 62
     7
  5
625
 10
959438.122
 20
7254372.718
 30
0.0
 40
8.0
  1
391.53'
 50
358.098811
  7
txt
 72
     1
 11
959460.421272
 21
7254379.9822
 31
0.0
210
0.0
220
0.0
230
1.0
 73
     3
  0
TEXT
  8
-11
  6
CONTINUOUS
 62
     7
  5
626
 10
959257.479
 20
7254166.846
 30
0.0
 40
8.0
  1
415.02'
 50
88.138136
  7
txt
 72
     1
 11
959250.210771
 21
7254189.487097
 31
0.0
210
0.0
220
0.0
230
1.0
 73
     3
  0
TEXT
  8
-11
  6
CONTINUOUS
 62
     7
  5
627
 10
959418.984
 20
7253970.499
 30
0.0
 40
8.0
  1
391.53'
 50
358.138069
  7
txt
 72
     1
 11
959441.278289
 21
7253977.778477
 31
0.0
210
0.0
220
0.0
230
1.0
 73
     3
  0
TEXT
  8
-11
  6
CONTINUOUS
 62
     7
  5
628
 10
959634.053
 20
7254166.396
 30
0.0
 40
8.0
  1
415.02'
 50
88.138133
  7
txt
 72
     1
 11
959626.784772
 21
7254189.037098
 31
0.0
210
0.0
220
0.0
230
1.0
 73
     3
  0
TEXT
  8
-22
  6
CONTINUOUS
 62
     3
  5
629
 10
959394.064
 20
7254361.063
 30
0.0
 40
6.0
  1
30' PUBLIC ACCESS ESMT
 50
358.138069
  7
txt
 72
     1
 11
959454.744995
 21
7254365.093536
 31
0.0
210
0.0
220
0.0
230
1.0
 73
     3
  0
ENDSEC
  0
EOF
