  0
SECTION
  2
HEADER
  9
$ACADVER
  1
AC1009
  9
$INSBASE
 10
0.0
 20
0.0
 30
0.0
  9
$EXTMIN
 10
958354.864
 20
7288545.999
 30
0.0
  9
$EXTMAX
 10
969113.389
 20
7294182.982
 30
0.0
  9
$LIMMIN
 10
0.0
 20
0.0
  9
$LIMMAX
 10
12.0
 20
9.0
  9
$ORTHOMODE
 70
     0
  9
$REGENMODE
 70
     1
  9
$FILLMODE
 70
     1
  9
$QTEXTMODE
 70
     0
  9
$MIRRTEXT
 70
     1
  9
$DRAGMODE
 70
     2
  9
$LTSCALE
 40
1.0
  9
$OSMODE
 70
     0
  9
$ATTMODE
 70
     1
  9
$TEXTSIZE
 40
0.2
  9
$TRACEWID
 40
0.05
  9
$TEXTSTYLE
  7
STANDARD
  9
$CLAYER
  8
0
  9
$CELTYPE
  6
CONTINUOUS
  9
$CECOLOR
 62
   256
  9
$DIMSCALE
 40
1.0
  9
$DIMASZ
 40
0.18
  9
$DIMEXO
 40
0.0625
  9
$DIMDLI
 40
0.38
  9
$DIMRND
 40
0.0
  9
$DIMDLE
 40
0.0
  9
$DIMEXE
 40
0.18
  9
$DIMTP
 40
0.0
  9
$DIMTM
 40
0.0
  9
$DIMTXT
 40
0.18
  9
$DIMCEN
 40
0.09
  9
$DIMTSZ
 40
0.0
  9
$DIMTOL
 70
     0
  9
$DIMLIM
 70
     0
  9
$DIMTIH
 70
     1
  9
$DIMTOH
 70
     1
  9
$DIMSE1
 70
     0
  9
$DIMSE2
 70
     0
  9
$DIMTAD
 70
     0
  9
$DIMZIN
 70
     0
  9
$DIMBLK
  1

  9
$DIMASO
 70
     1
  9
$DIMSHO
 70
     1
  9
$DIMPOST
  1

  9
$DIMAPOST
  1

  9
$DIMALT
 70
     0
  9
$DIMALTD
 70
     2
  9
$DIMALTF
 40
25.4
  9
$DIMLFAC
 40
1.0
  9
$DIMTOFL
 70
     0
  9
$DIMTVP
 40
0.0
  9
$DIMTIX
 70
     0
  9
$DIMSOXD
 70
     0
  9
$DIMSAH
 70
     0
  9
$DIMBLK1
  1

  9
$DIMBLK2
  1

  9
$DIMSTYLE
  2
STANDARD
  9
$DIMCLRD
 70
     0
  9
$DIMCLRE
 70
     0
  9
$DIMCLRT
 70
     0
  9
$DIMTFAC
 40
1.0
  9
$DIMGAP
 40
0.09
  9
$LUNITS
 70
     2
  9
$LUPREC
 70
     4
  9
$AXISMODE
 70
     0
  9
$AXISUNIT
 10
0.0
 20
0.0
  9
$SKETCHINC
 40
0.1
  9
$FILLETRAD
 40
0.0
  9
$AUNITS
 70
     0
  9
$AUPREC
 70
     0
  9
$MENU
  1
acad
  9
$ELEVATION
 40
0.0
  9
$PELEVATION
 40
0.0
  9
$THICKNESS
 40
0.0
  9
$LIMCHECK
 70
     0
  9
$BLIPMODE
 70
     1
  9
$CHAMFERA
 40
0.0
  9
$CHAMFERB
 40
0.0
  9
$SKPOLY
 70
     0
  9
$TDCREATE
 40
2453013.900393519
  9
$TDUPDATE
 40
2453013.900393519
  9
$TDINDWG
 40
0.0000000000
  9
$TDUSRTIMER
 40
0.0000000000
  9
$USRTIMER
 70
     1
  9
$ANGBASE
 50
0.0
  9
$ANGDIR
 70
     0
  9
$PDMODE
 70
     0
  9
$PDSIZE
 40
0.0
  9
$PLINEWID
 40
0.0
  9
$COORDS
 70
     0
  9
$SPLFRAME
 70
     0
  9
$SPLINETYPE
 70
     6
  9
$SPLINESEGS
 70
    10
  9
$ATTDIA
 70
     0
  9
$ATTREQ
 70
     1
  9
$HANDLING
 70
     1
  9
$HANDSEED
  5
188
  9
$SURFTAB1
 70
     6
  9
$SURFTAB2
 70
     6
  9
$SURFTYPE
 70
     6
  9
$SURFU
 70
     6
  9
$SURFV
 70
     6
  9
$UCSNAME
  2

  9
$UCSORG
 10
0.0
 20
0.0
 30
0.0
  9
$UCSXDIR
 10
1.0
 20
0.0
 30
0.0
  9
$UCSYDIR
 10
0.0
 20
1.0
 30
0.0
  9
$PUCSNAME
  2

  9
$PUCSORG
 10
0.0
 20
0.0
 30
0.0
  9
$PUCSXDIR
 10
1.0
 20
0.0
 30
0.0
  9
$PUCSYDIR
 10
0.0
 20
1.0
 30
0.0
  9
$USERI1
 70
     0
  9
$USERI2
 70
     0
  9
$USERI3
 70
     0
  9
$USERI4
 70
     0
  9
$USERI5
 70
     0
  9
$USERR1
 40
0.0
  9
$USERR2
 40
0.0
  9
$USERR3
 40
0.0
  9
$USERR4
 40
0.0
  9
$USERR5
 40
0.0
  9
$WORLDVIEW
 70
     1
  9
$SHADEDGE
 70
     3
  9
$SHADEDIF
 70
    70
  9
$TILEMODE
 70
     1
  9
$MAXACTVP
 70
    16
  9
$PINSBASE
 10
0.0
 20
0.0
 30
0.0
  9
$PLIMCHECK
 70
     0
  9
$PEXTMIN
 10
-1.000000E+20
 20
-1.000000E+20
 30
-1.000000E+20
  9
$PEXTMAX
 10
-1.000000E+20
 20
-1.000000E+20
 30
-1.000000E+20
  9
$PLIMMIN
 10
0.0
 20
0.0
  9
$PLIMMAX
 10
12.0
 20
9.0
  9
$UNITMODE
 70
     0
  9
$VISRETAIN
 70
     0
  9
$PLINEGEN
 70
     1
  9
$PSLTSCALE
 70
     0
  9
$TREEDEPTH
 70
  3020
  9
$DWGCODEPAGE
  3
ansi_1252
  0
ENDSEC
  0
SECTION
  2
TABLES
  0
TABLE
  2
VPORT
 70
     1
  0
VPORT
  2
*ACTIVE
 70
     0
 10
0.0
 20
0.0
 11
1.0
 21
1.0
 12
0.0
 22
0.0
 13
0.0
 23
0.0
 14
0.0
 24
0.0
 15
0.0
 25
0.0
 16
0.0
 26
0.0
 36
1.0
 17
961194.163
 27
7291510.308581
 37
0.0
 40
5849.927162
 41
1.537438
 42
50.0
 43
0.004
 44
0.0
 50
0.0
 51
0.0
 71
     0
 72
   100
 73
     1
 74
     0
 75
     0
 76
     0
 77
     0
 78
     0
  0
ENDTAB
  0
TABLE
  2
LTYPE
 70
     7
  0
LTYPE
  2
CONTINUOUS
 70
     0
  3
Solid line
 72
    65
 73
     0
 40
0.0
  0
LTYPE
  2
DOT
 70
    64
  3
. . . . . . . . . . . . . . . . . . . . . . . . . . . . . . . . .
 72
    65
 73
     2
 40
0.25
 49
0.0
 49
-0.25
  0
LTYPE
  2
HIDDEN
 70
    64
  3
__ __ __ __ __ __ __ __ __ __ __ __ __ __ __ __ __ __ __ __ __ 
 72
    65
 73
     2
 40
0.375
 49
0.25
 49
-0.125
  0
LTYPE
  2
DASHED
 70
    64
  3
__ __ __ __ __ __ __ __ __ __ __ __ __ __ __ __ __ __ __ __ __
 72
    65
 73
     2
 40
0.75
 49
0.5
 49
-0.25
  0
LTYPE
  2
DASHDOT
 70
    64
  3
__ . __ . __ . __ . __ . __ . __ . __ . __ . __ . __ . __ . _
 72
    65
 73
     4
 40
1.0
 49
0.5
 49
-0.25
 49
0.0
 49
-0.25
  0
LTYPE
  2
DIVIDE
 70
    64
  3
____ . . ____ . . ____ . . ____ . . ____ . . ____ . . ____ . .
 72
    65
 73
     6
 40
1.25
 49
0.5
 49
-0.25
 49
0.0
 49
-0.25
 49
0.0
 49
-0.25
  0
LTYPE
  2
CENTER
 70
    64
  3
____ _ ____ _ ____ _ ____ _ ____ _ ____ _ ____ _ ____ _ ____ _
 72
    65
 73
     4
 40
2.0
 49
1.25
 49
-0.25
 49
0.25
 49
-0.25
  0
ENDTAB
  0
TABLE
  2
LAYER
 70
    23
  0
LAYER
  2
0
 70
     0
 62
     7
  6
CONTINUOUS
  0
LAYER
  2
CONSTRUCTION_CLASS
 70
     1
 62
     7
  6
CONTINUOUS
  0
LAYER
  2
PATTERN_CLASS
 70
     0
 62
     7
  6
CONTINUOUS
  0
LAYER
  2
6
 70
    64
 62
     7
  6
CONTINUOUS
  0
LAYER
  2
7
 70
    64
 62
     7
  6
CONTINUOUS
  0
LAYER
  2
15
 70
    64
 62
     7
  6
CONTINUOUS
  0
LAYER
  2
11
 70
    64
 62
     7
  6
CONTINUOUS
  0
LAYER
  2
19
 70
    64
 62
     7
  6
CONTINUOUS
  0
LAYER
  2
1
 70
    64
 62
     7
  6
CONTINUOUS
  0
LAYER
  2
10
 70
    64
 62
     7
  6
CONTINUOUS
  0
LAYER
  2
-6
 70
    64
 62
     7
  6
CONTINUOUS
  0
LAYER
  2
-27
 70
    64
 62
     7
  6
CONTINUOUS
  0
LAYER
  2
-7
 70
    64
 62
     7
  6
CONTINUOUS
  0
LAYER
  2
-11
 70
    64
 62
     7
  6
CONTINUOUS
  0
LAYER
  2
-19
 70
    64
 62
     7
  6
CONTINUOUS
  0
LAYER
  2
DEFPOINTS
 70
    64
 62
     7
  6
CONTINUOUS
  0
LAYER
  2
-21
 70
    64
 62
     7
  6
CONTINUOUS
  0
LAYER
  2
-1
 70
    64
 62
     7
  6
CONTINUOUS
  0
LAYER
  2
-13
 70
    64
 62
     7
  6
CONTINUOUS
  0
LAYER
  2
-22
 70
    64
 62
     7
  6
CONTINUOUS
  0
LAYER
  2
-15
 70
    64
 62
     7
  6
CONTINUOUS
  0
LAYER
  2
-28
 70
    64
 62
     7
  6
CONTINUOUS
  0
LAYER
  2
-10
 70
    64
 62
     7
  6
CONTINUOUS
  0
ENDTAB
  0
TABLE
  2
STYLE
 70
     4
  0
STYLE
  2
STANDARD
 70
     0
 40
0.0
 41
1.0
 50
0.0
 71
     0
 42
0.0
  3
txt
  4

  0
STYLE
  2
ROMANC
 70
     0
 40
0.2
 41
1.0
 50
0.0
 71
     0
 42
0.2
  3
ROMANC
  4

  0
STYLE
  2
ROMANS
 70
     0
 40
0.2
 41
1.0
 50
0.0
 71
     0
 42
0.2
  3
ROMANS
  4

  0
STYLE
  2
txt
 70
     0
 40
0.2
 41
1.0
 50
0.0
 71
     0
 42
0.2
  3
TXT
  4

  0
ENDTAB
  0
TABLE
  2
VIEW
 70
     0
  0
ENDTAB
  0
TABLE
  2
UCS
 70
     0
  0
ENDTAB
  0
TABLE
  2
APPID
 70
     1
  0
APPID
  2
ACAD
 70
     0
  0
ENDTAB
  0
TABLE
  2
DIMSTYLE
 70
     2
  0
DIMSTYLE
  2
STANDARD
 70
     0
  3

  4

  5

  6

  7

 40
1.0
 41
0.18
 42
0.0625
 43
0.38
 44
0.18
 45
0.0
 46
0.0
 47
0.0
 48
0.0
140
0.18
141
0.09
142
0.0
143
25.4
144
1.0
145
0.0
146
1.0
147
0.09
 71
     0
 72
     0
 73
     1
 74
     1
 75
     0
 76
     0
 77
     0
 78
     0
170
     0
171
     2
172
     0
173
     0
174
     0
175
     0
176
     0
177
     0
178
     0
  0
DIMSTYLE
  2
MSADIM
 70
     0
  3

  4

  5

  6

  7

 40
1.0
 41
8.0
 42
4.0
 43
0.0
 44
4.0
 45
0.0
 46
0.0
 47
0.0
 48
0.0
140
8.0
141
4.0
142
0.0
143
25.4
144
1.0
145
4.0
146
1.0
147
4.0
 71
     0
 72
     0
 73
     1
 74
     1
 75
     1
 76
     1
 77
     0
 78
     2
170
     0
171
     2
172
     0
173
     0
174
     0
175
     0
176
     0
177
     0
178
     0
  0
ENDTAB
  0
ENDSEC
  0
SECTION
  2
BLOCKS
  0
BLOCK
  8
-11
  6
CONTINUOUS
 62
     7
  5
120
  2
*D0
 70
     1
 10
0.0
 20
0.0
 30
0.0
  3
*N0
  0
TEXT
  8
-11
  6
CONTINUOUS
 62
     7
  5
121
 10
966728.46
 20
7289682.848
 30
0.0
 40
8.0
  1
N66%%d13'49"E
 50
23.76975
  7
ROMANS
 72
     1
 11
966764.130338
 21
7289707.299523
 31
0.0
210
0.0
220
0.0
230
1.0
 73
     3
  0
TEXT
  8
-11
  6
CONTINUOUS
 62
     7
  5
122
 10
966734.061
 20
7289702.798
 30
0.0
 40
8.0
  1
5171.94'
 50
23.76975
  7
ROMANS
 72
     1
 11
966760.905758
 21
7289714.621023
 31
0.0
210
0.0
220
0.0
230
1.0
  0
ENDBLK
  8
-11
  6
CONTINUOUS
 62
     7
  5
123
  0
ENDSEC
  0
SECTION
  2
ENTITIES
  0
LINE
  8
6
  6
CONTINUOUS
 62
     7
  5
29
 10
958530.471
 20
7288772.677
 30
0.0
 11
958526.886
 21
7289045.633
 31
0.0
  0
ARC
  8
6
  6
CONTINUOUS
 62
     7
  5
2A
 10
952951.837176
 20
7294107.285803
 30
0.0
 40
5748.57
 50
354.649028
 51
356.275836
210
0.0
220
0.0
230
1.0
  0
LINE
  8
6
  6
CONTINUOUS
 62
     7
  5
2B
 10
958699.864
 20
7294053.484
 30
0.0
 11
958688.268
 21
7293733.898
 31
0.0
  0
POINT
  8
6
  6
CONTINUOUS
 62
     7
  5
2C
 10
958526.576
 20
7288872.85
 30
0.0
  0
POINT
  8
6
  6
CONTINUOUS
 62
     7
  5
2D
 10
958559.795
 20
7290878.84
 30
0.0
  0
LINE
  8
6
  6
CONTINUOUS
 62
     7
  5
2E
 10
958675.356
 20
7293571.195
 30
0.0
 11
958609.718
 21
7292711.977
 31
0.0
  0
POLYLINE
  8
6
  6
CONTINUOUS
 62
     7
  5
2F
 66
     1
 10
0.0
 20
0.0
 30
0.0
  0
VERTEX
  8
6
  6
CONTINUOUS
 62
     7
  5
30
 10
961132.918
 20
7290857.446
 30
0.0
  0
VERTEX
  8
6
  6
CONTINUOUS
 62
     7
  5
31
 10
959550.004
 20
7290907.343
 30
0.0
  0
VERTEX
  8
6
  6
CONTINUOUS
 62
     7
  5
32
 10
959544.807
 20
7290742.425
 30
0.0
  0
VERTEX
  8
6
  6
CONTINUOUS
 62
     7
  5
33
 10
961127.72
 20
7290692.528
 30
0.0
  0
SEQEND
  8
6
  6
CONTINUOUS
 62
     7
  5
34
  0
LINE
  8
6
  6
CONTINUOUS
 62
     7
  5
35
 10
961100.62
 20
7290848.459
 30
0.0
 11
959549.69
 21
7290897.348
 31
0.0
  0
LINE
  8
6
  6
CONTINUOUS
 62
     7
  5
36
 10
959545.688
 20
7290770.411
 30
0.0
 11
961081.624
 21
7290721.994
 31
0.0
  0
LINE
  8
6
  6
CONTINUOUS
 62
     7
  5
37
 10
961100.62
 20
7290848.459
 30
0.0
 11
961097.09
 21
7290736.515
 31
0.0
  0
ARC
  8
6
  6
CONTINUOUS
 62
     7
  5
38
 10
961082.097992
 20
7290736.987168
 30
0.0
 40
15.0
 50
268.1945
 51
358.1945
210
0.0
220
0.0
230
1.0
  0
LINE
  8
7
  6
CONTINUOUS
 62
     7
  5
3A
 10
959813.558
 20
7290889.03
 30
0.0
 11
959809.558
 21
7290762.093
 31
0.0
  0
LINE
  8
7
  6
CONTINUOUS
 62
     7
  5
3B
 10
960077.428
 20
7290880.712
 30
0.0
 11
960073.425
 21
7290753.776
 31
0.0
  0
LINE
  8
7
  6
CONTINUOUS
 62
     7
  5
3C
 10
960341.296
 20
7290872.394
 30
0.0
 11
960337.296
 21
7290745.457
 31
0.0
  0
LINE
  8
7
  6
CONTINUOUS
 62
     7
  5
3D
 10
960605.165
 20
7290864.078
 30
0.0
 11
960601.164
 21
7290737.14
 31
0.0
  0
LINE
  8
7
  6
CONTINUOUS
 62
     7
  5
3E
 10
960869.034
 20
7290855.759
 30
0.0
 11
960865.033
 21
7290728.822
 31
0.0
  0
TEXT
  8
15
  6
CONTINUOUS
 62
    30
  5
41
 10
960039.889
 20
7290831.826
 30
0.0
 40
34.999
  1
BUCHANAN
 50
358.1945
  7
ROMANC
 72
     4
 11
960201.566335
 21
7290844.238242
 31
0.0
210
0.0
220
0.0
230
1.0
  0
TEXT
  8
11
  6
CONTINUOUS
 62
     7
  5
44
 10
961106.002
 20
7290828.802
 30
0.0
 40
8.0
  1
32'
 50
358.1945
  7
ROMANS
210
0.0
220
0.0
230
1.0
  0
TEXT
  8
11
  6
CONTINUOUS
 62
     7
  5
45
 10
961103.341
 20
7290744.377
 30
0.0
 40
8.0
  1
32'
 50
358.1945
  7
ROMANS
210
0.0
220
0.0
230
1.0
  0
TEXT
  8
11
  6
CONTINUOUS
 62
     7
  5
46
 10
961053.63
 20
7290850.107
 30
0.0
 40
8.0
  1
10'
 50
358.1945
  7
ROMANS
210
0.0
220
0.0
230
1.0
  0
TEXT
  8
11
  6
CONTINUOUS
 62
     7
  5
47
 10
959601.404
 20
7290897.85
 30
0.0
 40
8.0
  1
10'
 50
358.1945
  7
ROMANS
210
0.0
220
0.0
230
1.0
  0
TEXT
  8
11
  6
CONTINUOUS
 62
     7
  5
48
 10
959656.24
 20
7290882.364
 30
0.0
 40
8.0
  1
264'
 50
358.1945
  7
ROMANS
210
0.0
220
0.0
230
1.0
  0
TEXT
  8
11
  6
CONTINUOUS
 62
     7
  5
49
 10
959929.142
 20
7290873.597
 30
0.0
 40
8.0
  1
264'
 50
358.1945
  7
ROMANS
210
0.0
220
0.0
230
1.0
  0
TEXT
  8
11
  6
CONTINUOUS
 62
     7
  5
4A
 10
960196.056
 20
7290865.347
 30
0.0
 40
8.0
  1
264'
 50
358.1945
  7
ROMANS
210
0.0
220
0.0
230
1.0
  0
TEXT
  8
11
  6
CONTINUOUS
 62
     7
  5
4B
 10
960461.904
 20
7290856.258
 30
0.0
 40
8.0
  1
264'
 50
358.1945
  7
ROMANS
210
0.0
220
0.0
230
1.0
  0
TEXT
  8
11
  6
CONTINUOUS
 62
     7
  5
4C
 10
960713.955
 20
7290850.988
 30
0.0
 40
8.0
  1
264'
 50
358.1945
  7
ROMANS
210
0.0
220
0.0
230
1.0
  0
TEXT
  8
11
  6
CONTINUOUS
 62
     7
  5
4D
 10
960966.908
 20
7290841.048
 30
0.0
 40
8.0
  1
231.71'
 50
358.1945
  7
ROMANS
210
0.0
220
0.0
230
1.0
  0
TEXT
  8
11
  6
CONTINUOUS
 62
     7
  5
4E
 10
960954.986
 20
7290729.4
 30
0.0
 40
8.0
  1
217.30'
 50
358.1945
  7
ROMANS
210
0.0
220
0.0
230
1.0
  0
TEXT
  8
11
  6
CONTINUOUS
 62
     7
  5
4F
 10
959559.117
 20
7290825.848
 30
0.0
 40
8.0
  1
127'
 50
88.1945
  7
ROMANS
210
0.0
220
0.0
230
1.0
  0
TEXT
  8
11
  6
CONTINUOUS
 62
     7
  5
50
 10
960862.9
 20
7290777.649
 30
0.0
 40
8.0
  1
127'
 50
88.1945
  7
ROMANS
210
0.0
220
0.0
230
1.0
  0
TEXT
  8
11
  6
CONTINUOUS
 62
     7
  5
51
 10
961094.421
 20
7290768.386
 30
0.0
 40
8.0
  1
111.96'
 50
88.1945
  7
ROMANS
210
0.0
220
0.0
230
1.0
  0
TEXT
  8
11
  6
CONTINUOUS
 62
     7
  5
52
 10
959592.864
 20
7290746.931
 30
0.0
 40
8.0
  1
28'
 50
88.1945
  7
ROMANS
210
0.0
220
0.0
230
1.0
  0
TEXT
  8
11
  6
CONTINUOUS
 62
     7
  5
53
 10
961041.228
 20
7290701.275
 30
0.0
 40
8.0
  1
28'
 50
88.1945
  7
ROMANS
210
0.0
220
0.0
230
1.0
  0
TEXT
  8
11
  6
CONTINUOUS
 62
     7
  5
54
 10
958539.065
 20
7289263.071
 30
0.0
 40
8.0
  1
5
 50
268.607197
  7
ROMANS
 72
     1
 11
958539.008025
 21
7289260.727693
 31
0.0
210
0.0
220
0.0
230
1.0
  0
TEXT
  8
11
  6
CONTINUOUS
 62
     7
  5
55
 10
958538.846
 20
7289254.065
 30
0.0
 40
8.0
  1
1
 50
268.607197
  7
ROMANS
 72
     1
 11
958538.813599
 21
7289252.732394
 31
0.0
210
0.0
220
0.0
230
1.0
  0
TEXT
  8
11
  6
CONTINUOUS
 62
     7
  5
56
 10
958538.676
 20
7289247.075
 30
0.0
 40
8.0
  1
5
 50
268.607197
  7
ROMANS
 72
     1
 11
958538.619025
 21
7289244.731693
 31
0.0
210
0.0
220
0.0
230
1.0
  0
TEXT
  8
11
  6
CONTINUOUS
 62
     7
  5
57
 10
958538.457
 20
7289238.038
 30
0.0
 40
8.0
  1
.
 50
268.607197
  7
ROMANS
 72
     1
 11
958538.424867
 21
7289236.716391
 31
0.0
210
0.0
220
0.0
230
1.0
  0
TEXT
  8
11
  6
CONTINUOUS
 62
     7
  5
58
 10
958538.287
 20
7289231.079
 30
0.0
 40
8.0
  1
3
 50
268.607197
  7
ROMANS
 72
     1
 11
958538.230293
 21
7289228.746689
 31
0.0
210
0.0
220
0.0
230
1.0
  0
TEXT
  8
11
  6
CONTINUOUS
 62
     7
  5
59
 10
958538.068
 20
7289222.075
 30
0.0
 40
8.0
  1
'
 50
268.607197
  7
ROMANS
 72
     1
 11
958538.035599
 21
7289220.742394
 31
0.0
210
0.0
220
0.0
230
1.0
  0
TEXT
  8
11
  6
CONTINUOUS
 62
     7
  5
5A
 10
958591.405
 20
7291531.772
 30
0.0
 40
8.0
  1
1
 50
88.1925
  7
ROMANS
 72
     1
 11
958583.451025
 21
7291533.35667
 31
0.0
210
0.0
220
0.0
230
1.0
 73
     3
  0
TEXT
  8
11
  6
CONTINUOUS
 62
     7
  5
5B
 10
958591.626
 20
7291538.76
 30
0.0
 40
8.0
  1
8
 50
88.1925
  7
ROMANS
 72
     1
 11
958583.703567
 21
7291541.344172
 31
0.0
210
0.0
220
0.0
230
1.0
 73
     3
  0
TEXT
  8
11
  6
CONTINUOUS
 62
     7
  5
5C
 10
958591.878
 20
7291546.756
 30
0.0
 40
8.0
  1
3
 50
88.1925
  7
ROMANS
 72
     1
 11
958583.955567
 21
7291549.340172
 31
0.0
210
0.0
220
0.0
230
1.0
 73
     3
  0
TEXT
  8
11
  6
CONTINUOUS
 62
     7
  5
5D
 10
958592.121
 20
7291554.437
 30
0.0
 40
8.0
  1
0
 50
88.1925
  7
ROMANS
 72
     1
 11
958584.208597
 21
7291557.339014
 31
0.0
210
0.0
220
0.0
230
1.0
 73
     3
  0
TEXT
  8
11
  6
CONTINUOUS
 62
     7
  5
5E
 10
958592.416
 20
7291563.788
 30
0.0
 40
8.0
  1
.
 50
88.1925
  7
ROMANS
 72
     1
 11
958584.461678
 21
7291565.361675
 31
0.0
210
0.0
220
0.0
230
1.0
 73
     3
  0
TEXT
  8
11
  6
CONTINUOUS
 62
     7
  5
5F
 10
958592.635
 20
7291570.744
 30
0.0
 40
8.0
  1
7
 50
88.1925
  7
ROMANS
 72
     1
 11
958584.712567
 21
7291573.328172
 31
0.0
210
0.0
220
0.0
230
1.0
 73
     3
  0
TEXT
  8
11
  6
CONTINUOUS
 62
     7
  5
60
 10
958592.919
 20
7291579.748
 30
0.0
 40
8.0
  1
1
 50
88.1925
  7
ROMANS
 72
     1
 11
958584.965025
 21
7291581.33267
 31
0.0
210
0.0
220
0.0
230
1.0
 73
     3
  0
TEXT
  8
11
  6
CONTINUOUS
 62
     7
  5
61
 10
958593.172
 20
7291587.744
 30
0.0
 40
8.0
  1
'
 50
88.1925
  7
ROMANS
 72
     1
 11
958585.218025
 21
7291589.32867
 31
0.0
210
0.0
220
0.0
230
1.0
 73
     3
  0
TEXT
  8
11
  6
CONTINUOUS
 62
     7
  5
62
 10
958665.953
 20
7293249.734
 30
0.0
 40
8.0
  1
1
 50
86.047336
  7
ROMANS
 72
     1
 11
958658.063916
 21
7293251.615288
 31
0.0
210
0.0
220
0.0
230
1.0
 73
     3
  0
TEXT
  8
11
  6
CONTINUOUS
 62
     7
  5
63
 10
958666.435
 20
7293256.709
 30
0.0
 40
8.0
  1
2
 50
86.047336
  7
ROMANS
 72
     1
 11
958658.614848
 21
7293259.587909
 31
0.0
210
0.0
220
0.0
230
1.0
 73
     3
  0
TEXT
  8
11
  6
CONTINUOUS
 62
     7
  5
64
 10
958666.986
 20
7293264.69
 30
0.0
 40
8.0
  1
3
 50
86.047336
  7
ROMANS
 72
     1
 11
958659.165848
 21
7293267.568909
 31
0.0
210
0.0
220
0.0
230
1.0
 73
     3
  0
TEXT
  8
11
  6
CONTINUOUS
 62
     7
  5
65
 10
958667.537
 20
7293272.672
 30
0.0
 40
8.0
  1
7
 50
86.047336
  7
ROMANS
 72
     1
 11
958659.716848
 21
7293275.550909
 31
0.0
210
0.0
220
0.0
230
1.0
 73
     3
  0
TEXT
  8
11
  6
CONTINUOUS
 62
     7
  5
66
 10
958668.161
 20
7293281.689
 30
0.0
 40
8.0
  1
.
 50
86.047336
  7
ROMANS
 72
     1
 11
958660.271158
 21
7293283.559314
 31
0.0
210
0.0
220
0.0
230
1.0
 73
     3
  0
TEXT
  8
11
  6
CONTINUOUS
 62
     7
  5
67
 10
958668.64
 20
7293288.633
 30
0.0
 40
8.0
  1
5
 50
86.047336
  7
ROMANS
 72
     1
 11
958660.820607
 21
7293291.522883
 31
0.0
210
0.0
220
0.0
230
1.0
 73
     3
  0
TEXT
  8
11
  6
CONTINUOUS
 62
     7
  5
68
 10
958669.192
 20
7293296.614
 30
0.0
 40
8.0
  1
2
 50
86.047336
  7
ROMANS
 72
     1
 11
958661.371848
 21
7293299.492909
 31
0.0
210
0.0
220
0.0
230
1.0
 73
     3
  0
TEXT
  8
11
  6
CONTINUOUS
 62
     7
  5
69
 10
958669.813
 20
7293305.601
 30
0.0
 40
8.0
  1
'
 50
86.047336
  7
ROMANS
 72
     1
 11
958661.923916
 21
7293307.482288
 31
0.0
210
0.0
220
0.0
230
1.0
 73
     3
  0
TEXT
  8
11
  6
CONTINUOUS
 62
     7
  5
6A
 10
958695.109
 20
7293651.639
 30
0.0
 40
8.0
  1
1
 50
85.369008
  7
ROMANS
 72
     1
 11
958687.242741
 21
7293653.613553
 31
0.0
210
0.0
220
0.0
230
1.0
 73
     3
  0
TEXT
  8
11
  6
CONTINUOUS
 62
     7
  5
6B
 10
958695.658
 20
7293658.42
 30
0.0
 40
8.0
  1
6
 50
85.369008
  7
ROMANS
 72
     1
 11
958687.887577
 21
7293661.577678
 31
0.0
210
0.0
220
0.0
230
1.0
 73
     3
  0
TEXT
  8
11
  6
CONTINUOUS
 62
     7
  5
6C
 10
958696.352
 20
7293666.696
 30
0.0
 40
8.0
  1
3
 50
85.973561
  7
ROMANS
 72
     1
 11
958688.535562
 21
7293669.584976
 31
0.0
210
0.0
220
0.0
230
1.0
 73
     3
  0
TEXT
  8
11
  6
CONTINUOUS
 62
     7
  5
6D
 10
958696.987
 20
7293675.713
 30
0.0
 40
8.0
  1
.
 50
85.973561
  7
ROMANS
 72
     1
 11
958689.099573
 21
7293677.593471
 31
0.0
210
0.0
220
0.0
230
1.0
 73
     3
  0
TEXT
  8
11
  6
CONTINUOUS
 62
     7
  5
6E
 10
958697.476
 20
7293682.656
 30
0.0
 40
8.0
  1
2
 50
85.973561
  7
ROMANS
 72
     1
 11
958689.659562
 21
7293685.544976
 31
0.0
210
0.0
220
0.0
230
1.0
 73
     3
  0
TEXT
  8
11
  6
CONTINUOUS
 62
     7
  5
6F
 10
958698.037
 20
7293690.637
 30
0.0
 40
8.0
  1
2
 50
85.973561
  7
ROMANS
 72
     1
 11
958690.220562
 21
7293693.525976
 31
0.0
210
0.0
220
0.0
230
1.0
 73
     3
  0
TEXT
  8
11
  6
CONTINUOUS
 62
     7
  5
70
 10
958698.67
 20
7293699.622
 30
0.0
 40
8.0
  1
'
 50
85.973561
  7
ROMANS
 72
     1
 11
958690.783345
 21
7293701.513444
 31
0.0
210
0.0
220
0.0
230
1.0
 73
     3
  0
TEXT
  8
11
  6
CONTINUOUS
 62
     7
  5
71
 10
958667.778
 20
7293869.196
 30
0.0
 40
8.0
  1
3
 50
88.1925
  7
ROMANS
 72
     1
 11
958667.851587
 21
7293871.527839
 31
0.0
210
0.0
220
0.0
230
1.0
  0
TEXT
  8
11
  6
CONTINUOUS
 62
     7
  5
72
 10
958668.062
 20
7293878.2
 30
0.0
 40
8.0
  1
1
 50
88.1925
  7
ROMANS
 72
     1
 11
958668.104045
 21
7293879.532337
 31
0.0
210
0.0
220
0.0
230
1.0
  0
TEXT
  8
11
  6
CONTINUOUS
 62
     7
  5
73
 10
958668.283
 20
7293885.188
 30
0.0
 40
8.0
  1
9
 50
88.1925
  7
ROMANS
 72
     1
 11
958668.356587
 21
7293887.519839
 31
0.0
210
0.0
220
0.0
230
1.0
  0
TEXT
  8
11
  6
CONTINUOUS
 62
     7
  5
74
 10
958668.568
 20
7293894.224
 30
0.0
 40
8.0
  1
.
 50
88.1925
  7
ROMANS
 72
     1
 11
958668.609698
 21
7293895.545342
 31
0.0
210
0.0
220
0.0
230
1.0
  0
TEXT
  8
11
  6
CONTINUOUS
 62
     7
  5
75
 10
958668.788
 20
7293901.18
 30
0.0
 40
8.0
  1
8
 50
88.1925
  7
ROMANS
 72
     1
 11
958668.861587
 21
7293903.511839
 31
0.0
210
0.0
220
0.0
230
1.0
  0
TEXT
  8
11
  6
CONTINUOUS
 62
     7
  5
76
 10
958669.04
 20
7293909.176
 30
0.0
 40
8.0
  1
9
 50
88.1925
  7
ROMANS
 72
     1
 11
958669.113587
 21
7293911.507839
 31
0.0
210
0.0
220
0.0
230
1.0
  0
TEXT
  8
11
  6
CONTINUOUS
 62
     7
  5
77
 10
958669.324
 20
7293918.18
 30
0.0
 40
8.0
  1
'
 50
88.1925
  7
ROMANS
 72
     1
 11
958669.366045
 21
7293919.512337
 31
0.0
210
0.0
220
0.0
230
1.0
  0
TEXT
  8
11
  6
CONTINUOUS
 62
     7
  5
78
 10
958613.766
 20
7294039.699
 30
0.0
 40
8.0
  1
89.93'
 50
358.1925
  7
ROMANS
210
0.0
220
0.0
230
1.0
  0
TEXT
  8
11
  6
CONTINUOUS
 62
     7
  5
79
 10
958573.611
 20
7292688.758
 30
0.0
 40
8.0
  1
49.91'
 50
358.1925
  7
ROMANS
210
0.0
220
0.0
230
1.0
  0
TEXT
  8
11
  6
CONTINUOUS
 62
     7
  5
7A
 10
958504.162
 20
7290551.742
 30
0.0
 40
8.0
  1
49.91'
 50
358.1925
  7
ROMANS
210
0.0
220
0.0
230
1.0
  0
TEXT
  8
11
  6
CONTINUOUS
 62
     7
  5
7B
 10
958476.105
 20
7288790.821
 30
0.0
 40
8.0
  1
80'
 50
358.1925
  7
ROMANS
210
0.0
220
0.0
230
1.0
  0
TEXT
  8
15
  6
CONTINUOUS
 62
    30
  5
7C
 10
960411.594
 20
7290791.053
 30
0.0
 40
50.0
  1

 50
358.1945
  7
ROMANC
 72
     4
 11
960411.594
 21
7290791.053
 31
0.0
210
0.0
220
0.0
230
1.0
  0
TEXT
  8
19
  6
CONTINUOUS
 62
     1
  5
7E
 10
958488.972
 20
7288837.78
 30
0.0
 40
24.0
  1
N MARTIN LUTHER KING, JR. BLVD.
 50
88.1925
  7
ROMANC
 72
     4
 11
958488.776356
 21
7289212.030383
 31
0.0
210
0.0
220
0.0
230
1.0
  0
TEXT
  8
19
  6
CONTINUOUS
 62
     1
  5
7F
 10
958530.637
 20
7290810.196
 30
0.0
 40
24.0
  1
N MARTIN LUTHER KING, JR. BLVD.
 50
88.1925
  7
ROMANC
 72
     4
 11
958530.441356
 21
7291184.446383
 31
0.0
210
0.0
220
0.0
230
1.0
  0
TEXT
  8
19
  6
CONTINUOUS
 62
     1
  5
80
 10
958633.067
 20
7293239.448
 30
0.0
 40
24.0
  1
N MARTIN LUTHER KING, JR. BLVD.
 50
88.1925
  7
ROMANC
 72
     4
 11
958632.871356
 21
7293613.698383
 31
0.0
210
0.0
220
0.0
230
1.0
  0
TEXT
  8
11
  6
CONTINUOUS
 62
     7
  5
81
 10
958560.686
 20
7290800.498
 30
0.0
 40
8.0
  1
280'
 50
268.456467
  7
ROMANS
 72
     1
 11
958560.326856
 21
7290787.169838
 31
0.0
210
0.0
220
0.0
230
1.0
  0
TEXT
  8
11
  6
CONTINUOUS
 62
     7
  5
82
 10
958535.489
 20
7288806.534
 30
0.0
 40
8.0
  1
100.04'
 50
88.1925
  7
ROMANS
 72
     1
 11
958528.292024
 21
7288832.106728
 31
0.0
210
0.0
220
0.0
230
1.0
 73
     3
  0
POLYLINE
  8
1
  6
HIDDEN
 62
   253
  5
84
 66
     1
 10
0.0
 20
0.0
 30
0.0
  0
VERTEX
  8
1
  6
HIDDEN
 62
   253
  5
85
 10
963796.201
 20
7294035.838
 30
0.0
  0
VERTEX
  8
1
  6
HIDDEN
 62
   253
  5
86
 10
958501.413
 20
7294182.982
 30
0.0
  0
VERTEX
  8
1
  6
HIDDEN
 62
   253
  5
87
 10
958354.864
 20
7288863.685
 30
0.0
  0
VERTEX
  8
1
  6
HIDDEN
 62
   253
  5
88
 10
963652.498
 20
7288704.514
 30
0.0
  0
VERTEX
  8
1
  6
HIDDEN
 62
   253
  5
89
 10
963796.201
 20
7294035.838
 30
0.0
  0
SEQEND
  8
1
  6
HIDDEN
 62
   253
  5
8A
  0
TEXT
  8
19
  6
CONTINUOUS
 62
     1
  5
8B
 10
963844.667
 20
7292788.124
 30
0.0
 40
24.0
  1
GUAVA AVE
 50
88.1925
  7
ROMANC
 72
     4
 11
963836.570976
 21
7292912.024009
 31
0.0
210
0.0
220
0.0
230
1.0
  0
TEXT
  8
19
  6
CONTINUOUS
 62
     1
  5
8C
 10
963738.259
 20
7289684.304
 30
0.0
 40
24.0
  1
GUAVA AVE
 50
88.1925
  7
ROMANC
 72
     4
 11
963730.162976
 21
7289808.204009
 31
0.0
210
0.0
220
0.0
230
1.0
  0
TEXT
  8
19
  6
CONTINUOUS
 62
     1
  5
8D
 10
963450.531
 20
7293953.757
 30
0.0
 40
24.0
  1
E KENT ST
 50
358.1925
  7
ROMANC
 72
     4
 11
963564.892757
 21
7293962.154026
 31
0.0
210
0.0
220
0.0
230
1.0
  0
TEXT
  8
19
  6
CONTINUOUS
 62
     1
  5
8E
 10
958829.915
 20
7294055.204
 30
0.0
 40
24.0
  1
E KENT ST
 50
358.1925
  7
ROMANC
 72
     4
 11
958944.276757
 21
7294063.601026
 31
0.0
210
0.0
220
0.0
230
1.0
  0
TEXT
  8
19
  6
CONTINUOUS
 62
     1
  5
8F
 10
961048.893
 20
7294017.078
 30
0.0
 40
24.0
  1
E KENT ST
 50
358.1925
  7
ROMANC
 72
     4
 11
961163.254757
 21
7294025.475026
 31
0.0
210
0.0
220
0.0
230
1.0
  0
TEXT
  8
19
  6
CONTINUOUS
 62
     1
  5
90
 10
961157.833
 20
7290613.173
 30
0.0
 40
24.0
  1
N ZENITH AVE
 50
88.1945
  7
ROMANC
 72
     4
 11
961150.804288
 21
7290771.06884
 31
0.0
210
0.0
220
0.0
230
1.0
  0
TEXT
  8
19
  6
CONTINUOUS
 62
     1
  5
91
 10
960089.224
 20
7290731.614
 30
0.0
 40
19.999
  1
BRADLEY ST
 50
358.1945
  7
ROMANC
 72
     4
 11
960198.134127
 21
7290738.185863
 31
0.0
210
0.0
220
0.0
230
1.0
  0
TEXT
  8
10
  6
CONTINUOUS
 62
   134
  5
93
 10
959675.829
 20
7290825.635
 30
0.0
 40
13.999
  1
1
 50
358.1945
  7
ROMANS
 11
959676.270062
 21
7290839.62705
 31
0.0
210
0.0
220
0.0
230
1.0
 73
     3
  0
TEXT
  8
10
  6
CONTINUOUS
 62
   134
  5
94
 10
959955.225
 20
7290816.828
 30
0.0
 40
13.999
  1
2
 50
358.1945
  7
ROMANS
 11
959955.666062
 21
7290830.82005
 31
0.0
210
0.0
220
0.0
230
1.0
 73
     3
  0
TEXT
  8
10
  6
CONTINUOUS
 62
   134
  5
95
 10
960213.455
 20
7290808.688
 30
0.0
 40
13.999
  1
3
 50
358.1945
  7
ROMANS
 11
960213.896062
 21
7290822.68005
 31
0.0
210
0.0
220
0.0
230
1.0
 73
     3
  0
TEXT
  8
10
  6
CONTINUOUS
 62
   134
  5
96
 10
960469.502
 20
7290798.497
 30
0.0
 40
13.999
  1
4
 50
358.1945
  7
ROMANS
 11
960469.943062
 21
7290812.48905
 31
0.0
210
0.0
220
0.0
230
1.0
 73
     3
  0
TEXT
  8
10
  6
CONTINUOUS
 62
   134
  5
97
 10
960742.481
 20
7290787.772
 30
0.0
 40
13.999
  1
5
 50
358.1945
  7
ROMANS
 11
960742.922062
 21
7290801.76405
 31
0.0
210
0.0
220
0.0
230
1.0
 73
     3
  0
TEXT
  8
10
  6
CONTINUOUS
 62
   134
  5
98
 10
960992.246
 20
7290779.899
 30
0.0
 40
13.999
  1
6
 50
358.1945
  7
ROMANS
 11
960992.687062
 21
7290793.89105
 31
0.0
210
0.0
220
0.0
230
1.0
 73
     3
  0
TEXT
  8
10
  6
CONTINUOUS
 62
   134
  5
99
 10
961197.271
 20
7291443.034
 30
0.0
 40
13.999
  1
UNSUBDIVIDED
 50
358.1925
  7
ROMANS
 11
961197.712551
 21
7291457.026035
 31
0.0
210
0.0
220
0.0
230
1.0
 73
     3
  0
LINE
  8
6
  6
CONTINUOUS
 62
     7
  5
9A
 10
958526.024
 20
7289947.508
 30
0.0
 11
958817.26
 21
7289938.318
 31
0.0
  0
LINE
  8
6
  6
CONTINUOUS
 62
     7
  5
9B
 10
958817.26
 20
7289938.318
 30
0.0
 11
958808.885
 21
7289658.443
 31
0.0
  0
LINE
  8
6
  6
CONTINUOUS
 62
     7
  5
9C
 10
958808.885
 20
7289658.443
 30
0.0
 11
958524.779
 21
7289667.409
 31
0.0
  0
LINE
  8
6
  6
CONTINUOUS
 62
     7
  5
9D
 10
958526.886
 20
7289045.633
 30
0.0
 11
958525.735
 21
7289991.157
 31
0.0
  0
TEXT
  8
11
  6
CONTINUOUS
 62
     7
  5
9F
 10
958654.507
 20
7289932.976
 30
0.0
 40
8.0
  1
285.6'
 50
358.1925
  7
txt
 72
     4
 11
958674.087482
 21
7289936.360084
 31
0.0
210
0.0
220
0.0
230
1.0
  0
TEXT
  8
11
  6
CONTINUOUS
 62
     7
  5
A0
 10
958651.473
 20
7289665.813
 30
0.0
 40
8.0
  1
277.16'
 50
358.1925
  7
txt
 72
     4
 11
958673.697166
 21
7289669.113657
 31
0.0
210
0.0
220
0.0
230
1.0
  0
TEXT
  8
11
  6
CONTINUOUS
 62
     7
  5
A1
 10
958809.552
 20
7289811.658
 30
0.0
 40
8.0
  1
280'
 50
88.1925
  7
txt
 72
     4
 11
958805.983145
 21
7289825.383397
 31
0.0
210
0.0
220
0.0
230
1.0
  0
TEXT
  8
11
  6
CONTINUOUS
 62
     7
  5
A2
 10
958542.321
 20
7289811.3
 30
0.0
 40
8.0
  1
280.14'
 50
88.1925
  7
txt
 72
     4
 11
958539.029301
 21
7289833.808025
 31
0.0
210
0.0
220
0.0
230
1.0
  0
TEXT
  8
10
  6
CONTINUOUS
 62
   134
  5
A3
 10
958669.251
 20
7289796.327
 30
0.0
 40
13.999
  1
1
 50
358.1925
  7
txt
 72
     4
 11
958671.674695
 21
7289803.253999
 31
0.0
210
0.0
220
0.0
230
1.0
  0
TEXT
  8
15
  6
CONTINUOUS
 62
    30
  5
A4
 10
958577.774
 20
7289798.013
 30
0.0
 40
50.0
  1
TRAVEL
 50
28.1925
  7
ROMANC
 72
     4
 11
958705.446225
 21
7289894.813814
 31
0.0
210
0.0
220
0.0
230
1.0
  0
TEXT
  8
15
  6
CONTINUOUS
 62
    30
  5
A5
 10
958691.281
 20
7289773.76
 30
0.0
 40
50.0
  1
INN
 50
28.1925
  7
ROMANC
 72
     4
 11
958740.883649
 21
7289828.713431
 31
0.0
210
0.0
220
0.0
230
1.0
  0
TEXT
  8
15
  6
CONTINUOUS
 62
    30
  5
A6
 10
958692.361
 20
7289689.244
 30
0.0
 40
50.0
  1
PARK
 50
28.1925
  7
ROMANC
 72
     4
 11
958776.489372
 21
7289762.704143
 31
0.0
210
0.0
220
0.0
230
1.0
  0
POLYLINE
  8
6
  6
CONTINUOUS
 62
     7
  5
A7
 66
     1
 10
0.0
 20
0.0
 30
0.0
  0
VERTEX
  8
6
  6
CONTINUOUS
 62
     7
  5
A8
 10
958525.735
 20
7289991.157
 30
0.0
  0
VERTEX
  8
6
  6
CONTINUOUS
 62
     7
  5
A9
 10
958529.438
 20
7290673.405
 30
0.0
  0
VERTEX
  8
6
  6
CONTINUOUS
 62
     7
  5
AA
 10
958556.922
 20
7291267.014
 30
0.0
  0
VERTEX
  8
6
  6
CONTINUOUS
 62
     7
  5
AB
 10
958584.635
 20
7291917.163
 30
0.0
  0
VERTEX
  8
6
  6
CONTINUOUS
 62
     7
  5
AC
 10
958609.718
 20
7292711.977
 30
0.0
  0
SEQEND
  8
6
  6
CONTINUOUS
 62
     7
  5
AD
  0
LINE
  8
6
  6
CONTINUOUS
 62
     7
  5
AE
 10
963799.175
 20
7293915.417
 30
0.0
 11
963675.271
 21
7288610.321
 31
0.0
  0
LINE
  8
6
  6
CONTINUOUS
 62
     7
  5
AF
 10
958699.864
 20
7294053.484
 30
0.0
 11
963799.175
 21
7293915.417
 31
0.0
  0
LINE
  8
-6
  6
CONTINUOUS
 62
     7
  5
B1
 10
964358.528
 20
7288683.301
 30
0.0
 11
968986.869
 21
7290721.723
 31
0.0
  0
LINE
  8
-6
  6
CONTINUOUS
 62
     7
  5
B2
 10
968980.832
 20
7290497.458
 30
0.0
 11
964829.4
 21
7288669.153
 31
0.0
  0
LINE
  8
-27
  6
CONTINUOUS
 62
    32
  5
B4
 10
968985.042
 20
7290653.849
 30
0.0
 11
964477.551
 21
7288679.725
 31
0.0
  0
POLYLINE
  8
-7
  6
CONTINUOUS
 62
     7
  5
B6
 66
     1
 10
0.0
 20
0.0
 30
0.0
  0
VERTEX
  8
-7
  6
CONTINUOUS
 62
     7
  5
B7
 10
964178.637
 20
7293020.29
 30
0.0
  0
VERTEX
  8
-7
  6
CONTINUOUS
 62
     7
  5
B8
 10
964928.563
 20
7293009.78
 30
0.0
  0
VERTEX
  8
-7
  6
CONTINUOUS
 62
     7
  5
B9
 10
964918.054
 20
7292259.854
 30
0.0
  0
VERTEX
  8
-7
  6
CONTINUOUS
 62
     7
  5
BA
 10
964168.127
 20
7292270.363
 30
0.0
  0
VERTEX
  8
-7
  6
CONTINUOUS
 62
     7
  5
BB
 10
964178.637
 20
7293020.29
 30
0.0
  0
SEQEND
  8
-7
  6
CONTINUOUS
 62
     7
  5
BC
  0
POLYLINE
  8
-6
  6
CONTINUOUS
 62
     7
  5
BD
 66
     1
 10
0.0
 20
0.0
 30
0.0
  0
VERTEX
  8
-6
  6
CONTINUOUS
 62
     7
  5
BE
 10
964918.054
 20
7292259.854
 30
0.0
  0
VERTEX
  8
-6
  6
CONTINUOUS
 62
     7
  5
BF
 10
964978.048
 20
7292259.013
 30
0.0
  0
VERTEX
  8
-6
  6
CONTINUOUS
 62
     7
  5
C0
 10
964986.105
 20
7292833.956
 30
0.0
  0
SEQEND
  8
-6
  6
CONTINUOUS
 62
     7
  5
C1
  0
LINE
  8
-6
  6
CONTINUOUS
 62
     7
  5
C2
 10
964928.563
 20
7293009.78
 30
0.0
 11
964937.826
 21
7293670.764
 31
0.0
  0
LINE
  8
-6
  6
CONTINUOUS
 62
     7
  5
C3
 10
965001.313
 20
7292848.745
 30
0.0
 11
965002.154
 21
7292908.739
 31
0.0
  0
LINE
  8
-6
  6
CONTINUOUS
 62
     7
  5
C4
 10
964987.367
 20
7292923.948
 30
0.0
 11
964997.82
 21
7293669.924
 31
0.0
  0
ARC
  8
-6
  6
CONTINUOUS
 62
     7
  5
C5
 10
965795.232206
 20
7293658.749167
 30
0.0
 40
857.49
 50
167.404006
 51
179.1971
210
0.0
220
0.0
230
1.0
  0
ARC
  8
-6
  6
CONTINUOUS
 62
     7
  5
C6
 10
965795.232206
 20
7293658.749167
 30
0.0
 40
797.49
 50
167.352667
 51
179.1971
210
0.0
220
0.0
230
1.0
  0
LINE
  8
-6
  6
CONTINUOUS
 62
     7
  5
C7
 10
969113.389
 20
7293799.373
 30
0.0
 11
965523.013
 21
7293801.134
 31
0.0
  0
ARC
  8
-6
  6
CONTINUOUS
 62
     7
  5
C8
 10
965002.364792
 20
7292923.737285
 30
0.0
 40
15.0
 50
179.1971
 51
269.1971
210
0.0
220
0.0
230
1.0
  0
ARC
  8
-6
  6
CONTINUOUS
 62
     7
  5
C9
 10
965001.103641
 20
7292833.746122
 30
0.0
 40
15.0
 50
89.1971
 51
179.1971
210
0.0
220
0.0
230
1.0
  0
ARC
  8
-6
  6
CONTINUOUS
 62
     7
  5
CA
 10
965488.039499
 20
7296163.435496
 30
0.0
 40
2362.56
 50
255.119664
 51
256.765831
210
0.0
220
0.0
230
1.0
  0
ARC
  8
-6
  6
CONTINUOUS
 62
     7
  5
CB
 10
965488.039499
 20
7296163.435496
 30
0.0
 40
2362.56
 50
258.934906
 51
270.848181
210
0.0
220
0.0
230
1.0
  0
ARC
  8
-6
  6
CONTINUOUS
 62
     7
  5
CC
 10
965031.728377
 20
7293830.074891
 30
0.0
 40
15.0
 50
78.934906
 51
167.352667
210
0.0
220
0.0
230
1.0
  0
ARC
  8
-6
  6
CONTINUOUS
 62
     7
  5
CD
 10
964943.741284
 20
7293849.017425
 30
0.0
 40
15.0
 50
347.404006
 51
76.765831
210
0.0
220
0.0
230
1.0
  0
TEXT
  8
-11
  6
CONTINUOUS
 62
     7
  5
CF
 10
964917.543
 20
7292622.574
 30
0.0
 40
8.0
  1
750'
 50
89.1971
  7
ROMANS
210
0.0
220
0.0
230
1.0
  0
TEXT
  8
-11
  6
CONTINUOUS
 62
     7
  5
D0
 10
964185.851
 20
7292635.55
 30
0.0
 40
8.0
  1
750'
 50
89.1971
  7
ROMANS
210
0.0
220
0.0
230
1.0
  0
TEXT
  8
-11
  6
CONTINUOUS
 62
     7
  5
D1
 10
964995.321
 20
7292542.55
 30
0.0
 40
8.0
  1
575'
 50
89.1971
  7
ROMANS
210
0.0
220
0.0
230
1.0
  0
TEXT
  8
-11
  6
CONTINUOUS
 62
     7
  5
D2
 10
964998.914
 20
7292869.992
 30
0.0
 40
8.0
  1
60'
 50
89.1971
  7
ROMANS
210
0.0
220
0.0
230
1.0
  0
TEXT
  8
-11
  6
CONTINUOUS
 62
     7
  5
D3
 10
965002.811
 20
7293258.496
 30
0.0
 40
8.0
  1
746.05'
 50
89.1971
  7
ROMANS
210
0.0
220
0.0
230
1.0
  0
TEXT
  8
-11
  6
CONTINUOUS
 62
     7
  5
D4
 10
964928.703
 20
7293270.371
 30
0.0
 40
8.0
  1
661.05'
 50
89.1971
  7
ROMANS
210
0.0
220
0.0
230
1.0
  0
TEXT
  8
-11
  6
CONTINUOUS
 62
     7
  5
D5
 10
965009.285
 20
7293686.272
 30
0.0
 40
8.0
  1
R
 50
88.385533
  7
ROMANS
 72
     1
 11
965001.359174
 21
7293689.016392
 31
0.0
210
0.0
220
0.0
230
1.0
 73
     3
  0
TEXT
  8
-11
  6
CONTINUOUS
 62
     7
  5
D6
 10
965009.511
 20
7293693.169
 30
0.0
 40
8.0
  1
=
 50
86.762403
  7
ROMANS
 72
     1
 11
965001.712005
 21
7293696.948494
 31
0.0
210
0.0
220
0.0
230
1.0
 73
     3
  0
TEXT
  8
-11
  6
CONTINUOUS
 62
     7
  5
D7
 10
965010.019
 20
7293702.132
 30
0.0
 40
8.0
  1
7
 50
86.762403
  7
ROMANS
 72
     1
 11
965002.163529
 21
7293704.91309
 31
0.0
210
0.0
220
0.0
230
1.0
 73
     3
  0
TEXT
  8
-11
  6
CONTINUOUS
 62
     7
  5
D8
 10
965010.471
 20
7293710.119
 30
0.0
 40
8.0
  1
9
 50
86.762403
  7
ROMANS
 72
     1
 11
965002.615529
 21
7293712.90009
 31
0.0
210
0.0
220
0.0
230
1.0
 73
     3
  0
TEXT
  8
-11
  6
CONTINUOUS
 62
     7
  5
D9
 10
965011.005
 20
7293717.787
 30
0.0
 40
8.0
  1
7
 50
85.139272
  7
ROMANS
 72
     1
 11
965003.231455
 21
7293720.789481
 31
0.0
210
0.0
220
0.0
230
1.0
 73
     3
  0
TEXT
  8
-11
  6
CONTINUOUS
 62
     7
  5
DA
 10
965011.771
 20
7293726.794
 30
0.0
 40
8.0
  1
.
 50
85.139272
  7
ROMANS
 72
     1
 11
965003.911789
 21
7293728.789117
 31
0.0
210
0.0
220
0.0
230
1.0
 73
     3
  0
TEXT
  8
-11
  6
CONTINUOUS
 62
     7
  5
DB
 10
965012.36
 20
7293733.73
 30
0.0
 40
8.0
  1
4
 50
85.139272
  7
ROMANS
 72
     1
 11
965004.586455
 21
7293736.732481
 31
0.0
210
0.0
220
0.0
230
1.0
 73
     3
  0
TEXT
  8
-11
  6
CONTINUOUS
 62
     7
  5
DC
 10
965013.15
 20
7293741.377
 30
0.0
 40
8.0
  1
9
 50
83.516142
  7
ROMANS
 72
     1
 11
965005.46462
 21
7293744.598464
 31
0.0
210
0.0
220
0.0
230
1.0
 73
     3
  0
TEXT
  8
-11
  6
CONTINUOUS
 62
     7
  5
DD
 10
965014.168
 20
7293750.327
 30
0.0
 40
8.0
  1
'
 50
83.516142
  7
ROMANS
 72
     1
 11
965006.369697
 21
7293752.55486
 31
0.0
210
0.0
220
0.0
230
1.0
 73
     3
  0
TEXT
  8
-11
  6
CONTINUOUS
 62
     7
  5
DE
 10
965014.644
 20
7293755.35
 30
0.0
 40
8.0
  1
 
 50
81.893008
  7
ROMANS
 72
     1
 11
965007.099913
 21
7293759.117534
 31
0.0
210
0.0
220
0.0
230
1.0
 73
     3
  0
TEXT
  8
-11
  6
CONTINUOUS
 62
     7
  5
DF
 10
965015.772
 20
7293763.269
 30
0.0
 40
8.0
  1
 
 50
81.893008
  7
ROMANS
 72
     1
 11
965008.227913
 21
7293767.036534
 31
0.0
210
0.0
220
0.0
230
1.0
 73
     3
  0
TEXT
  8
-11
  6
CONTINUOUS
 62
     7
  5
E0
 10
965017.274
 20
7293773.808
 30
0.0
 40
8.0
  1
1
 50
81.893008
  7
ROMANS
 72
     1
 11
965009.541931
 21
7293776.255855
 31
0.0
210
0.0
220
0.0
230
1.0
 73
     3
  0
TEXT
  8
-11
  6
CONTINUOUS
 62
     7
  5
E1
 10
965018.176
 20
7293780.237
 30
0.0
 40
8.0
  1
6
 50
80.269878
  7
ROMANS
 72
     1
 11
965010.716981
 21
7293784.07281
 31
0.0
210
0.0
220
0.0
230
1.0
 73
     3
  0
TEXT
  8
-11
  6
CONTINUOUS
 62
     7
  5
E2
 10
965019.508
 20
7293787.998
 30
0.0
 40
8.0
  1
0
 50
80.269878
  7
ROMANS
 72
     1
 11
965012.071121
 21
7293791.962925
 31
0.0
210
0.0
220
0.0
230
1.0
 73
     3
  0
TEXT
  8
-11
  6
CONTINUOUS
 62
     7
  5
E3
 10
965021.088
 20
7293797.218
 30
0.0
 40
8.0
  1
.
 50
80.269878
  7
ROMANS
 72
     1
 11
965013.42651
 21
7293799.873043
 31
0.0
210
0.0
220
0.0
230
1.0
 73
     3
  0
TEXT
  8
-11
  6
CONTINUOUS
 62
     7
  5
E4
 10
965022.244
 20
7293803.765
 30
0.0
 40
8.0
  1
9
 50
78.646747
  7
ROMANS
 72
     1
 11
965014.859812
 21
7293807.627208
 31
0.0
210
0.0
220
0.0
230
1.0
 73
     3
  0
TEXT
  8
-11
  6
CONTINUOUS
 62
     7
  5
E5
 10
965023.818
 20
7293811.609
 30
0.0
 40
8.0
  1
9
 50
78.646747
  7
ROMANS
 72
     1
 11
965016.433812
 21
7293815.471208
 31
0.0
210
0.0
220
0.0
230
1.0
 73
     3
  0
TEXT
  8
-11
  6
CONTINUOUS
 62
     7
  5
E6
 10
965025.593
 20
7293820.441
 30
0.0
 40
8.0
  1
'
 50
78.646747
  7
ROMANS
 72
     1
 11
965018.011954
 21
7293823.322776
 31
0.0
210
0.0
220
0.0
230
1.0
 73
     3
  0
TEXT
  8
-11
  6
CONTINUOUS
 62
     7
  5
E7
 10
964935.803
 20
7293700.233
 30
0.0
 40
8.0
  1
R
 50
86.849128
  7
ROMANS
 72
     1
 11
964935.941513
 21
7293702.74919
 31
0.0
210
0.0
220
0.0
230
1.0
  0
TEXT
  8
-11
  6
CONTINUOUS
 62
     7
  5
E8
 10
964936.2
 20
7293707.435
 30
0.0
 40
8.0
  1
=
 50
86.849128
  7
ROMANS
 72
     1
 11
964936.3832
 21
7293710.762961
 31
0.0
210
0.0
220
0.0
230
1.0
  0
TEXT
  8
-11
  6
CONTINUOUS
 62
     7
  5
E9
 10
964936.662
 20
7293716.483
 30
0.0
 40
8.0
  1
8
 50
85.283814
  7
ROMANS
 72
     1
 11
964936.853819
 21
7293718.808101
 31
0.0
210
0.0
220
0.0
230
1.0
  0
TEXT
  8
-11
  6
CONTINUOUS
 62
     7
  5
EA
 10
964937.32
 20
7293724.456
 30
0.0
 40
8.0
  1
5
 50
85.283814
  7
ROMANS
 72
     1
 11
964937.512724
 21
7293726.792064
 31
0.0
210
0.0
220
0.0
230
1.0
  0
TEXT
  8
-11
  6
CONTINUOUS
 62
     7
  5
EB
 10
964937.978
 20
7293732.428
 30
0.0
 40
8.0
  1
7
 50
85.283814
  7
ROMANS
 72
     1
 11
964938.169819
 21
7293734.753101
 31
0.0
210
0.0
220
0.0
230
1.0
  0
TEXT
  8
-11
  6
CONTINUOUS
 62
     7
  5
EC
 10
964938.735
 20
7293741.518
 30
0.0
 40
8.0
  1
.
 50
83.7185
  7
ROMANS
 72
     1
 11
964938.879644
 21
7293742.832063
 31
0.0
210
0.0
220
0.0
230
1.0
  0
TEXT
  8
-11
  6
CONTINUOUS
 62
     7
  5
ED
 10
964939.497
 20
7293748.436
 30
0.0
 40
8.0
  1
4
 50
83.7185
  7
ROMANS
 72
     1
 11
964939.752261
 21
7293750.754993
 31
0.0
210
0.0
220
0.0
230
1.0
  0
TEXT
  8
-11
  6
CONTINUOUS
 62
     7
  5
EE
 10
964940.372
 20
7293756.389
 30
0.0
 40
8.0
  1
9
 50
83.7185
  7
ROMANS
 72
     1
 11
964940.627261
 21
7293758.707993
 31
0.0
210
0.0
220
0.0
230
1.0
  0
TEXT
  8
-11
  6
CONTINUOUS
 62
     7
  5
EF
 10
964941.391
 20
7293765.421
 30
0.0
 40
8.0
  1
'
 50
82.153186
  7
ROMANS
 72
     1
 11
964941.572988
 21
7293766.741519
 31
0.0
210
0.0
220
0.0
230
1.0
  0
TEXT
  8
-11
  6
CONTINUOUS
 62
     7
  5
F0
 10
964942.122
 20
7293770.724
 30
0.0
 40
8.0
  1
 
 50
82.153186
  7
ROMANS
 72
     1
 11
964942.485976
 21
7293773.365037
 31
0.0
210
0.0
220
0.0
230
1.0
  0
TEXT
  8
-11
  6
CONTINUOUS
 62
     7
  5
F1
 10
964943.214
 20
7293778.649
 30
0.0
 40
8.0
  1
 
 50
82.153186
  7
ROMANS
 72
     1
 11
964943.577976
 21
7293781.290037
 31
0.0
210
0.0
220
0.0
230
1.0
  0
TEXT
  8
-11
  6
CONTINUOUS
 62
     7
  5
F2
 10
964944.717
 20
7293789.271
 30
0.0
 40
8.0
  1
1
 50
80.587872
  7
ROMANS
 72
     1
 11
964944.934992
 21
7293790.586055
 31
0.0
210
0.0
220
0.0
230
1.0
  0
TEXT
  8
-11
  6
CONTINUOUS
 62
     7
  5
F3
 10
964945.86
 20
7293796.17
 30
0.0
 40
8.0
  1
7
 50
80.587872
  7
ROMANS
 72
     1
 11
964946.241527
 21
7293798.471592
 31
0.0
210
0.0
220
0.0
230
1.0
  0
TEXT
  8
-11
  6
CONTINUOUS
 62
     7
  5
F4
 10
964947.169
 20
7293804.062
 30
0.0
 40
8.0
  1
3
 50
80.587872
  7
ROMANS
 72
     1
 11
964947.550527
 21
7293806.363592
 31
0.0
210
0.0
220
0.0
230
1.0
  0
TEXT
  8
-11
  6
CONTINUOUS
 62
     7
  5
F5
 10
964948.715
 20
7293813.051
 30
0.0
 40
8.0
  1
.
 50
79.022558
  7
ROMANS
 72
     1
 11
964948.966739
 21
7293814.34881
 31
0.0
210
0.0
220
0.0
230
1.0
  0
TEXT
  8
-11
  6
CONTINUOUS
 62
     7
  5
F6
 10
964950.232
 20
7293820.873
 30
0.0
 40
8.0
  1
1
 50
79.022558
  7
ROMANS
 72
     1
 11
964950.485833
 21
7293822.181609
 31
0.0
210
0.0
220
0.0
230
1.0
  0
TEXT
  8
-11
  6
CONTINUOUS
 62
     7
  5
F7
 10
964951.504
 20
7293827.427
 30
0.0
 40
8.0
  1
0
 50
79.022558
  7
ROMANS
 72
     1
 11
964952.00881
 21
7293830.029493
 31
0.0
210
0.0
220
0.0
230
1.0
  0
TEXT
  8
-11
  6
CONTINUOUS
 62
     7
  5
F8
 10
964953.345
 20
7293836.631
 30
0.0
 40
8.0
  1
'
 50
77.821953
  7
ROMANS
 72
     1
 11
964953.626197
 21
7293837.934003
 31
0.0
210
0.0
220
0.0
230
1.0
  0
TEXT
  8
-11
  6
CONTINUOUS
 62
     7
  5
F9
 10
964547.839
 20
7293003.402
 30
0.0
 40
8.0
  1
750'
 50
359.1971
  7
ROMANS
210
0.0
220
0.0
230
1.0
  0
TEXT
  8
-11
  6
CONTINUOUS
 62
     7
  5
FA
 10
964529.459
 20
7292270.057
 30
0.0
 40
8.0
  1
750'
 50
359.1971
  7
ROMANS
210
0.0
220
0.0
230
1.0
  0
TEXT
  8
-11
  6
CONTINUOUS
 62
     7
  5
FB
 10
964942.671
 20
7292268.318
 30
0.0
 40
8.0
  1
60'
 50
359.1971
  7
ROMANS
210
0.0
220
0.0
230
1.0
  0
TEXT
  8
-11
  6
CONTINUOUS
 62
     7
  5
FC
 10
964960.474
 20
7293538.701
 30
0.0
 40
8.0
  1
60'
 50
359.1971
  7
ROMANS
210
0.0
220
0.0
230
1.0
  0
TEXT
  8
-11
  6
CONTINUOUS
 62
     7
  5
FD
 10
964944.396
 20
7292965.361
 30
0.0
 40
8.0
  1
60'
 50
359.1971
  7
ROMANS
210
0.0
220
0.0
230
1.0
  0
TEXT
  8
-11
  6
CONTINUOUS
 62
     7
  5
FE
 10
964978.748
 20
7293825.194
 30
0.0
 40
8.0
  1
60'
 50
359.1971
  7
ROMANS
210
0.0
220
0.0
230
1.0
  0
TEXT
  8
-19
  6
CONTINUOUS
 62
     1
  5
100
 10
963931.752
 20
7293936.033
 30
0.0
 40
24.0
  1
FARM ROAD 2641 (E. KENT ST.)
 50
358.1971
  7
ROMANC
 72
     4
 11
964260.203049
 21
7293937.700312
 31
0.0
210
0.0
220
0.0
230
1.0
  0
TEXT
  8
-19
  6
CONTINUOUS
 62
     1
  5
101
 10
968066.485
 20
7293837.568
 30
0.0
 40
24.0
  1
FARM ROAD 2641 (E. KENT ST.)
 50
359.1971
  7
ROMANC
 72
     4
 11
968394.856926
 21
7293844.96732
 31
0.0
210
0.0
220
0.0
230
1.0
  0
TEXT
  8
-11
  6
CONTINUOUS
 62
     7
  5
102
 10
964566.438
 20
7288727.159
 30
0.0
 40
8.0
  1
50'    50'
 50
295.754733
  7
ROMANS
210
0.0
220
0.0
230
1.0
  0
TEXT
  8
-11
  6
CONTINUOUS
 62
     7
  5
103
 10
968924.093
 20
7290649.754
 30
0.0
 40
8.0
  1
50'    50'
 50
295.754733
  7
ROMANS
210
0.0
220
0.0
230
1.0
  0
TEXT
  8
-11
  6
CONTINUOUS
 62
     7
  5
104
 10
964842.341
 20
7293879.382
 30
0.0
 40
8.0
  1
1
 50
344.709494
  7
ROMANS
 72
     1
 11
964845.736519
 21
7293886.747279
 31
0.0
210
0.0
220
0.0
230
1.0
 73
     3
  0
TEXT
  8
-11
  6
CONTINUOUS
 62
     7
  5
105
 10
964849.998
 20
7293877.289
 30
0.0
 40
8.0
  1
8
 50
344.709494
  7
ROMANS
 72
     1
 11
964854.35812
 21
7293884.390566
 31
0.0
210
0.0
220
0.0
230
1.0
 73
     3
  0
TEXT
  8
-11
  6
CONTINUOUS
 62
     7
  5
106
 10
964857.653
 20
7293875.196
 30
0.0
 40
8.0
  1
1
 50
344.709494
  7
ROMANS
 72
     1
 11
964861.048519
 21
7293882.561279
 31
0.0
210
0.0
220
0.0
230
1.0
 73
     3
  0
TEXT
  8
-11
  6
CONTINUOUS
 62
     7
  5
107
 10
964865.31
 20
7293873.102
 30
0.0
 40
8.0
  1
.
 50
344.709494
  7
ROMANS
 72
     1
 11
964868.694908
 21
7293880.47018
 31
0.0
210
0.0
220
0.0
230
1.0
 73
     3
  0
TEXT
  8
-11
  6
CONTINUOUS
 62
     7
  5
108
 10
964872.966
 20
7293871.009
 30
0.0
 40
8.0
  1
9
 50
344.709494
  7
ROMANS
 72
     1
 11
964877.32612
 21
7293878.110566
 31
0.0
210
0.0
220
0.0
230
1.0
 73
     3
  0
TEXT
  8
-11
  6
CONTINUOUS
 62
     7
  5
109
 10
964880.795
 20
7293868.866
 30
0.0
 40
8.0
  1
6
 50
345.652517
  7
ROMANS
 72
     1
 11
964885.218819
 21
7293875.992025
 31
0.0
210
0.0
220
0.0
230
1.0
 73
     3
  0
TEXT
  8
-11
  6
CONTINUOUS
 62
     7
  5
10A
 10
964888.485
 20
7293866.898
 30
0.0
 40
8.0
  1
'
 50
345.652517
  7
ROMANS
 72
     1
 11
964891.758841
 21
7293874.318166
 31
0.0
210
0.0
220
0.0
230
1.0
 73
     3
  0
TEXT
  8
-11
  6
CONTINUOUS
 62
     7
  5
10B
 10
965240.113
 20
7293802.935
 30
0.0
 40
8.0
  1
4
 50
354.121533
  7
ROMANS
 72
     1
 11
965243.253081
 21
7293810.653988
 31
0.0
210
0.0
220
0.0
230
1.0
 73
     3
  0
TEXT
  8
-11
  6
CONTINUOUS
 62
     7
  5
10C
 10
965248.008
 20
7293802.123
 30
0.0
 40
8.0
  1
9
 50
354.121533
  7
ROMANS
 72
     1
 11
965251.148081
 21
7293809.841988
 31
0.0
210
0.0
220
0.0
230
1.0
 73
     3
  0
TEXT
  8
-11
  6
CONTINUOUS
 62
     7
  5
10D
 10
965255.905
 20
7293801.309
 30
0.0
 40
8.0
  1
0
 50
354.121533
  7
ROMANS
 72
     1
 11
965259.361409
 21
7293808.995419
 31
0.0
210
0.0
220
0.0
230
1.0
 73
     3
  0
TEXT
  8
-11
  6
CONTINUOUS
 62
     7
  5
10E
 10
965263.98
 20
7293800.472
 30
0.0
 40
8.0
  1
.
 50
355.064558
  7
ROMANS
 72
     1
 11
965265.985364
 21
7293808.328602
 31
0.0
210
0.0
220
0.0
230
1.0
 73
     3
  0
TEXT
  8
-11
  6
CONTINUOUS
 62
     7
  5
10F
 10
965271.888
 20
7293799.788
 30
0.0
 40
8.0
  1
3
 50
355.064558
  7
ROMANS
 72
     1
 11
965274.900616
 21
7293807.557623
 31
0.0
210
0.0
220
0.0
230
1.0
 73
     3
  0
TEXT
  8
-11
  6
CONTINUOUS
 62
     7
  5
110
 10
965279.795
 20
7293799.106
 30
0.0
 40
8.0
  1
5
 50
355.064558
  7
ROMANS
 72
     1
 11
965282.818575
 21
7293806.874676
 31
0.0
210
0.0
220
0.0
230
1.0
 73
     3
  0
TEXT
  8
-11
  6
CONTINUOUS
 62
     7
  5
111
 10
965287.702
 20
7293798.422
 30
0.0
 40
8.0
  1
'
 50
355.064558
  7
ROMANS
 72
     1
 11
965289.718323
 21
7293806.277656
 31
0.0
210
0.0
220
0.0
230
1.0
 73
     3
  0
TEXT
  8
-11
  6
CONTINUOUS
 62
     7
  5
112
 10
965228.765
 20
7293818.178
 30
0.0
 40
8.0
  1
R
 50
354.121533
  7
ROMANS
 72
     1
 11
965231.271748
 21
7293817.919905
 31
0.0
210
0.0
220
0.0
230
1.0
  0
TEXT
  8
-11
  6
CONTINUOUS
 62
     7
  5
113
 10
965236.66
 20
7293817.365
 30
0.0
 40
8.0
  1
=
 50
354.121533
  7
ROMANS
 72
     1
 11
965239.975473
 21
7293817.023638
 31
0.0
210
0.0
220
0.0
230
1.0
  0
TEXT
  8
-11
  6
CONTINUOUS
 62
     7
  5
114
 10
965244.554
 20
7293816.551
 30
0.0
 40
8.0
  1
2
 50
354.121533
  7
ROMANS
 72
     1
 11
965246.874732
 21
7293816.312057
 31
0.0
210
0.0
220
0.0
230
1.0
  0
TEXT
  8
-11
  6
CONTINUOUS
 62
     7
  5
115
 10
965252.45
 20
7293815.738
 30
0.0
 40
8.0
  1
3
 50
354.121533
  7
ROMANS
 72
     1
 11
965254.770732
 21
7293815.499057
 31
0.0
210
0.0
220
0.0
230
1.0
  0
TEXT
  8
-11
  6
CONTINUOUS
 62
     7
  5
116
 10
965260.345
 20
7293814.925
 30
0.0
 40
8.0
  1
6
 50
354.121533
  7
ROMANS
 72
     1
 11
965262.851748
 21
7293814.666905
 31
0.0
210
0.0
220
0.0
230
1.0
  0
TEXT
  8
-11
  6
CONTINUOUS
 62
     7
  5
117
 10
965268.195
 20
7293814.159
 30
0.0
 40
8.0
  1
2
 50
355.064558
  7
ROMANS
 72
     1
 11
965270.51935
 21
7293813.958284
 31
0.0
210
0.0
220
0.0
230
1.0
  0
TEXT
  8
-11
  6
CONTINUOUS
 62
     7
  5
118
 10
965276.103
 20
7293813.476
 30
0.0
 40
8.0
  1
.
 50
355.064558
  7
ROMANS
 72
     1
 11
965277.420098
 21
7293813.362264
 31
0.0
210
0.0
220
0.0
230
1.0
  0
TEXT
  8
-11
  6
CONTINUOUS
 62
     7
  5
119
 10
965284.01
 20
7293812.793
 30
0.0
 40
8.0
  1
5
 50
355.064558
  7
ROMANS
 72
     1
 11
965286.345309
 21
7293812.591338
 31
0.0
210
0.0
220
0.0
230
1.0
  0
TEXT
  8
-11
  6
CONTINUOUS
 62
     7
  5
11A
 10
965291.918
 20
7293812.111
 30
0.0
 40
8.0
  1
6
 50
355.064558
  7
ROMANS
 72
     1
 11
965294.428657
 21
7293811.894196
 31
0.0
210
0.0
220
0.0
230
1.0
  0
TEXT
  8
-11
  6
CONTINUOUS
 62
     7
  5
11B
 10
965299.825
 20
7293811.428
 30
0.0
 40
8.0
  1
'
 50
355.064558
  7
ROMANS
 72
     1
 11
965301.153058
 21
7293811.313318
 31
0.0
210
0.0
220
0.0
230
1.0
  0
TEXT
  8
-11
  6
CONTINUOUS
 62
     7
  5
11C
 10
967193.06
 20
7293766.585
 30
0.0
 40
8.0
  1
3586.7'
 50
359.1971
  7
ROMANS
 72
     4
 11
967218.446564
 21
7293770.229621
 31
0.0
210
0.0
220
0.0
230
1.0
  0
INSERT
  8
-11
  6
CONTINUOUS
 62
     7
  5
124
  2
*D0
 10
964325.847
 20
7288637.797
 30
0.0
 70
     0
 71
     0
  0
LINE
  8
-21
  6
DASHDOT
 62
     7
  5
126
 10
964178.637
 20
7293020.29
 30
0.0
 11
963818.672
 21
7293025.334
 31
0.0
  0
LINE
  8
-21
  6
DASHDOT
 62
     7
  5
127
 10
964928.283
 20
7292989.782
 30
0.0
 11
963818.392
 21
7293005.337
 31
0.0
  0
POLYLINE
  8
-21
  6
DASHDOT
 62
     7
  5
128
 66
     1
 10
0.0
 20
0.0
 30
0.0
  0
VERTEX
  8
-21
  6
DASHDOT
 62
     7
  5
129
 10
966417.036
 20
7288608.49
 30
0.0
  0
VERTEX
  8
-21
  6
DASHDOT
 62
     7
  5
12A
 10
966424.1
 20
7289112.641
 30
0.0
  0
VERTEX
  8
-21
  6
DASHDOT
 62
     7
  5
12B
 10
966210.806
 20
7289591.209
 30
0.0
  0
SEQEND
  8
-21
  6
DASHDOT
 62
     7
  5
12C
  0
POLYLINE
  8
-21
  6
DASHDOT
 62
     7
  5
12D
 66
     1
 10
0.0
 20
0.0
 30
0.0
  0
VERTEX
  8
-21
  6
DASHDOT
 62
     7
  5
12E
 10
966397.037
 20
7288608.77
 30
0.0
  0
VERTEX
  8
-21
  6
DASHDOT
 62
     7
  5
12F
 10
966404.04
 20
7289108.519
 30
0.0
  0
VERTEX
  8
-21
  6
DASHDOT
 62
     7
  5
130
 10
966200.681
 20
7289564.801
 30
0.0
  0
SEQEND
  8
-21
  6
DASHDOT
 62
     7
  5
131
  0
LINE
  8
-21
  6
DASHDOT
 62
     7
  5
132
 10
966200.681
 20
7289564.801
 30
0.0
 11
964949.162
 21
7289007.011
 31
0.0
  0
LINE
  8
-21
  6
DASHDOT
 62
     7
  5
133
 10
966210.806
 20
7289591.209
 30
0.0
 11
964959.289
 21
7289033.42
 31
0.0
  0
LINE
  8
-21
  6
DASHDOT
 62
     7
  5
134
 10
964959.289
 20
7289033.42
 30
0.0
 11
964902.394
 21
7289161.075
 31
0.0
  0
LINE
  8
-21
  6
DASHDOT
 62
     7
  5
135
 10
964902.394
 20
7289161.075
 30
0.0
 11
964767.91
 21
7289567.186
 31
0.0
  0
POLYLINE
  8
-21
  6
DASHDOT
 62
     7
  5
136
 66
     1
 10
0.0
 20
0.0
 30
0.0
  0
VERTEX
  8
-21
  6
DASHDOT
 62
     7
  5
137
 10
964767.91
 20
7289567.186
 30
0.0
  0
VERTEX
  8
-21
  6
DASHDOT
 62
     7
  5
138
 10
964716.407
 20
7289991.361
 30
0.0
  0
VERTEX
  8
-21
  6
DASHDOT
 62
     7
  5
139
 10
964749.758
 20
7290417.347
 30
0.0
  0
VERTEX
  8
-21
  6
DASHDOT
 62
     7
  5
13A
 10
964866.912
 20
7290829.26
 30
0.0
  0
VERTEX
  8
-21
  6
DASHDOT
 62
     7
  5
13B
 10
964925.215
 20
7291027.588
 30
0.0
  0
SEQEND
  8
-21
  6
DASHDOT
 62
     7
  5
13C
  0
LINE
  8
-21
  6
DASHDOT
 62
     7
  5
13D
 10
964948.241
 20
7291559.362
 30
0.0
 11
964943.68
 21
7291233.974
 31
0.0
  0
LINE
  8
-21
  6
DASHDOT
 62
     7
  5
13E
 10
964925.215
 20
7291027.588
 30
0.0
 11
964943.68
 21
7291233.974
 31
0.0
  0
LINE
  8
-21
  6
DASHDOT
 62
     7
  5
13F
 10
964928.243
 20
7291559.642
 30
0.0
 11
964923.683
 21
7291234.253
 31
0.0
  0
LINE
  8
-21
  6
DASHDOT
 62
     7
  5
140
 10
964905.295
 20
7291029.371
 30
0.0
 11
964923.76
 21
7291235.756
 31
0.0
  0
POLYLINE
  8
-21
  6
DASHDOT
 62
     7
  5
141
 66
     1
 10
0.0
 20
0.0
 30
0.0
  0
VERTEX
  8
-21
  6
DASHDOT
 62
     7
  5
142
 10
964748.297
 20
7289562.792
 30
0.0
  0
VERTEX
  8
-21
  6
DASHDOT
 62
     7
  5
143
 10
964696.312
 20
7289990.931
 30
0.0
  0
VERTEX
  8
-21
  6
DASHDOT
 62
     7
  5
144
 10
964729.975
 20
7290420.898
 30
0.0
  0
VERTEX
  8
-21
  6
DASHDOT
 62
     7
  5
145
 10
964847.699
 20
7290834.817
 30
0.0
  0
VERTEX
  8
-21
  6
DASHDOT
 62
     7
  5
146
 10
964906.027
 20
7291033.229
 30
0.0
  0
SEQEND
  8
-21
  6
DASHDOT
 62
     7
  5
147
  0
LINE
  8
-21
  6
DASHDOT
 62
     7
  5
148
 10
964883.722
 20
7289153.842
 30
0.0
 11
964748.297
 21
7289562.792
 31
0.0
  0
LINE
  8
-21
  6
DASHDOT
 62
     7
  5
149
 10
964949.162
 20
7289007.011
 30
0.0
 11
964883.722
 21
7289153.842
 31
0.0
  0
POLYLINE
  8
-1
  6
HIDDEN
 62
   253
  5
14B
 66
     1
 10
0.0
 20
0.0
 30
0.0
  0
VERTEX
  8
-1
  6
HIDDEN
 62
   253
  5
14C
 10
963796.201
 20
7294035.838
 30
0.0
  0
VERTEX
  8
-1
  6
HIDDEN
 62
   253
  5
14D
 10
969072.147
 20
7293889.217
 30
0.0
  0
VERTEX
  8
-1
  6
HIDDEN
 62
   253
  5
14E
 10
968928.293
 20
7288545.999
 30
0.0
  0
VERTEX
  8
-1
  6
HIDDEN
 62
   253
  5
14F
 10
963652.498
 20
7288704.514
 30
0.0
  0
VERTEX
  8
-1
  6
HIDDEN
 62
   253
  5
150
 10
963796.201
 20
7294035.838
 30
0.0
  0
SEQEND
  8
-1
  6
HIDDEN
 62
   253
  5
151
  0
TEXT
  8
-13
  6
CONTINUOUS
 62
    14
  5
153
 10
965102.426
 20
7292865.475
 30
0.0
 40
8.0
  1
V 3744 P334
 50
359.1971
  7
txt
 72
     4
 11
965146.697709
 21
7292868.854962
 31
0.0
210
0.0
220
0.0
230
1.0
  0
SOLID
  8
-21
  6
DASHDOT
 62
     7
  5
154
 10
965002.154
 20
7292908.739
 30
0.0
 11
965302.125
 21
7292904.552
 31
0.0
 12
965001.316
 22
7292848.745
 32
0.0
 13
965301.287
 23
7292844.558
 33
0.0
  0
SOLID
  8
-21
  6
DASHDOT
 62
     7
  5
155
 10
964918.151
 20
7292259.918
 30
0.0
 11
964978.144
 21
7292259.08
 31
0.0
 12
964908.383
 22
7291559.985
 32
0.0
 13
964968.377
 23
7291559.147
 33
0.0
  0
TEXT
  8
-13
  6
CONTINUOUS
 62
    14
  5
156
 10
964945.795
 20
7291888.634
 30
0.0
 40
8.0
  1
V3744 P340
 50
89.1971
  7
txt
 72
     4
 11
964942.353242
 21
7291928.496142
 31
0.0
210
0.0
220
0.0
230
1.0
  0
LINE
  8
-6
  6
CONTINUOUS
 62
     7
  5
157
 10
963854.365
 20
7293911.998
 30
0.0
 11
964881.331
 21
7293880.106
 31
0.0
  0
LINE
  8
-6
  6
CONTINUOUS
 62
     7
  5
158
 10
963741.344
 20
7288701.845
 30
0.0
 11
963854.365
 21
7293911.998
 31
0.0
  0
LINE
  8
-6
  6
CONTINUOUS
 62
     7
  5
159
 10
969030.431
 20
7293799.266
 30
0.0
 11
968952.729
 21
7290706.687
 31
0.0
  0
TEXT
  8
-19
  6
CONTINUOUS
 62
     1
  5
15A
 10
963730.958
 20
7288803.551
 30
0.0
 40
24.0
  1
GUAVA AVE
 50
89.1971
  7
ROMANC
 72
     4
 11
963720.690921
 21
7288927.29002
 31
0.0
210
0.0
220
0.0
230
1.0
  0
LINE
  8
-6
  6
CONTINUOUS
 62
     7
  5
15B
 10
968983.845
 20
7290609.397
 30
0.0
 11
964594.281
 21
7288676.217
 31
0.0
  0
TEXT
  8
-19
  6
CONTINUOUS
 62
     1
  5
15C
 10
963774.144
 20
7291285.222
 30
0.0
 40
24.0
  1
GUAVA AVE
 50
89.1971
  7
ROMANC
 72
     4
 11
963763.876921
 21
7291408.96102
 31
0.0
210
0.0
220
0.0
230
1.0
  0
TEXT
  8
-19
  6
CONTINUOUS
 62
     1
  5
15D
 10
963832.845
 20
7293564.869
 30
0.0
 40
24.0
  1
GUAVA AVE
 50
89.1971
  7
ROMANC
 72
     4
 11
963822.577921
 21
7293688.60802
 31
0.0
210
0.0
220
0.0
230
1.0
  0
TEXT
  8
-22
  6
CONTINUOUS
 62
     3
  5
15F
 10
964006.72
 20
7293028.497
 30
0.0
 40
6.0
  1
360'
 50
358.261614
  7
txt
 72
     4
 11
964016.868377
 21
7293031.190379
 31
0.0
210
0.0
220
0.0
230
1.0
  0
TEXT
  8
-22
  6
CONTINUOUS
 62
     3
  5
160
 10
964041.312
 20
7293008.251
 30
0.0
 40
6.0
  1
20'UUE
 50
358.261614
  7
txt
 72
     4
 11
964056.466072
 21
7293010.792457
 31
0.0
210
0.0
220
0.0
230
1.0
  0
TEXT
  8
-22
  6
CONTINUOUS
 62
     3
  5
161
 10
964591.406
 20
7293003.439
 30
0.0
 40
6.0
  1
20'UUE
 50
358.261614
  7
txt
 72
     4
 11
964606.560072
 21
7293005.980457
 31
0.0
210
0.0
220
0.0
230
1.0
  0
TEXT
  8
-22
  6
CONTINUOUS
 62
     3
  5
162
 10
963838.409
 20
7293346.513
 30
0.0
 40
6.0
  1
900'
 50
88.261614
  7
txt
 72
     4
 11
963835.714893
 21
7293356.637388
 31
0.0
210
0.0
220
0.0
230
1.0
  0
TEXT
  8
-22
  6
CONTINUOUS
 62
     3
  5
163
 10
964920.986
 20
7291945.121
 30
0.0
 40
6.0
  1
700'
 50
89.1971
  7
txt
 72
     4
 11
964918.129281
 21
7291955.366037
 31
0.0
210
0.0
220
0.0
230
1.0
  0
TEXT
  8
-22
  6
CONTINUOUS
 62
     3
  5
164
 10
964947.306
 20
7291991.744
 30
0.0
 40
6.0
  1
60'DRAINAGE EASEMENT
 50
89.1971
  7
txt
 72
     4
 11
964945.081132
 21
7292047.075609
 31
0.0
210
0.0
220
0.0
230
1.0
  0
TEXT
  8
-22
  6
CONTINUOUS
 62
     3
  5
165
 10
965105.293
 20
7292881.366
 30
0.0
 40
6.0
  1
DRAINAGE EASEMENT
 50
359.1971
  7
txt
 72
     4
 11
965153.563303
 21
7292883.689827
 31
0.0
210
0.0
220
0.0
230
1.0
  0
TEXT
  8
-22
  6
CONTINUOUS
 62
     3
  5
166
 10
965142.177
 20
7292899.471
 30
0.0
 40
6.0
  1
300'
 50
359.1971
  7
txt
 72
     4
 11
965152.398039
 21
7292902.328055
 31
0.0
210
0.0
220
0.0
230
1.0
  0
TEXT
  8
-22
  6
CONTINUOUS
 62
     3
  5
167
 10
965299.707
 20
7292870.568
 30
0.0
 40
6.0
  1
60'
 50
89.1971
  7
txt
 72
     4
 11
965296.806253
 21
7292877.671345
 31
0.0
210
0.0
220
0.0
230
1.0
  0
TEXT
  8
-22
  6
CONTINUOUS
 62
     3
  5
168
 10
964931.272
 20
7291550.567
 30
0.0
 40
6.0
  1
60'
 50
358.261614
  7
txt
 72
     4
 11
964938.421758
 21
7291553.351387
 31
0.0
210
0.0
220
0.0
230
1.0
  0
TEXT
  8
-22
  6
CONTINUOUS
 62
     3
  5
169
 10
964936.09
 20
7291277.666
 30
0.0
 40
6.0
  1
SEWER LINE EASEMENT
 50
88.261614
  7
txt
 72
     4
 11
964934.749481
 21
7291332.389852
 31
0.0
210
0.0
220
0.0
230
1.0
  0
TEXT
  8
-22
  6
CONTINUOUS
 62
     3
  5
16A
 10
964939.598
 20
7291103.725
 30
0.0
 40
6.0
  1
207.21'
 50
85.261614
  7
txt
 72
     4
 11
964937.985794
 21
7291120.591824
 31
0.0
210
0.0
220
0.0
230
1.0
  0
TEXT
  8
-22
  6
CONTINUOUS
 62
     3
  5
16B
 10
964886.97
 20
7290868.685
 30
0.0
 40
6.0
  1
206.72'
 50
73.261614
  7
txt
 72
     4
 11
964889.165373
 21
7290886.401375
 31
0.0
210
0.0
220
0.0
230
1.0
  0
TEXT
  8
-22
  6
CONTINUOUS
 62
     3
  5
16C
 10
964832.591
 20
7290680.849
 30
0.0
 40
6.0
  1
428.25'
 50
73.261614
  7
txt
 72
     4
 11
964834.868165
 21
7290698.837342
 31
0.0
210
0.0
220
0.0
230
1.0
  0
TEXT
  8
-22
  6
CONTINUOUS
 62
     3
  5
16D
 10
964811.732
 20
7290669.194
 30
0.0
 40
6.0
  1
SEWER LINE EASEMENT
 50
73.261614
  7
txt
 72
     4
 11
964824.600733
 21
7290722.400134
 31
0.0
210
0.0
220
0.0
230
1.0
  0
TEXT
  8
-22
  6
CONTINUOUS
 62
     3
  5
16E
 10
964736.175
 20
7290149.369
 30
0.0
 40
6.0
  1
427.29'
 50
86.261614
  7
txt
 72
     4
 11
964734.339546
 21
7290167.289806
 31
0.0
210
0.0
220
0.0
230
1.0
  0
TEXT
  8
-22
  6
CONTINUOUS
 62
     3
  5
16F
 10
964714.949
 20
7289881.015
 30
0.0
 40
6.0
  1
SEWER LINE EASEMENT
 50
276.261614
  7
txt
 72
     4
 11
964723.892562
 21
7289827.010281
 31
0.0
210
0.0
220
0.0
230
1.0
  0
TEXT
  8
-22
  6
CONTINUOUS
 62
     3
  5
170
 10
964809.007
 20
7289451.578
 30
0.0
 40
6.0
  1
427.80'
 50
288.261614
  7
txt
 72
     4
 11
964817.459344
 21
7289435.536685
 31
0.0
210
0.0
220
0.0
230
1.0
  0
TEXT
  8
-22
  6
CONTINUOUS
 62
     3
  5
171
 10
964924.718
 20
7289119.229
 30
0.0
 40
6.0
  1
139.76'
 50
293.261614
  7
txt
 72
     4
 11
964933.957306
 21
7289105.332228
 31
0.0
210
0.0
220
0.0
230
1.0
  0
TEXT
  8
-22
  6
CONTINUOUS
 62
     3
  5
172
 10
965413.219
 20
7289206.322
 30
0.0
 40
6.0
  1
1370.19'
 50
24.261614
  7
txt
 72
     4
 11
965428.826819
 21
7289216.647249
 31
0.0
210
0.0
220
0.0
230
1.0
  0
TEXT
  8
-22
  6
CONTINUOUS
 62
     3
  5
173
 10
965549.33
 20
7289284.969
 30
0.0
 40
6.0
  1
SEWER LINE EASEMENT
 50
23.261614
  7
txt
 72
     4
 11
965598.360125
 21
7289309.311222
 31
0.0
210
0.0
220
0.0
230
1.0
  0
TEXT
  8
-22
  6
CONTINUOUS
 62
     3
  5
174
 10
966302.067
 20
7289394.987
 30
0.0
 40
6.0
  1
503.95'
 50
294.261614
  7
txt
 72
     4
 11
966312.023257
 21
7289380.197868
 31
0.0
210
0.0
220
0.0
230
1.0
  0
TEXT
  8
-22
  6
CONTINUOUS
 62
     3
  5
175
 10
966411.853
 20
7288832.13
 30
0.0
 40
6.0
  1
SEWER LINE EASEMENT
 50
88.261614
  7
txt
 72
     4
 11
966410.512481
 21
7288886.853852
 31
0.0
210
0.0
220
0.0
230
1.0
  0
TEXT
  8
-22
  6
CONTINUOUS
 62
     3
  5
176
 10
966430.33
 20
7288877.371
 30
0.0
 40
6.0
  1
504.20'
 50
88.261614
  7
txt
 72
     4
 11
966427.872391
 21
7288895.2878
 31
0.0
210
0.0
220
0.0
230
1.0
  0
TEXT
  8
-19
  6
CONTINUOUS
 62
     1
  5
177
 10
964961.625
 20
7292301.032
 30
0.0
 40
24.0
  1
N HOLLY AVE
 50
89.1971
  7
ROMANC
 72
     4
 11
964951.723332
 21
7292450.845459
 31
0.0
210
0.0
220
0.0
230
1.0
  0
TEXT
  8
-15
  6
CONTINUOUS
 62
    30
  5
179
 10
964179.107
 20
7292564.982
 30
0.0
 40
50.0
  1
LUBBOCK COUNTY
 50
29.1971
  7
ROMANC
 72
     4
 11
964510.573297
 21
7292778.848866
 31
0.0
210
0.0
220
0.0
230
1.0
  0
TEXT
  8
-15
  6
CONTINUOUS
 62
    30
  5
17A
 10
964215.693
 20
7292499.511
 30
0.0
 40
50.0
  1
INDUSTRIAL PARK
 50
29.1971
  7
ROMANC
 72
     4
 11
964546.985581
 21
7292713.280791
 31
0.0
210
0.0
220
0.0
230
1.0
  0
TEXT
  8
-19
  6
CONTINUOUS
 62
     1
  5
17B
 10
969025.537
 20
7292336.718
 30
0.0
 40
24.0
  1
OLIVE AVE
 50
89.1971
  7
ROMANC
 72
     4
 11
969015.095153
 21
7292447.986244
 31
0.0
210
0.0
220
0.0
230
1.0
  0
TEXT
  8
-19
  6
CONTINUOUS
 62
     1
  5
17C
 10
965897.712
 20
7293837.568
 30
0.0
 40
24.0
  1
FARM ROAD 2641 (E. KENT ST.)
 50
359.1971
  7
ROMANC
 72
     4
 11
966226.083926
 21
7293844.96732
 31
0.0
210
0.0
220
0.0
230
1.0
  0
TEXT
  8
-28
  6
CONTINUOUS
 62
    32
  5
17E
 10
964699.321
 20
7288800.541
 30
0.0
 40
24.0
  1
PANHANDLE AND SANTA FE RAILROAD
 50
23.261614
  7
ROMANC
 72
     4
 11
965075.29575
 21
7288975.224563
 31
0.0
210
0.0
220
0.0
230
1.0
  0
TEXT
  8
-28
  6
CONTINUOUS
 62
    32
  5
17F
 10
967655.875
 20
7290083.981
 30
0.0
 40
24.0
  1
PANHANDLE AND SANTA FE RAILROAD
 50
23.261614
  7
ROMANC
 72
     4
 11
968031.84975
 21
7290258.664563
 31
0.0
210
0.0
220
0.0
230
1.0
  0
TEXT
  8
-10
  6
CONTINUOUS
 62
   134
  5
181
 10
964107.457
 20
7291064.355
 30
0.0
 40
13.999
  1
UNSUBDIVIDED
 50
359.1971
  7
ROMANS
 11
964107.653165
 21
7291078.352626
 31
0.0
210
0.0
220
0.0
230
1.0
 73
     3
  0
TEXT
  8
-10
  6
CONTINUOUS
 62
   134
  5
182
 10
966901.182
 20
7291884.361
 30
0.0
 40
13.999
  1
UNSUBDIVIDED
 50
359.1971
  7
ROMANS
 11
966901.378165
 21
7291898.358626
 31
0.0
210
0.0
220
0.0
230
1.0
 73
     3
  0
TEXT
  8
-10
  6
CONTINUOUS
 62
   134
  5
183
 10
967350.893
 20
7289169.992
 30
0.0
 40
13.999
  1
UNSUBDIVIDED
 50
359.1971
  7
ROMANS
 11
967351.089165
 21
7289183.989626
 31
0.0
210
0.0
220
0.0
230
1.0
 73
     3
  0
TEXT
  8
-10
  6
CONTINUOUS
 62
   134
  5
184
 10
964497.923
 20
7292640.754
 30
0.0
 40
13.999
  1
 A
 50
359.1971
  7
ROMANS
 11
964498.119165
 21
7292654.751626
 31
0.0
210
0.0
220
0.0
230
1.0
 73
     3
  0
ENDSEC
  0
EOF
