  0
SECTION
  2
HEADER
  9
$ACADVER
  1
AC1009
  9
$INSBASE
 10
0.0
 20
0.0
 30
0.0
  9
$EXTMIN
 10
953179.402
 20
7288773.787
 30
0.0
  9
$EXTMAX
 10
958567.345
 20
7294325.276
 30
0.0
  9
$LIMMIN
 10
0.0
 20
0.0
  9
$LIMMAX
 10
12.0
 20
9.0
  9
$ORTHOMODE
 70
     0
  9
$REGENMODE
 70
     1
  9
$FILLMODE
 70
     1
  9
$QTEXTMODE
 70
     0
  9
$MIRRTEXT
 70
     1
  9
$DRAGMODE
 70
     2
  9
$LTSCALE
 40
1.0
  9
$OSMODE
 70
     0
  9
$ATTMODE
 70
     1
  9
$TEXTSIZE
 40
0.2
  9
$TRACEWID
 40
0.05
  9
$TEXTSTYLE
  7
STANDARD
  9
$CLAYER
  8
0
  9
$CELTYPE
  6
CONTINUOUS
  9
$CECOLOR
 62
   256
  9
$DIMSCALE
 40
1.0
  9
$DIMASZ
 40
0.18
  9
$DIMEXO
 40
0.0625
  9
$DIMDLI
 40
0.38
  9
$DIMRND
 40
0.0
  9
$DIMDLE
 40
0.0
  9
$DIMEXE
 40
0.18
  9
$DIMTP
 40
0.0
  9
$DIMTM
 40
0.0
  9
$DIMTXT
 40
0.18
  9
$DIMCEN
 40
0.09
  9
$DIMTSZ
 40
0.0
  9
$DIMTOL
 70
     0
  9
$DIMLIM
 70
     0
  9
$DIMTIH
 70
     1
  9
$DIMTOH
 70
     1
  9
$DIMSE1
 70
     0
  9
$DIMSE2
 70
     0
  9
$DIMTAD
 70
     0
  9
$DIMZIN
 70
     0
  9
$DIMBLK
  1

  9
$DIMASO
 70
     1
  9
$DIMSHO
 70
     1
  9
$DIMPOST
  1

  9
$DIMAPOST
  1

  9
$DIMALT
 70
     0
  9
$DIMALTD
 70
     2
  9
$DIMALTF
 40
25.4
  9
$DIMLFAC
 40
1.0
  9
$DIMTOFL
 70
     0
  9
$DIMTVP
 40
0.0
  9
$DIMTIX
 70
     0
  9
$DIMSOXD
 70
     0
  9
$DIMSAH
 70
     0
  9
$DIMBLK1
  1

  9
$DIMBLK2
  1

  9
$DIMSTYLE
  2
STANDARD
  9
$DIMCLRD
 70
     0
  9
$DIMCLRE
 70
     0
  9
$DIMCLRT
 70
     0
  9
$DIMTFAC
 40
1.0
  9
$DIMGAP
 40
0.09
  9
$LUNITS
 70
     2
  9
$LUPREC
 70
     4
  9
$AXISMODE
 70
     0
  9
$AXISUNIT
 10
0.0
 20
0.0
  9
$SKETCHINC
 40
0.1
  9
$FILLETRAD
 40
0.0
  9
$AUNITS
 70
     0
  9
$AUPREC
 70
     0
  9
$MENU
  1
acad
  9
$ELEVATION
 40
0.0
  9
$PELEVATION
 40
0.0
  9
$THICKNESS
 40
0.0
  9
$LIMCHECK
 70
     0
  9
$BLIPMODE
 70
     1
  9
$CHAMFERA
 40
0.0
  9
$CHAMFERB
 40
0.0
  9
$SKPOLY
 70
     0
  9
$TDCREATE
 40
2453013.900358796
  9
$TDUPDATE
 40
2453013.900358796
  9
$TDINDWG
 40
0.0000000000
  9
$TDUSRTIMER
 40
0.0000000000
  9
$USRTIMER
 70
     1
  9
$ANGBASE
 50
0.0
  9
$ANGDIR
 70
     0
  9
$PDMODE
 70
     0
  9
$PDSIZE
 40
0.0
  9
$PLINEWID
 40
0.0
  9
$COORDS
 70
     0
  9
$SPLFRAME
 70
     0
  9
$SPLINETYPE
 70
     6
  9
$SPLINESEGS
 70
    10
  9
$ATTDIA
 70
     0
  9
$ATTREQ
 70
     1
  9
$HANDLING
 70
     1
  9
$HANDSEED
  5
101
  9
$SURFTAB1
 70
     6
  9
$SURFTAB2
 70
     6
  9
$SURFTYPE
 70
     6
  9
$SURFU
 70
     6
  9
$SURFV
 70
     6
  9
$UCSNAME
  2

  9
$UCSORG
 10
0.0
 20
0.0
 30
0.0
  9
$UCSXDIR
 10
1.0
 20
0.0
 30
0.0
  9
$UCSYDIR
 10
0.0
 20
1.0
 30
0.0
  9
$PUCSNAME
  2

  9
$PUCSORG
 10
0.0
 20
0.0
 30
0.0
  9
$PUCSXDIR
 10
1.0
 20
0.0
 30
0.0
  9
$PUCSYDIR
 10
0.0
 20
1.0
 30
0.0
  9
$USERI1
 70
     0
  9
$USERI2
 70
     0
  9
$USERI3
 70
     0
  9
$USERI4
 70
     0
  9
$USERI5
 70
     0
  9
$USERR1
 40
0.0
  9
$USERR2
 40
0.0
  9
$USERR3
 40
0.0
  9
$USERR4
 40
0.0
  9
$USERR5
 40
0.0
  9
$WORLDVIEW
 70
     1
  9
$SHADEDGE
 70
     3
  9
$SHADEDIF
 70
    70
  9
$TILEMODE
 70
     1
  9
$MAXACTVP
 70
    16
  9
$PINSBASE
 10
0.0
 20
0.0
 30
0.0
  9
$PLIMCHECK
 70
     0
  9
$PEXTMIN
 10
-1.000000E+20
 20
-1.000000E+20
 30
-1.000000E+20
  9
$PEXTMAX
 10
-1.000000E+20
 20
-1.000000E+20
 30
-1.000000E+20
  9
$PLIMMIN
 10
0.0
 20
0.0
  9
$PLIMMAX
 10
12.0
 20
9.0
  9
$UNITMODE
 70
     0
  9
$VISRETAIN
 70
     0
  9
$PLINEGEN
 70
     1
  9
$PSLTSCALE
 70
     0
  9
$TREEDEPTH
 70
  3020
  9
$DWGCODEPAGE
  3
ansi_1252
  0
ENDSEC
  0
SECTION
  2
TABLES
  0
TABLE
  2
VPORT
 70
     1
  0
VPORT
  2
*ACTIVE
 70
     0
 10
0.0
 20
0.0
 11
1.0
 21
1.0
 12
0.0
 22
0.0
 13
0.0
 23
0.0
 14
0.0
 24
0.0
 15
0.0
 25
0.0
 16
0.0
 26
0.0
 36
1.0
 17
957931.314328
 27
7289309.373247
 37
0.0
 40
1142.963
 41
1.207934
 42
50.0
 43
0.004
 44
0.0
 50
1.591867
 51
0.0
 71
     0
 72
   100
 73
     1
 74
     0
 75
     0
 76
     0
 77
     0
 78
     0
  0
ENDTAB
  0
TABLE
  2
LTYPE
 70
     7
  0
LTYPE
  2
CONTINUOUS
 70
     0
  3
Solid line
 72
    65
 73
     0
 40
0.0
  0
LTYPE
  2
DOT
 70
    64
  3
. . . . . . . . . . . . . . . . . . . . . . . . . . . . . . . . .
 72
    65
 73
     2
 40
0.25
 49
0.0
 49
-0.25
  0
LTYPE
  2
HIDDEN
 70
    64
  3
__ __ __ __ __ __ __ __ __ __ __ __ __ __ __ __ __ __ __ __ __ 
 72
    65
 73
     2
 40
0.375
 49
0.25
 49
-0.125
  0
LTYPE
  2
DASHED
 70
    64
  3
__ __ __ __ __ __ __ __ __ __ __ __ __ __ __ __ __ __ __ __ __
 72
    65
 73
     2
 40
0.75
 49
0.5
 49
-0.25
  0
LTYPE
  2
DASHDOT
 70
    64
  3
__ . __ . __ . __ . __ . __ . __ . __ . __ . __ . __ . __ . _
 72
    65
 73
     4
 40
1.0
 49
0.5
 49
-0.25
 49
0.0
 49
-0.25
  0
LTYPE
  2
DIVIDE
 70
    64
  3
____ . . ____ . . ____ . . ____ . . ____ . . ____ . . ____ . .
 72
    65
 73
     6
 40
1.25
 49
0.5
 49
-0.25
 49
0.0
 49
-0.25
 49
0.0
 49
-0.25
  0
LTYPE
  2
CENTER
 70
    64
  3
____ _ ____ _ ____ _ ____ _ ____ _ ____ _ ____ _ ____ _ ____ _
 72
    65
 73
     4
 40
2.0
 49
1.25
 49
-0.25
 49
0.25
 49
-0.25
  0
ENDTAB
  0
TABLE
  2
LAYER
 70
    11
  0
LAYER
  2
0
 70
     0
 62
     7
  6
CONTINUOUS
  0
LAYER
  2
CONSTRUCTION_CLASS
 70
     1
 62
     7
  6
CONTINUOUS
  0
LAYER
  2
PATTERN_CLASS
 70
     0
 62
     7
  6
CONTINUOUS
  0
LAYER
  2
6
 70
    64
 62
     7
  6
CONTINUOUS
  0
LAYER
  2
19
 70
    64
 62
     7
  6
CONTINUOUS
  0
LAYER
  2
11
 70
    64
 62
     7
  6
CONTINUOUS
  0
LAYER
  2
1
 70
    64
 62
     7
  6
CONTINUOUS
  0
LAYER
  2
22
 70
    64
 62
     7
  6
CONTINUOUS
  0
LAYER
  2
10
 70
    64
 62
     7
  6
CONTINUOUS
  0
LAYER
  2
13
 70
    64
 62
     7
  6
CONTINUOUS
  0
LAYER
  2
15
 70
    64
 62
     7
  6
CONTINUOUS
  0
ENDTAB
  0
TABLE
  2
STYLE
 70
     3
  0
STYLE
  2
STANDARD
 70
     0
 40
0.0
 41
1.0
 50
0.0
 71
     0
 42
0.0
  3
txt
  4

  0
STYLE
  2
ROMANC
 70
     0
 40
0.2
 41
1.0
 50
0.0
 71
     0
 42
0.2
  3
ROMANC
  4

  0
STYLE
  2
ROMANS
 70
     0
 40
0.2
 41
1.0
 50
0.0
 71
     0
 42
0.2
  3
ROMANS
  4

  0
ENDTAB
  0
TABLE
  2
VIEW
 70
     0
  0
ENDTAB
  0
TABLE
  2
UCS
 70
     0
  0
ENDTAB
  0
TABLE
  2
APPID
 70
     1
  0
APPID
  2
ACAD
 70
     0
  0
ENDTAB
  0
TABLE
  2
DIMSTYLE
 70
     1
  0
DIMSTYLE
  2
STANDARD
 70
     0
  3

  4

  5

  6

  7

 40
1.0
 41
0.18
 42
0.0625
 43
0.38
 44
0.18
 45
0.0
 46
0.0
 47
0.0
 48
0.0
140
0.18
141
0.09
142
0.0
143
25.4
144
1.0
145
0.0
146
1.0
147
0.09
 71
     0
 72
     0
 73
     1
 74
     1
 75
     0
 76
     0
 77
     0
 78
     0
170
     0
171
     2
172
     0
173
     0
174
     0
175
     0
176
     0
177
     0
178
     0
  0
ENDTAB
  0
ENDSEC
  0
SECTION
  2
BLOCKS
  0
ENDSEC
  0
SECTION
  2
ENTITIES
  0
ARC
  8
6
  6
CONTINUOUS
 62
     7
  5
29
 10
951628.82497
 20
7290672.948887
 30
0.0
 40
1791.280793
 50
334.329569
 51
350.06675
210
0.0
220
0.0
230
1.0
  0
LINE
  8
6
  6
CONTINUOUS
 62
     7
  5
2A
 10
953549.252
 20
7294199.99
 30
0.0
 11
953543.021
 21
7292786.864
 31
0.0
  0
LINE
  8
6
  6
CONTINUOUS
 62
     7
  5
2B
 10
953543.169
 20
7292791.051
 30
0.0
 11
953636.895
 21
7291440.835
 31
0.0
  0
LINE
  8
6
  6
CONTINUOUS
 62
     7
  5
2C
 10
953636.895
 20
7291440.835
 30
0.0
 11
953393.253
 21
7290363.951
 31
0.0
  0
LINE
  8
6
  6
CONTINUOUS
 62
     7
  5
2D
 10
958419.471
 20
7288825.916
 30
0.0
 11
958425.279
 21
7289044.519
 31
0.0
  0
ARC
  8
6
  6
CONTINUOUS
 62
     7
  5
2E
 10
952752.703886
 20
7289195.259842
 30
0.0
 40
5674.578
 50
358.4778
 51
0.202758
210
0.0
220
0.0
230
1.0
  0
LINE
  8
6
  6
CONTINUOUS
 62
     7
  5
2F
 10
958427.246
 20
7289215.341
 30
0.0
 11
958408.404
 21
7290049.646
 31
0.0
  0
ARC
  8
6
  6
CONTINUOUS
 62
     7
  5
30
 10
964192.848563
 20
7290088.969173
 30
0.0
 40
5784.578
 50
178.66445
 51
180.389492
210
0.0
220
0.0
230
1.0
  0
LINE
  8
6
  6
CONTINUOUS
 62
     7
  5
31
 10
958409.842
 20
7290223.794
 30
0.0
 11
958462.698
 21
7292212.831
 31
0.0
  0
ARC
  8
6
  6
CONTINUOUS
 62
     7
  5
32
 10
964245.234404
 20
7292059.167719
 30
0.0
 40
5784.578
 50
176.844478
 51
178.4778
210
0.0
220
0.0
230
1.0
  0
LINE
  8
6
  6
CONTINUOUS
 62
     7
  5
33
 10
958555.241
 20
7294065.917
 30
0.0
 11
958546.743
 21
7293746.15
 31
0.0
  0
ARC
  8
6
  6
CONTINUOUS
 62
     7
  5
34
 10
952874.167517
 20
7293896.89106
 30
0.0
 40
5674.578
 50
356.812817
 51
358.4778
210
0.0
220
0.0
230
1.0
  0
LINE
  8
6
  6
CONTINUOUS
 62
     7
  5
35
 10
958469.427
 20
7292377.588
 30
0.0
 11
958539.968
 21
7293581.395
 31
0.0
  0
LINE
  8
6
  6
CONTINUOUS
 62
     7
  5
36
 10
958404.078
 20
7288811.32
 30
0.0
 11
953233.023
 21
7288945.275
 31
0.0
  0
LINE
  8
6
  6
CONTINUOUS
 62
     7
  5
37
 10
953218.426
 20
7288960.667
 30
0.0
 11
953243.308
 21
7289896.977
 31
0.0
  0
ARC
  8
6
  6
CONTINUOUS
 62
     7
  5
38
 10
953233.421147
 20
7288960.269071
 30
0.0
 40
15.0
 50
178.4778
 51
268.4778
210
0.0
220
0.0
230
1.0
  0
ARC
  8
6
  6
CONTINUOUS
 62
     7
  5
39
 10
958404.476647
 20
7288826.314464
 30
0.0
 40
15.0
 50
268.4778
 51
358.4778
210
0.0
220
0.0
230
1.0
  0
TEXT
  8
19
  6
CONTINUOUS
 62
     1
  5
3C
 10
953361.555
 20
7290806.345
 30
0.0
 40
24.0
  1
INTERSTATE   27
 50
88.4778
  7
ROMANC
210
0.0
220
0.0
230
1.0
  0
TEXT
  8
19
  6
CONTINUOUS
 62
     1
  5
3D
 10
953408.353
 20
7293614.0
 30
0.0
 40
24.0
  1
INTERSTATE   27
 50
88.4778
  7
ROMANC
210
0.0
220
0.0
230
1.0
  0
TEXT
  8
11
  6
CONTINUOUS
 62
     7
  5
40
 10
958433.192
 20
7288867.377
 30
0.0
 40
8.0
  1
2
 50
88.4778
  7
ROMANS
 72
     1
 11
958433.253974
 21
7288869.709177
 31
0.0
210
0.0
220
0.0
230
1.0
  0
TEXT
  8
11
  6
CONTINUOUS
 62
     7
  5
41
 10
958433.431
 20
7288876.382
 30
0.0
 40
8.0
  1
1
 50
88.4778
  7
ROMANS
 72
     1
 11
958433.46641
 21
7288877.71453
 31
0.0
210
0.0
220
0.0
230
1.0
  0
TEXT
  8
11
  6
CONTINUOUS
 62
     7
  5
42
 10
958433.617
 20
7288883.372
 30
0.0
 40
8.0
  1
8
 50
88.4778
  7
ROMANS
 72
     1
 11
958433.678974
 21
7288885.704177
 31
0.0
210
0.0
220
0.0
230
1.0
  0
TEXT
  8
11
  6
CONTINUOUS
 62
     7
  5
43
 10
958433.856
 20
7288892.377
 30
0.0
 40
8.0
  1
.
 50
88.4778
  7
ROMANS
 72
     1
 11
958433.891118
 21
7288893.698533
 31
0.0
210
0.0
220
0.0
230
1.0
  0
TEXT
  8
11
  6
CONTINUOUS
 62
     7
  5
44
 10
958434.041
 20
7288899.365
 30
0.0
 40
8.0
  1
7
 50
88.4778
  7
ROMANS
 72
     1
 11
958434.102974
 21
7288901.697177
 31
0.0
210
0.0
220
0.0
230
1.0
  0
TEXT
  8
11
  6
CONTINUOUS
 62
     7
  5
45
 10
958434.246
 20
7288907.046
 30
0.0
 40
8.0
  1
0
 50
88.4778
  7
ROMANS
 72
     1
 11
958434.316422
 21
7288909.696064
 31
0.0
210
0.0
220
0.0
230
1.0
  0
TEXT
  8
11
  6
CONTINUOUS
 62
     7
  5
46
 10
958431.365
 20
7289138.041
 30
0.0
 40
8.0
  1
 
 50
269.390519
  7
ROMANS
 72
     1
 11
958439.336188
 21
7289135.290053
 31
0.0
210
0.0
220
0.0
230
1.0
 73
     3
  0
TEXT
  8
11
  6
CONTINUOUS
 62
     7
  5
47
 10
958431.281
 20
7289130.042
 30
0.0
 40
8.0
  1
 
 50
269.390519
  7
ROMANS
 72
     1
 11
958439.252188
 21
7289127.291053
 31
0.0
210
0.0
220
0.0
230
1.0
 73
     3
  0
TEXT
  8
11
  6
CONTINUOUS
 62
     7
  5
48
 10
958414.124
 20
7290210.23
 30
0.0
 40
8.0
  1
4
 50
268.924303
  7
ROMANS
 72
     1
 11
958422.078773
 21
7290207.746224
 31
0.0
210
0.0
220
0.0
230
1.0
 73
     3
  0
TEXT
  8
11
  6
CONTINUOUS
 62
     7
  5
49
 10
958413.955
 20
7290201.224
 30
0.0
 40
8.0
  1
.
 50
268.924303
  7
ROMANS
 72
     1
 11
958421.928772
 21
7290199.752046
 31
0.0
210
0.0
220
0.0
230
1.0
 73
     3
  0
TEXT
  8
11
  6
CONTINUOUS
 62
     7
  5
4A
 10
958413.805
 20
7290193.226
 30
0.0
 40
8.0
  1
1
 50
268.924303
  7
ROMANS
 72
     1
 11
958421.778546
 21
7290191.742048
 31
0.0
210
0.0
220
0.0
230
1.0
 73
     3
  0
TEXT
  8
11
  6
CONTINUOUS
 62
     7
  5
4B
 10
958413.677
 20
7290186.424
 30
0.0
 40
8.0
  1
6
 50
268.924303
  7
ROMANS
 72
     1
 11
958421.628281
 21
7290183.754257
 31
0.0
210
0.0
220
0.0
230
1.0
 73
     3
  0
TEXT
  8
11
  6
CONTINUOUS
 62
     7
  5
4C
 10
958413.553
 20
7290179.874
 30
0.0
 40
8.0
  1
 
 50
268.924303
  7
ROMANS
 72
     1
 11
958421.50154
 21
7290177.058283
 31
0.0
210
0.0
220
0.0
230
1.0
 73
     3
  0
TEXT
  8
11
  6
CONTINUOUS
 62
     7
  5
4D
 10
958413.404
 20
7290171.875
 30
0.0
 40
8.0
  1
 
 50
268.924303
  7
ROMANS
 72
     1
 11
958421.35254
 21
7290169.059283
 31
0.0
210
0.0
220
0.0
230
1.0
 73
     3
  0
TEXT
  8
11
  6
CONTINUOUS
 62
     7
  5
4E
 10
958413.222
 20
7290163.769
 30
0.0
 40
8.0
  1
 
 50
269.485492
  7
ROMANS
 72
     1
 11
958421.197737
 21
7290161.03127
 31
0.0
210
0.0
220
0.0
230
1.0
 73
     3
  0
TEXT
  8
11
  6
CONTINUOUS
 62
     7
  5
4F
 10
958413.151
 20
7290155.77
 30
0.0
 40
8.0
  1
 
 50
269.485492
  7
ROMANS
 72
     1
 11
958421.126737
 21
7290153.03227
 31
0.0
210
0.0
220
0.0
230
1.0
 73
     3
  0
TEXT
  8
11
  6
CONTINUOUS
 62
     7
  5
50
 10
958413.067
 20
7290146.321
 30
0.0
 40
8.0
  1
R
 50
269.485492
  7
ROMANS
 72
     1
 11
958421.044048
 21
7290143.729264
 31
0.0
210
0.0
220
0.0
230
1.0
 73
     3
  0
TEXT
  8
11
  6
CONTINUOUS
 62
     7
  5
51
 10
958413.002
 20
7290139.14
 30
0.0
 40
8.0
  1
=
 50
269.485492
  7
ROMANS
 72
     1
 11
958420.971748
 21
7290135.735296
 31
0.0
210
0.0
220
0.0
230
1.0
 73
     3
  0
TEXT
  8
11
  6
CONTINUOUS
 62
     7
  5
52
 10
958412.921
 20
7290130.133
 30
0.0
 40
8.0
  1
5
 50
269.485492
  7
ROMANS
 72
     1
 11
958420.899629
 21
7290127.717257
 31
0.0
210
0.0
220
0.0
230
1.0
 73
     3
  0
TEXT
  8
11
  6
CONTINUOUS
 62
     7
  5
53
 10
958412.849
 20
7290122.134
 30
0.0
 40
8.0
  1
7
 50
269.485492
  7
ROMANS
 72
     1
 11
958420.827728
 21
7290119.729256
 31
0.0
210
0.0
220
0.0
230
1.0
 73
     3
  0
TEXT
  8
11
  6
CONTINUOUS
 62
     7
  5
54
 10
958412.776
 20
7290114.133
 30
0.0
 40
8.0
  1
8
 50
269.485492
  7
ROMANS
 72
     1
 11
958420.754728
 21
7290111.728256
 31
0.0
210
0.0
220
0.0
230
1.0
 73
     3
  0
TEXT
  8
11
  6
CONTINUOUS
 62
     7
  5
55
 10
958412.705
 20
7290106.133
 30
0.0
 40
8.0
  1
4
 50
269.485492
  7
ROMANS
 72
     1
 11
958420.683728
 21
7290103.728256
 31
0.0
210
0.0
220
0.0
230
1.0
 73
     3
  0
TEXT
  8
11
  6
CONTINUOUS
 62
     7
  5
56
 10
958412.654
 20
7290097.011
 30
0.0
 40
8.0
  1
.
 50
270.088158
  7
ROMANS
 72
     1
 11
958420.656025
 21
7290095.701311
 31
0.0
210
0.0
220
0.0
230
1.0
 73
     3
  0
TEXT
  8
11
  6
CONTINUOUS
 62
     7
  5
57
 10
958412.665
 20
7290090.018
 30
0.0
 40
8.0
  1
5
 50
270.088158
  7
ROMANS
 72
     1
 11
958420.668597
 21
7290087.686312
 31
0.0
210
0.0
220
0.0
230
1.0
 73
     3
  0
TEXT
  8
11
  6
CONTINUOUS
 62
     7
  5
58
 10
958412.677
 20
7290082.018
 30
0.0
 40
8.0
  1
7
 50
270.088158
  7
ROMANS
 72
     1
 11
958420.68058
 21
7290079.697312
 31
0.0
210
0.0
220
0.0
230
1.0
 73
     3
  0
TEXT
  8
11
  6
CONTINUOUS
 62
     7
  5
59
 10
958412.689
 20
7290074.018
 30
0.0
 40
8.0
  1
8
 50
270.088158
  7
ROMANS
 72
     1
 11
958420.69258
 21
7290071.697312
 31
0.0
210
0.0
220
0.0
230
1.0
 73
     3
  0
TEXT
  8
11
  6
CONTINUOUS
 62
     7
  5
5A
 10
958412.701
 20
7290066.333
 30
0.0
 40
8.0
  1
0
 50
270.088158
  7
ROMANS
 72
     1
 11
958420.705069
 21
7290063.694312
 31
0.0
210
0.0
220
0.0
230
1.0
 73
     3
  0
TEXT
  8
11
  6
CONTINUOUS
 62
     7
  5
5B
 10
958437.907
 20
7290805.003
 30
0.0
 40
8.0
  1
1
 50
88.4778
  7
ROMANS
 72
     1
 11
958437.94241
 21
7290806.33553
 31
0.0
210
0.0
220
0.0
230
1.0
  0
TEXT
  8
11
  6
CONTINUOUS
 62
     7
  5
5C
 10
958438.093
 20
7290811.992
 30
0.0
 40
8.0
  1
9
 50
88.4778
  7
ROMANS
 72
     1
 11
958438.154974
 21
7290814.324177
 31
0.0
210
0.0
220
0.0
230
1.0
  0
TEXT
  8
11
  6
CONTINUOUS
 62
     7
  5
5D
 10
958438.305
 20
7290819.99
 30
0.0
 40
8.0
  1
8
 50
88.4778
  7
ROMANS
 72
     1
 11
958438.366974
 21
7290822.322177
 31
0.0
210
0.0
220
0.0
230
1.0
  0
TEXT
  8
11
  6
CONTINUOUS
 62
     7
  5
5E
 10
958438.518
 20
7290827.986
 30
0.0
 40
8.0
  1
9
 50
88.4778
  7
ROMANS
 72
     1
 11
958438.579974
 21
7290830.318177
 31
0.0
210
0.0
220
0.0
230
1.0
  0
TEXT
  8
11
  6
CONTINUOUS
 62
     7
  5
5F
 10
958438.757
 20
7290836.991
 30
0.0
 40
8.0
  1
.
 50
88.4778
  7
ROMANS
 72
     1
 11
958438.792118
 21
7290838.312533
 31
0.0
210
0.0
220
0.0
230
1.0
  0
TEXT
  8
11
  6
CONTINUOUS
 62
     7
  5
60
 10
958438.942
 20
7290843.981
 30
0.0
 40
8.0
  1
7
 50
88.4778
  7
ROMANS
 72
     1
 11
958439.003974
 21
7290846.313177
 31
0.0
210
0.0
220
0.0
230
1.0
  0
TEXT
  8
11
  6
CONTINUOUS
 62
     7
  5
61
 10
958439.155
 20
7290851.978
 30
0.0
 40
8.0
  1
4
 50
88.4778
  7
ROMANS
 72
     1
 11
958439.216974
 21
7290854.310177
 31
0.0
210
0.0
220
0.0
230
1.0
  0
TEXT
  8
11
  6
CONTINUOUS
 62
     7
  5
62
 10
958439.394
 20
7290860.983
 30
0.0
 40
8.0
  1
'
 50
88.4778
  7
ROMANS
 72
     1
 11
958439.42941
 21
7290862.31553
 31
0.0
210
0.0
220
0.0
230
1.0
  0
TEXT
  8
11
  6
CONTINUOUS
 62
     7
  5
63
 10
958475.193
 20
7292207.146
 30
0.0
 40
8.0
  1
6
 50
88.176467
  7
ROMANS
 72
     1
 11
958475.27319
 21
7292209.664724
 31
0.0
210
0.0
220
0.0
230
1.0
  0
TEXT
  8
11
  6
CONTINUOUS
 62
     7
  5
64
 10
958475.453
 20
7292215.331
 30
0.0
 40
8.0
  1
4
 50
88.176467
  7
ROMANS
 72
     1
 11
958475.527239
 21
7292217.662819
 31
0.0
210
0.0
220
0.0
230
1.0
  0
TEXT
  8
11
  6
CONTINUOUS
 62
     7
  5
65
 10
958475.74
 20
7292224.335
 30
0.0
 40
8.0
  1
.
 50
88.176467
  7
ROMANS
 72
     1
 11
958475.782068
 21
7292225.656331
 31
0.0
210
0.0
220
0.0
230
1.0
  0
TEXT
  8
11
  6
CONTINUOUS
 62
     7
  5
66
 10
958475.963
 20
7292231.323
 30
0.0
 40
8.0
  1
9
 50
88.176467
  7
ROMANS
 72
     1
 11
958476.037239
 21
7292233.654819
 31
0.0
210
0.0
220
0.0
230
1.0
  0
TEXT
  8
11
  6
CONTINUOUS
 62
     7
  5
67
 10
958476.206
 20
7292239.004
 30
0.0
 40
8.0
  1
0
 50
88.176467
  7
ROMANS
 72
     1
 11
958476.290358
 21
7292241.653657
 31
0.0
210
0.0
220
0.0
230
1.0
  0
TEXT
  8
11
  6
CONTINUOUS
 62
     7
  5
68
 10
958476.419
 20
7292245.677
 30
0.0
 40
8.0
  1
 
 50
88.176467
  7
ROMANS
 72
     1
 11
958476.503836
 21
7292248.34165
 31
0.0
210
0.0
220
0.0
230
1.0
  0
TEXT
  8
11
  6
CONTINUOUS
 62
     7
  5
69
 10
958476.674
 20
7292253.673
 30
0.0
 40
8.0
  1
 
 50
88.176467
  7
ROMANS
 72
     1
 11
958476.758836
 21
7292256.33765
 31
0.0
210
0.0
220
0.0
230
1.0
  0
TEXT
  8
11
  6
CONTINUOUS
 62
     7
  5
6A
 10
958476.913
 20
7292261.7
 30
0.0
 40
8.0
  1
 
 50
87.5738
  7
ROMANS
 72
     1
 11
958477.025859
 21
7292264.36361
 31
0.0
210
0.0
220
0.0
230
1.0
  0
TEXT
  8
11
  6
CONTINUOUS
 62
     7
  5
6B
 10
958477.252
 20
7292269.693
 30
0.0
 40
8.0
  1
 
 50
87.5738
  7
ROMANS
 72
     1
 11
958477.364859
 21
7292272.35661
 31
0.0
210
0.0
220
0.0
230
1.0
  0
TEXT
  8
11
  6
CONTINUOUS
 62
     7
  5
6C
 10
958477.653
 20
7292279.135
 30
0.0
 40
8.0
  1
R
 50
87.5738
  7
ROMANS
 72
     1
 11
958477.759678
 21
7292281.652741
 31
0.0
210
0.0
220
0.0
230
1.0
  0
TEXT
  8
11
  6
CONTINUOUS
 62
     7
  5
6D
 10
958477.956
 20
7292286.308
 30
0.0
 40
8.0
  1
=
 50
87.5738
  7
ROMANS
 72
     1
 11
958478.097094
 21
7292289.638012
 31
0.0
210
0.0
220
0.0
230
1.0
  0
TEXT
  8
11
  6
CONTINUOUS
 62
     7
  5
6E
 10
958478.338
 20
7292295.308
 30
0.0
 40
8.0
  1
5
 50
87.5738
  7
ROMANS
 72
     1
 11
958478.437227
 21
7292297.649899
 31
0.0
210
0.0
220
0.0
230
1.0
  0
TEXT
  8
11
  6
CONTINUOUS
 62
     7
  5
6F
 10
958478.676
 20
7292303.301
 30
0.0
 40
8.0
  1
7
 50
87.5738
  7
ROMANS
 72
     1
 11
958478.774762
 21
7292305.631909
 31
0.0
210
0.0
220
0.0
230
1.0
  0
TEXT
  8
11
  6
CONTINUOUS
 62
     7
  5
70
 10
958479.016
 20
7292311.295
 30
0.0
 40
8.0
  1
8
 50
87.5738
  7
ROMANS
 72
     1
 11
958479.114762
 21
7292313.625909
 31
0.0
210
0.0
220
0.0
230
1.0
  0
TEXT
  8
11
  6
CONTINUOUS
 62
     7
  5
71
 10
958479.355
 20
7292319.288
 30
0.0
 40
8.0
  1
4
 50
87.5738
  7
ROMANS
 72
     1
 11
958479.453762
 21
7292321.618909
 31
0.0
210
0.0
220
0.0
230
1.0
  0
TEXT
  8
11
  6
CONTINUOUS
 62
     7
  5
72
 10
958479.776
 20
7292328.312
 30
0.0
 40
8.0
  1
.
 50
87.058472
  7
ROMANS
 72
     1
 11
958479.843841
 21
7292329.632258
 31
0.0
210
0.0
220
0.0
230
1.0
  0
TEXT
  8
11
  6
CONTINUOUS
 62
     7
  5
73
 10
958480.134
 20
7292335.296
 30
0.0
 40
8.0
  1
5
 50
87.058472
  7
ROMANS
 72
     1
 11
958480.254287
 21
7292337.636912
 31
0.0
210
0.0
220
0.0
230
1.0
  0
TEXT
  8
11
  6
CONTINUOUS
 62
     7
  5
74
 10
958480.545
 20
7292343.286
 30
0.0
 40
8.0
  1
7
 50
87.058472
  7
ROMANS
 72
     1
 11
958480.664722
 21
7292345.615926
 31
0.0
210
0.0
220
0.0
230
1.0
  0
TEXT
  8
11
  6
CONTINUOUS
 62
     7
  5
75
 10
958480.955
 20
7292351.275
 30
0.0
 40
8.0
  1
8
 50
87.058472
  7
ROMANS
 72
     1
 11
958481.074722
 21
7292353.604926
 31
0.0
210
0.0
220
0.0
230
1.0
  0
TEXT
  8
11
  6
CONTINUOUS
 62
     7
  5
76
 10
958481.35
 20
7292358.95
 30
0.0
 40
8.0
  1
0
 50
87.058472
  7
ROMANS
 72
     1
 11
958481.486041
 21
7292361.597507
 31
0.0
210
0.0
220
0.0
230
1.0
  0
TEXT
  8
11
  6
CONTINUOUS
 62
     7
  5
77
 10
958517.722
 20
7292980.642
 30
0.0
 40
8.0
  1
1
 50
86.646347
  7
ROMANS
 72
     1
 11
958517.800037
 21
7292981.973715
 31
0.0
210
0.0
220
0.0
230
1.0
  0
TEXT
  8
11
  6
CONTINUOUS
 62
     7
  5
78
 10
958518.13
 20
7292987.622
 30
0.0
 40
8.0
  1
2
 50
86.646347
  7
ROMANS
 72
     1
 11
958518.266478
 21
7292989.951005
 31
0.0
210
0.0
220
0.0
230
1.0
  0
TEXT
  8
11
  6
CONTINUOUS
 62
     7
  5
79
 10
958518.599
 20
7292995.608
 30
0.0
 40
8.0
  1
3
 50
86.646347
  7
ROMANS
 72
     1
 11
958518.735478
 21
7292997.937005
 31
0.0
210
0.0
220
0.0
230
1.0
  0
TEXT
  8
11
  6
CONTINUOUS
 62
     7
  5
7A
 10
958519.067
 20
7293003.594
 30
0.0
 40
8.0
  1
7
 50
86.646347
  7
ROMANS
 72
     1
 11
958519.203478
 21
7293005.923005
 31
0.0
210
0.0
220
0.0
230
1.0
  0
TEXT
  8
11
  6
CONTINUOUS
 62
     7
  5
7B
 10
958519.594
 20
7293012.588
 30
0.0
 40
8.0
  1
.
 50
86.646347
  7
ROMANS
 72
     1
 11
958519.671336
 21
7293013.907736
 31
0.0
210
0.0
220
0.0
230
1.0
  0
TEXT
  8
11
  6
CONTINUOUS
 62
     7
  5
7C
 10
958520.003
 20
7293019.568
 30
0.0
 40
8.0
  1
5
 50
86.646347
  7
ROMANS
 72
     1
 11
958520.140121
 21
7293021.907986
 31
0.0
210
0.0
220
0.0
230
1.0
  0
TEXT
  8
11
  6
CONTINUOUS
 62
     7
  5
7D
 10
958520.472
 20
7293027.554
 30
0.0
 40
8.0
  1
2
 50
86.646347
  7
ROMANS
 72
     1
 11
958520.608478
 21
7293029.883005
 31
0.0
210
0.0
220
0.0
230
1.0
  0
TEXT
  8
11
  6
CONTINUOUS
 62
     7
  5
7E
 10
958520.999
 20
7293036.547
 30
0.0
 40
8.0
  1
'
 50
86.646347
  7
ROMANS
 72
     1
 11
958521.077037
 21
7293037.878715
 31
0.0
210
0.0
220
0.0
230
1.0
  0
TEXT
  8
11
  6
CONTINUOUS
 62
     7
  5
7F
 10
958555.349
 20
7293896.217
 30
0.0
 40
8.0
  1
.
 50
268.4778
  7
ROMANS
 72
     1
 11
958563.311059
 21
7293894.682952
 31
0.0
210
0.0
220
0.0
230
1.0
 73
     3
  0
TEXT
  8
11
  6
CONTINUOUS
 62
     7
  5
80
 10
958438.372
 20
7288778.281
 30
0.0
 40
8.0
  1
30'
 50
358.4778
  7
ROMANS
210
0.0
220
0.0
230
1.0
  0
TEXT
  8
11
  6
CONTINUOUS
 62
     7
  5
81
 10
958402.65
 20
7288779.467
 30
0.0
 40
8.0
  1
30'
 50
88.4778
  7
ROMANS
210
0.0
220
0.0
230
1.0
  0
TEXT
  8
11
  6
CONTINUOUS
 62
     7
  5
82
 10
953272.768
 20
7288917.269
 30
0.0
 40
8.0
  1
30'
 50
88.4778
  7
ROMANS
210
0.0
220
0.0
230
1.0
  0
TEXT
  8
11
  6
CONTINUOUS
 62
     7
  5
83
 10
953554.819
 20
7293413.007
 30
0.0
 40
8.0
  1
1
 50
268.4778
  7
ROMANS
 72
     1
 11
953554.78359
 21
7293411.67447
 31
0.0
210
0.0
220
0.0
230
1.0
  0
TEXT
  8
11
  6
CONTINUOUS
 62
     7
  5
84
 10
953554.633
 20
7293406.018
 30
0.0
 40
8.0
  1
4
 50
268.4778
  7
ROMANS
 72
     1
 11
953554.571026
 21
7293403.685823
 31
0.0
210
0.0
220
0.0
230
1.0
  0
TEXT
  8
11
  6
CONTINUOUS
 62
     7
  5
85
 10
953554.42
 20
7293398.021
 30
0.0
 40
8.0
  1
2
 50
268.4778
  7
ROMANS
 72
     1
 11
953554.358026
 21
7293395.688823
 31
0.0
210
0.0
220
0.0
230
1.0
  0
TEXT
  8
11
  6
CONTINUOUS
 62
     7
  5
86
 10
953554.207
 20
7293390.023
 30
0.0
 40
8.0
  1
9
 50
268.4778
  7
ROMANS
 72
     1
 11
953554.145026
 21
7293387.690823
 31
0.0
210
0.0
220
0.0
230
1.0
  0
TEXT
  8
11
  6
CONTINUOUS
 62
     7
  5
87
 10
953553.968
 20
7293381.019
 30
0.0
 40
8.0
  1
.
 50
268.4778
  7
ROMANS
 72
     1
 11
953553.932882
 21
7293379.697467
 31
0.0
210
0.0
220
0.0
230
1.0
  0
TEXT
  8
11
  6
CONTINUOUS
 62
     7
  5
88
 10
953553.783
 20
7293374.029
 30
0.0
 40
8.0
  1
5
 50
268.4778
  7
ROMANS
 72
     1
 11
953553.720733
 21
7293371.685827
 31
0.0
210
0.0
220
0.0
230
1.0
  0
TEXT
  8
11
  6
CONTINUOUS
 62
     7
  5
89
 10
953553.57
 20
7293366.033
 30
0.0
 40
8.0
  1
5
 50
268.4778
  7
ROMANS
 72
     1
 11
953553.507733
 21
7293363.689827
 31
0.0
210
0.0
220
0.0
230
1.0
  0
TEXT
  8
11
  6
CONTINUOUS
 62
     7
  5
8A
 10
953553.331
 20
7293357.028
 30
0.0
 40
8.0
  1
'
 50
268.4778
  7
ROMANS
 72
     1
 11
953553.29559
 21
7293355.69547
 31
0.0
210
0.0
220
0.0
230
1.0
  0
TEXT
  8
11
  6
CONTINUOUS
 62
     7
  5
8B
 10
953560.497
 20
7293626.696
 30
0.0
 40
8.0
  1
S
 50
268.4778
  7
ROMANS
 72
     1
 11
953560.430217
 21
7293624.182887
 31
0.0
210
0.0
220
0.0
230
1.0
  0
TEXT
  8
11
  6
CONTINUOUS
 62
     7
  5
8C
 10
953560.253
 20
7293617.502
 30
0.0
 40
8.0
  1
1
 50
268.4778
  7
ROMANS
 72
     1
 11
953560.21759
 21
7293616.16947
 31
0.0
210
0.0
220
0.0
230
1.0
  0
TEXT
  8
11
  6
CONTINUOUS
 62
     7
  5
8D
 10
953560.043
 20
7293609.632
 30
0.0
 40
8.0
  1
%%d
 50
268.4778
  7
ROMANS
 72
     1
 11
953560.004827
 21
7293608.195507
 31
0.0
210
0.0
220
0.0
230
1.0
  0
TEXT
  8
11
  6
CONTINUOUS
 62
     7
  5
8E
 10
953559.854
 20
7293602.516
 30
0.0
 40
8.0
  1
7
 50
268.4778
  7
ROMANS
 72
     1
 11
953559.792026
 21
7293600.183823
 31
0.0
210
0.0
220
0.0
230
1.0
  0
TEXT
  8
11
  6
CONTINUOUS
 62
     7
  5
8F
 10
953559.615
 20
7293593.511
 30
0.0
 40
8.0
  1
'
 50
268.4778
  7
ROMANS
 72
     1
 11
953559.57959
 21
7293592.17847
 31
0.0
210
0.0
220
0.0
230
1.0
  0
TEXT
  8
11
  6
CONTINUOUS
 62
     7
  5
90
 10
953559.433
 20
7293586.679
 30
0.0
 40
8.0
  1
E
 50
268.4778
  7
ROMANS
 72
     1
 11
953559.366589
 21
7293584.179882
 31
0.0
210
0.0
220
0.0
230
1.0
  0
TEXT
  8
11
  6
CONTINUOUS
 62
     7
  5
91
 10
953551.826
 20
7292219.716
 30
0.0
 40
8.0
  1
1
 50
271.527806
  7
ROMANS
 72
     1
 11
953551.861541
 21
7292218.383474
 31
0.0
210
0.0
220
0.0
230
1.0
  0
TEXT
  8
11
  6
CONTINUOUS
 62
     7
  5
92
 10
953552.012
 20
7292212.727
 30
0.0
 40
8.0
  1
4
 50
271.527806
  7
ROMANS
 72
     1
 11
953552.074203
 21
7292210.394829
 31
0.0
210
0.0
220
0.0
230
1.0
  0
TEXT
  8
11
  6
CONTINUOUS
 62
     7
  5
93
 10
953552.217
 20
7292205.044
 30
0.0
 40
8.0
  1
0
 50
271.527806
  7
ROMANS
 72
     1
 11
953552.287681
 21
7292202.393942
 31
0.0
210
0.0
220
0.0
230
1.0
  0
TEXT
  8
11
  6
CONTINUOUS
 62
     7
  5
94
 10
953552.434
 20
7292196.921
 30
0.0
 40
8.0
  1
6
 50
271.527806
  7
ROMANS
 72
     1
 11
953552.501188
 21
7292194.401896
 31
0.0
210
0.0
220
0.0
230
1.0
  0
TEXT
  8
11
  6
CONTINUOUS
 62
     7
  5
95
 10
953552.68
 20
7292187.728
 30
0.0
 40
8.0
  1
.
 50
271.527806
  7
ROMANS
 72
     1
 11
953552.715247
 21
7292186.40647
 31
0.0
210
0.0
220
0.0
230
1.0
  0
TEXT
  8
11
  6
CONTINUOUS
 62
     7
  5
96
 10
953552.865
 20
7292180.739
 30
0.0
 40
8.0
  1
3
 50
271.527806
  7
ROMANS
 72
     1
 11
953552.927203
 21
7292178.406829
 31
0.0
210
0.0
220
0.0
230
1.0
  0
TEXT
  8
11
  6
CONTINUOUS
 62
     7
  5
97
 10
953553.079
 20
7292172.742
 30
0.0
 40
8.0
  1
8
 50
271.527806
  7
ROMANS
 72
     1
 11
953553.141203
 21
7292170.409829
 31
0.0
210
0.0
220
0.0
230
1.0
  0
TEXT
  8
11
  6
CONTINUOUS
 62
     7
  5
98
 10
953553.32
 20
7292163.735
 30
0.0
 40
8.0
  1
'
 50
271.527806
  7
ROMANS
 72
     1
 11
953553.355541
 21
7292162.402474
 31
0.0
210
0.0
220
0.0
230
1.0
  0
TEXT
  8
11
  6
CONTINUOUS
 62
     7
  5
99
 10
953553.462
 20
7292158.384
 30
0.0
 40
8.0
  1
 
 50
271.527806
  7
ROMANS
 72
     1
 11
953553.533081
 21
7292155.718948
 31
0.0
210
0.0
220
0.0
230
1.0
  0
TEXT
  8
11
  6
CONTINUOUS
 62
     7
  5
9A
 10
953553.675
 20
7292150.386
 30
0.0
 40
8.0
  1
 
 50
271.527806
  7
ROMANS
 72
     1
 11
953553.746081
 21
7292147.720948
 31
0.0
210
0.0
220
0.0
230
1.0
  0
TEXT
  8
11
  6
CONTINUOUS
 62
     7
  5
9B
 10
953553.888
 20
7292142.389
 30
0.0
 40
8.0
  1
 
 50
271.527806
  7
ROMANS
 72
     1
 11
953553.959081
 21
7292139.723948
 31
0.0
210
0.0
220
0.0
230
1.0
  0
TEXT
  8
11
  6
CONTINUOUS
 62
     7
  5
9C
 10
953554.102
 20
7292134.392
 30
0.0
 40
8.0
  1
 
 50
271.527806
  7
ROMANS
 72
     1
 11
953554.173081
 21
7292131.726948
 31
0.0
210
0.0
220
0.0
230
1.0
  0
TEXT
  8
11
  6
CONTINUOUS
 62
     7
  5
9D
 10
953554.315
 20
7292126.395
 30
0.0
 40
8.0
  1
 
 50
271.527806
  7
ROMANS
 72
     1
 11
953554.386081
 21
7292123.729948
 31
0.0
210
0.0
220
0.0
230
1.0
  0
TEXT
  8
11
  6
CONTINUOUS
 62
     7
  5
9E
 10
953554.567
 20
7292116.949
 30
0.0
 40
8.0
  1
S
 50
271.527806
  7
ROMANS
 72
     1
 11
953554.634028
 21
7292114.435894
 31
0.0
210
0.0
220
0.0
230
1.0
  0
TEXT
  8
11
  6
CONTINUOUS
 62
     7
  5
9F
 10
953554.785
 20
7292108.764
 30
0.0
 40
8.0
  1
3
 50
271.527806
  7
ROMANS
 72
     1
 11
953554.847203
 21
7292106.431829
 31
0.0
210
0.0
220
0.0
230
1.0
  0
TEXT
  8
11
  6
CONTINUOUS
 62
     7
  5
A0
 10
953555.022
 20
7292099.885
 30
0.0
 40
8.0
  1
%%d
 50
271.527806
  7
ROMANS
 72
     1
 11
953555.060313
 21
7292098.448511
 31
0.0
210
0.0
220
0.0
230
1.0
  0
TEXT
  8
11
  6
CONTINUOUS
 62
     7
  5
A1
 10
953555.211
 20
7292092.769
 30
0.0
 40
8.0
  1
3
 50
271.527806
  7
ROMANS
 72
     1
 11
953555.273203
 21
7292090.436829
 31
0.0
210
0.0
220
0.0
230
1.0
  0
TEXT
  8
11
  6
CONTINUOUS
 62
     7
  5
A2
 10
953555.452
 20
7292083.765
 30
0.0
 40
8.0
  1
'
 50
271.527806
  7
ROMANS
 72
     1
 11
953555.487541
 21
7292082.432474
 31
0.0
210
0.0
220
0.0
230
1.0
  0
TEXT
  8
11
  6
CONTINUOUS
 62
     7
  5
A3
 10
953555.635
 20
7292076.931
 30
0.0
 40
8.0
  1
E
 50
271.527806
  7
ROMANS
 72
     1
 11
953555.701655
 21
7292074.431889
 31
0.0
210
0.0
220
0.0
230
1.0
  0
TEXT
  8
11
  6
CONTINUOUS
 62
     7
  5
A4
 10
953493.612
 20
7290857.681
 30
0.0
 40
8.0
  1
1
 50
79.761156
  7
ROMANS
 72
     1
 11
953485.976519
 21
7290860.415772
 31
0.0
210
0.0
220
0.0
230
1.0
 73
     3
  0
TEXT
  8
11
  6
CONTINUOUS
 62
     7
  5
A5
 10
953494.8
 20
7290864.252
 30
0.0
 40
8.0
  1
0
 50
79.761156
  7
ROMANS
 72
     1
 11
953487.398618
 21
7290868.282799
 31
0.0
210
0.0
220
0.0
230
1.0
 73
     3
  0
TEXT
  8
11
  6
CONTINUOUS
 62
     7
  5
A6
 10
953496.222
 20
7290872.125
 30
0.0
 40
8.0
  1
0
 50
79.761156
  7
ROMANS
 72
     1
 11
953488.820618
 21
7290876.155799
 31
0.0
210
0.0
220
0.0
230
1.0
 73
     3
  0
TEXT
  8
11
  6
CONTINUOUS
 62
     7
  5
A7
 10
953497.699
 20
7290880.307
 30
0.0
 40
8.0
  1
5
 50
79.761156
  7
ROMANS
 72
     1
 11
953490.243048
 21
7290884.035688
 31
0.0
210
0.0
220
0.0
230
1.0
 73
     3
  0
TEXT
  8
11
  6
CONTINUOUS
 62
     7
  5
A8
 10
953499.301
 20
7290889.172
 30
0.0
 40
8.0
  1
.
 50
79.761156
  7
ROMANS
 72
     1
 11
953491.663385
 21
7290891.894963
 31
0.0
210
0.0
220
0.0
230
1.0
 73
     3
  0
TEXT
  8
11
  6
CONTINUOUS
 62
     7
  5
A9
 10
953500.543
 20
7290896.052
 30
0.0
 40
8.0
  1
2
 50
79.761156
  7
ROMANS
 72
     1
 11
953493.085093
 21
7290899.769863
 31
0.0
210
0.0
220
0.0
230
1.0
 73
     3
  0
TEXT
  8
11
  6
CONTINUOUS
 62
     7
  5
AA
 10
953501.966
 20
7290903.925
 30
0.0
 40
8.0
  1
4
 50
79.761156
  7
ROMANS
 72
     1
 11
953494.508093
 21
7290907.642863
 31
0.0
210
0.0
220
0.0
230
1.0
 73
     3
  0
TEXT
  8
11
  6
CONTINUOUS
 62
     7
  5
AB
 10
953503.566
 20
7290912.79
 30
0.0
 40
8.0
  1
'
 50
79.761156
  7
ROMANS
 72
     1
 11
953495.930519
 21
7290915.524772
 31
0.0
210
0.0
220
0.0
230
1.0
 73
     3
  0
TEXT
  8
11
  6
CONTINUOUS
 62
     7
  5
AC
 10
953504.519
 20
7290918.057
 30
0.0
 40
8.0
  1
 
 50
79.761156
  7
ROMANS
 72
     1
 11
953497.120284
 21
7290922.10256
 31
0.0
210
0.0
220
0.0
230
1.0
 73
     3
  0
TEXT
  8
11
  6
CONTINUOUS
 62
     7
  5
AD
 10
953505.941
 20
7290925.93
 30
0.0
 40
8.0
  1
 
 50
79.761156
  7
ROMANS
 72
     1
 11
953498.542284
 21
7290929.97556
 31
0.0
210
0.0
220
0.0
230
1.0
 73
     3
  0
TEXT
  8
11
  6
CONTINUOUS
 62
     7
  5
AE
 10
953507.362
 20
7290933.802
 30
0.0
 40
8.0
  1
 
 50
79.761156
  7
ROMANS
 72
     1
 11
953499.963284
 21
7290937.84756
 31
0.0
210
0.0
220
0.0
230
1.0
 73
     3
  0
TEXT
  8
11
  6
CONTINUOUS
 62
     7
  5
AF
 10
953508.785
 20
7290941.675
 30
0.0
 40
8.0
  1
 
 50
79.761156
  7
ROMANS
 72
     1
 11
953501.386284
 21
7290945.72056
 31
0.0
210
0.0
220
0.0
230
1.0
 73
     3
  0
TEXT
  8
11
  6
CONTINUOUS
 62
     7
  5
B0
 10
953510.464
 20
7290950.975
 30
0.0
 40
8.0
  1
S
 50
79.761156
  7
ROMANS
 72
     1
 11
953503.038266
 21
7290954.870981
 31
0.0
210
0.0
220
0.0
230
1.0
 73
     3
  0
TEXT
  8
11
  6
CONTINUOUS
 62
     7
  5
B1
 10
953511.919
 20
7290959.033
 30
0.0
 40
8.0
  1
8
 50
79.761156
  7
ROMANS
 72
     1
 11
953504.461093
 21
7290962.750863
 31
0.0
210
0.0
220
0.0
230
1.0
 73
     3
  0
TEXT
  8
11
  6
CONTINUOUS
 62
     7
  5
B2
 10
953513.499
 20
7290967.773
 30
0.0
 40
8.0
  1
%%d
 50
79.761156
  7
ROMANS
 72
     1
 11
953505.881827
 21
7290970.609132
 31
0.0
210
0.0
220
0.0
230
1.0
 73
     3
  0
TEXT
  8
11
  6
CONTINUOUS
 62
     7
  5
B3
 10
953514.763
 20
7290974.779
 30
0.0
 40
8.0
  1
4
 50
79.761156
  7
ROMANS
 72
     1
 11
953507.305093
 21
7290978.496863
 31
0.0
210
0.0
220
0.0
230
1.0
 73
     3
  0
TEXT
  8
11
  6
CONTINUOUS
 62
     7
  5
B4
 10
953516.186
 20
7290982.652
 30
0.0
 40
8.0
  1
3
 50
79.761156
  7
ROMANS
 72
     1
 11
953508.728093
 21
7290986.369863
 31
0.0
210
0.0
220
0.0
230
1.0
 73
     3
  0
TEXT
  8
11
  6
CONTINUOUS
 62
     7
  5
B5
 10
953517.787
 20
7290991.516
 30
0.0
 40
8.0
  1
'
 50
79.761156
  7
ROMANS
 72
     1
 11
953510.151519
 21
7290994.250772
 31
0.0
210
0.0
220
0.0
230
1.0
 73
     3
  0
TEXT
  8
11
  6
CONTINUOUS
 62
     7
  5
B6
 10
953519.002
 20
7290998.241
 30
0.0
 40
8.0
  1
E
 50
79.761156
  7
ROMANS
 72
     1
 11
953511.573777
 21
7291002.123204
 31
0.0
210
0.0
220
0.0
230
1.0
 73
     3
  0
TEXT
  8
11
  6
CONTINUOUS
 62
     7
  5
B7
 10
953334.281
 20
7290090.349
 30
0.0
 40
8.0
  1
3
 50
70.861167
  7
ROMANS
 72
     1
 11
953327.488078
 21
7290095.175914
 31
0.0
210
0.0
220
0.0
230
1.0
 73
     3
  0
TEXT
  8
11
  6
CONTINUOUS
 62
     7
  5
B8
 10
953336.973
 20
7290098.102
 30
0.0
 40
8.0
  1
8
 50
71.944175
  7
ROMANS
 72
     1
 11
953330.090058
 21
7290102.799659
 31
0.0
210
0.0
220
0.0
230
1.0
 73
     3
  0
TEXT
  8
11
  6
CONTINUOUS
 62
     7
  5
B9
 10
953339.356
 20
7290105.409
 30
0.0
 40
8.0
  1
0
 50
71.944175
  7
ROMANS
 72
     1
 11
953332.57162
 21
7290110.408999
 31
0.0
210
0.0
220
0.0
230
1.0
 73
     3
  0
TEXT
  8
11
  6
CONTINUOUS
 62
     7
  5
BA
 10
953342.246
 20
7290114.272
 30
0.0
 40
8.0
  1
.
 50
71.944175
  7
ROMANS
 72
     1
 11
953335.049705
 21
7290118.008446
 31
0.0
210
0.0
220
0.0
230
1.0
 73
     3
  0
TEXT
  8
11
  6
CONTINUOUS
 62
     7
  5
BB
 10
953344.412
 20
7290120.921
 30
0.0
 40
8.0
  1
9
 50
71.944175
  7
ROMANS
 72
     1
 11
953337.529058
 21
7290125.618659
 31
0.0
210
0.0
220
0.0
230
1.0
 73
     3
  0
TEXT
  8
11
  6
CONTINUOUS
 62
     7
  5
BC
 10
953346.937
 20
7290128.533
 30
0.0
 40
8.0
  1
6
 50
73.027186
  7
ROMANS
 72
     1
 11
953340.021086
 21
7290133.278581
 31
0.0
210
0.0
220
0.0
230
1.0
 73
     3
  0
TEXT
  8
11
  6
CONTINUOUS
 62
     7
  5
BD
 10
953349.62
 20
7290137.33
 30
0.0
 40
8.0
  1
'
 50
73.027186
  7
ROMANS
 72
     1
 11
953342.35758
 21
7290140.940282
 31
0.0
210
0.0
220
0.0
230
1.0
 73
     3
  0
TEXT
  8
19
  6
CONTINUOUS
 62
     1
  5
BE
 10
958461.644
 20
7289902.762
 30
0.0
 40
24.0
  1
N. MARTIN LUTHER KING, JR. BLVD.
 50
88.4778
  7
ROMANC
210
0.0
220
0.0
230
1.0
  0
TEXT
  8
19
  6
CONTINUOUS
 62
     1
  5
BF
 10
958533.298
 20
7292192.162
 30
0.0
 40
24.0
  1
N. MARTIN LUTHER KING, JR. BLVD.
 50
88.4778
  7
ROMANC
210
0.0
220
0.0
230
1.0
  0
TEXT
  8
11
  6
CONTINUOUS
 62
     7
  5
C0
 10
953243.086
 20
7289389.94
 30
0.0
 40
8.0
  1
936.64'
 50
88.4778
  7
ROMANS
 72
     4
 11
953239.760364
 21
7289415.370317
 31
0.0
210
0.0
220
0.0
230
1.0
  0
TEXT
  8
11
  6
CONTINUOUS
 62
     7
  5
C1
 10
955765.258
 20
7288881.091
 30
0.0
 40
8.0
  1
5175'
 50
358.4778
  7
ROMANS
 72
     4
 11
955782.69114
 21
7288884.62915
 31
0.0
210
0.0
220
0.0
230
1.0
  0
POLYLINE
  8
1
  6
HIDDEN
 62
   253
  5
C3
 66
     1
 10
0.0
 20
0.0
 30
0.0
 70
     1
  0
VERTEX
  8
1
  6
HIDDEN
 62
   253
  5
C4
 10
953215.409
 20
7289018.104
 30
0.0
  0
VERTEX
  8
1
  6
HIDDEN
 62
   253
  5
C5
 10
958354.864
 20
7288863.685
 30
0.0
  0
VERTEX
  8
1
  6
HIDDEN
 62
   253
  5
C6
 10
958501.413
 20
7294182.982
 30
0.0
  0
VERTEX
  8
1
  6
HIDDEN
 62
   253
  5
C7
 10
953381.17
 20
7294325.276
 30
0.0
  0
SEQEND
  8
1
  6
HIDDEN
 62
   253
  5
C8
  0
LINE
  8
6
  6
CONTINUOUS
 62
     7
  5
C9
 10
957636.52
 20
7289829.911
 30
0.0
 11
958414.049
 21
7289799.704
 31
0.0
  0
LINE
  8
6
  6
CONTINUOUS
 62
     7
  5
CA
 10
957608.519
 20
7288830.884
 30
0.0
 11
957636.52
 21
7289829.911
 31
0.0
  0
TEXT
  8
11
  6
CONTINUOUS
 62
     7
  5
CB
 10
958033.971
 20
7289814.287
 30
0.0
 40
8.0
  1
800'
 50
358.4778
  7
ROMANS
 72
     1
 11
958047.299295
 21
7289813.932818
 31
0.0
210
0.0
220
0.0
230
1.0
  0
TEXT
  8
11
  6
CONTINUOUS
 62
     7
  5
CC
 10
957624.514
 20
7289326.936
 30
0.0
 40
8.0
  1
1000'
 50
88.4778
  7
ROMANS
 72
     1
 11
957624.974439
 21
7289344.262883
 31
0.0
210
0.0
220
0.0
230
1.0
  0
TEXT
  8
11
  6
CONTINUOUS
 62
     7
  5
CD
 10
958020.591
 20
7288819.227
 30
0.0
 40
8.0
  1
805.50'
 50
358.4778
  7
ROMANS
 72
     4
 11
958046.021317
 21
7288822.552636
 31
0.0
210
0.0
220
0.0
230
1.0
  0
TEXT
  8
22
  6
CONTINUOUS
 62
     3
  5
CF
 10
957969.853
 20
7289400.456
 30
0.0
 40
8.0
  1
WARRANTY  DEED
 50
358.4778
  7
ROMANS
 72
     4
 11
958024.486008
 21
7289403.005613
 31
0.0
210
0.0
220
0.0
230
1.0
  0
TEXT
  8
19
  6
CONTINUOUS
 62
     1
  5
D0
 10
953215.389
 20
7289218.892
 30
0.0
 40
24.0
  1
ASH AVE (AVE. A)
 50
88.4778
  7
ROMANC
 72
     4
 11
953208.382829
 21
7289406.975487
 31
0.0
210
0.0
220
0.0
230
1.0
  0
TEXT
  8
19
  6
CONTINUOUS
 62
     1
  5
D1
 10
957194.552
 20
7294136.825
 30
0.0
 40
24.0
  1
EAST KENT ST
 50
358.4778
  7
ROMANC
 72
     4
 11
957346.839124
 21
7294144.782411
 31
0.0
210
0.0
220
0.0
230
1.0
  0
TEXT
  8
19
  6
CONTINUOUS
 62
     1
  5
D2
 10
954661.056
 20
7294200.431
 30
0.0
 40
24.0
  1
EAST KENT ST
 50
358.4778
  7
ROMANC
 72
     4
 11
954813.343124
 21
7294208.388411
 31
0.0
210
0.0
220
0.0
230
1.0
  0
TEXT
  8
11
  6
CONTINUOUS
 62
     7
  5
D3
 10
958433.564
 20
7289554.39
 30
0.0
 40
8.0
  1
5
 50
90.389492
  7
ROMANS
 72
     1
 11
958425.548251
 21
7289556.679563
 31
0.0
210
0.0
220
0.0
230
1.0
 73
     3
  0
TEXT
  8
11
  6
CONTINUOUS
 62
     7
  5
D4
 10
958433.51
 20
7289562.328
 30
0.0
 40
8.0
  1
9
 50
90.389492
  7
ROMANS
 72
     1
 11
958425.494325
 21
7289564.606563
 31
0.0
210
0.0
220
0.0
230
1.0
 73
     3
  0
TEXT
  8
11
  6
CONTINUOUS
 62
     7
  5
D5
 10
958433.456
 20
7289570.265
 30
0.0
 40
8.0
  1
8
 50
90.389492
  7
ROMANS
 72
     1
 11
958425.440325
 21
7289572.543563
 31
0.0
210
0.0
220
0.0
230
1.0
 73
     3
  0
TEXT
  8
11
  6
CONTINUOUS
 62
     7
  5
D6
 10
958433.403
 20
7289578.201
 30
0.0
 40
8.0
  1
.
 50
90.389492
  7
ROMANS
 72
     1
 11
958425.394198
 21
7289579.468587
 31
0.0
210
0.0
220
0.0
230
1.0
 73
     3
  0
TEXT
  8
11
  6
CONTINUOUS
 62
     7
  5
D7
 10
958433.348
 20
7289586.139
 30
0.0
 40
8.0
  1
8
 50
90.389492
  7
ROMANS
 72
     1
 11
958425.332325
 21
7289588.417563
 31
0.0
210
0.0
220
0.0
230
1.0
 73
     3
  0
TEXT
  8
11
  6
CONTINUOUS
 62
     7
  5
D8
 10
958433.295
 20
7289594.074
 30
0.0
 40
8.0
  1
0
 50
90.389492
  7
ROMANS
 72
     1
 11
958425.277164
 21
7289596.670556
 31
0.0
210
0.0
220
0.0
230
1.0
 73
     3
  0
TEXT
  8
11
  6
CONTINUOUS
 62
     7
  5
D9
 10
958433.241
 20
7289602.011
 30
0.0
 40
8.0
  1
'
 50
90.389492
  7
ROMANS
 72
     1
 11
958425.232123
 21
7289603.289586
 31
0.0
210
0.0
220
0.0
230
1.0
 73
     3
  0
TEXT
  8
11
  6
CONTINUOUS
 62
     7
  5
DA
 10
958560.035
 20
7293866.44
 30
0.0
 40
8.0
  1
3
 50
88.4778
  7
ROMANS
 72
     1
 11
958552.099798
 21
7293868.984691
 31
0.0
210
0.0
220
0.0
230
1.0
 73
     3
  0
TEXT
  8
11
  6
CONTINUOUS
 62
     7
  5
DB
 10
958560.275
 20
7293875.445
 30
0.0
 40
8.0
  1
1
 50
88.4778
  7
ROMANS
 72
     1
 11
958552.313233
 21
7293876.990044
 31
0.0
210
0.0
220
0.0
230
1.0
 73
     3
  0
TEXT
  8
11
  6
CONTINUOUS
 62
     7
  5
DC
 10
958560.461
 20
7293882.434
 30
0.0
 40
8.0
  1
9
 50
88.4778
  7
ROMANS
 72
     1
 11
958552.525798
 21
7293884.978691
 31
0.0
210
0.0
220
0.0
230
1.0
 73
     3
  0
TEXT
  8
11
  6
CONTINUOUS
 62
     7
  5
DD
 10
958560.7
 20
7293891.439
 30
0.0
 40
8.0
  1
.
 50
88.4778
  7
ROMANS
 72
     1
 11
958552.737941
 21
7293892.973048
 31
0.0
210
0.0
220
0.0
230
1.0
 73
     3
  0
TEXT
  8
11
  6
CONTINUOUS
 62
     7
  5
DE
 10
958560.886
 20
7293898.429
 30
0.0
 40
8.0
  1
8
 50
88.4778
  7
ROMANS
 72
     1
 11
958552.950798
 21
7293900.973691
 31
0.0
210
0.0
220
0.0
230
1.0
 73
     3
  0
TEXT
  8
11
  6
CONTINUOUS
 62
     7
  5
DF
 10
958561.098
 20
7293906.425
 30
0.0
 40
8.0
  1
8
 50
88.4778
  7
ROMANS
 72
     1
 11
958553.162798
 21
7293908.969691
 31
0.0
210
0.0
220
0.0
230
1.0
 73
     3
  0
TEXT
  8
11
  6
CONTINUOUS
 62
     7
  5
E0
 10
958561.337
 20
7293915.431
 30
0.0
 40
8.0
  1
'
 50
88.4778
  7
ROMANS
 72
     1
 11
958553.375233
 21
7293916.976044
 31
0.0
210
0.0
220
0.0
230
1.0
 73
     3
  0
TEXT
  8
11
  6
CONTINUOUS
 62
     7
  5
E1
 10
958437.414
 20
7289052.14
 30
0.0
 40
8.0
  1
1
 50
89.948758
  7
ROMANS
 72
     1
 11
958429.415195
 21
7289053.480154
 31
0.0
210
0.0
220
0.0
230
1.0
 73
     3
  0
TEXT
  8
11
  6
CONTINUOUS
 62
     7
  5
E2
 10
958437.419
 20
7289059.132
 30
0.0
 40
8.0
  1
7
 50
89.948758
  7
ROMANS
 72
     1
 11
958429.42109
 21
7289061.472154
 31
0.0
210
0.0
220
0.0
230
1.0
 73
     3
  0
TEXT
  8
11
  6
CONTINUOUS
 62
     7
  5
E3
 10
958437.426
 20
7289066.817
 30
0.0
 40
8.0
  1
0
 50
89.948758
  7
ROMANS
 72
     1
 11
958429.428374
 21
7289069.475154
 31
0.0
210
0.0
220
0.0
230
1.0
 73
     3
  0
TEXT
  8
11
  6
CONTINUOUS
 62
     7
  5
E4
 10
958437.435
 20
7289076.141
 30
0.0
 40
8.0
  1
.
 50
89.948758
  7
ROMANS
 72
     1
 11
958429.436186
 21
7289077.470154
 31
0.0
210
0.0
220
0.0
230
1.0
 73
     3
  0
TEXT
  8
11
  6
CONTINUOUS
 62
     7
  5
E5
 10
958437.441
 20
7289083.132
 30
0.0
 40
8.0
  1
8
 50
89.948758
  7
ROMANS
 72
     1
 11
958429.44309
 21
7289085.472154
 31
0.0
210
0.0
220
0.0
230
1.0
 73
     3
  0
TEXT
  8
11
  6
CONTINUOUS
 62
     7
  5
E6
 10
958437.468
 20
7289091.025
 30
0.0
 40
8.0
  1
4
 50
89.390519
  7
ROMANS
 72
     1
 11
958429.493269
 21
7289093.442966
 31
0.0
210
0.0
220
0.0
230
1.0
 73
     3
  0
TEXT
  8
11
  6
CONTINUOUS
 62
     7
  5
E7
 10
958437.535
 20
7289097.386
 30
0.0
 40
8.0
  1
 
 50
89.390519
  7
ROMANS
 72
     1
 11
958429.563812
 21
7289100.136947
 31
0.0
210
0.0
220
0.0
230
1.0
 73
     3
  0
TEXT
  8
11
  6
CONTINUOUS
 62
     7
  5
E8
 10
958437.621
 20
7289105.386
 30
0.0
 40
8.0
  1
 
 50
89.390519
  7
ROMANS
 72
     1
 11
958429.649812
 21
7289108.136947
 31
0.0
210
0.0
220
0.0
230
1.0
 73
     3
  0
TEXT
  8
11
  6
CONTINUOUS
 62
     7
  5
E9
 10
958437.706
 20
7289113.386
 30
0.0
 40
8.0
  1
 
 50
89.390519
  7
ROMANS
 72
     1
 11
958429.734812
 21
7289116.136947
 31
0.0
210
0.0
220
0.0
230
1.0
 73
     3
  0
TEXT
  8
11
  6
CONTINUOUS
 62
     7
  5
EA
 10
958437.807
 20
7289122.834
 30
0.0
 40
8.0
  1
R
 50
89.390519
  7
ROMANS
 72
     1
 11
958429.834258
 21
7289125.438955
 31
0.0
210
0.0
220
0.0
230
1.0
 73
     3
  0
TEXT
  8
11
  6
CONTINUOUS
 62
     7
  5
EB
 10
958437.884
 20
7289130.014
 30
0.0
 40
8.0
  1
=
 50
89.390519
  7
ROMANS
 72
     1
 11
958429.919907
 21
7289133.431909
 31
0.0
210
0.0
220
0.0
230
1.0
 73
     3
  0
TEXT
  8
11
  6
CONTINUOUS
 62
     7
  5
EC
 10
958437.979
 20
7289139.023
 30
0.0
 40
8.0
  1
5
 50
89.390519
  7
ROMANS
 72
     1
 11
958430.004386
 21
7289141.451965
 31
0.0
210
0.0
220
0.0
230
1.0
 73
     3
  0
TEXT
  8
11
  6
CONTINUOUS
 62
     7
  5
ED
 10
958438.035
 20
7289146.717
 30
0.0
 40
8.0
  1
6
 50
88.782039
  7
ROMANS
 72
     1
 11
958430.090372
 21
7289149.406477
 31
0.0
210
0.0
220
0.0
230
1.0
 73
     3
  0
TEXT
  8
11
  6
CONTINUOUS
 62
     7
  5
EE
 10
958438.21
 20
7289154.903
 30
0.0
 40
8.0
  1
7
 50
88.782039
  7
ROMANS
 72
     1
 11
958430.261397
 21
7289157.40552
 31
0.0
210
0.0
220
0.0
230
1.0
 73
     3
  0
TEXT
  8
11
  6
CONTINUOUS
 62
     7
  5
EF
 10
958438.38
 20
7289162.902
 30
0.0
 40
8.0
  1
4
 50
88.782039
  7
ROMANS
 72
     1
 11
958430.431397
 21
7289165.40452
 31
0.0
210
0.0
220
0.0
230
1.0
 73
     3
  0
TEXT
  8
11
  6
CONTINUOUS
 62
     7
  5
F0
 10
958438.572
 20
7289171.908
 30
0.0
 40
8.0
  1
.
 50
88.782039
  7
ROMANS
 72
     1
 11
958430.601908
 21
7289173.399748
 31
0.0
210
0.0
220
0.0
230
1.0
 73
     3
  0
TEXT
  8
11
  6
CONTINUOUS
 62
     7
  5
F1
 10
958438.719
 20
7289178.899
 30
0.0
 40
8.0
  1
8
 50
88.782039
  7
ROMANS
 72
     1
 11
958430.770397
 21
7289181.40152
 31
0.0
210
0.0
220
0.0
230
1.0
 73
     3
  0
LINE
  8
6
  6
CONTINUOUS
 62
     7
  5
F2
 10
953549.252
 20
7294199.99
 30
0.0
 11
958556.488
 21
7294066.95
 31
0.0
  0
TEXT
  8
19
  6
CONTINUOUS
 62
     1
  5
F3
 10
956622.504
 20
7288817.181
 30
0.0
 40
24.0
  1
E URSULINE ST
 50
358.4778
  7
ROMANC
210
0.0
220
0.0
230
1.0
  0
TEXT
  8
19
  6
CONTINUOUS
 62
     1
  5
F4
 10
954588.877
 20
7288879.262
 30
0.0
 40
24.0
  1
E URSULINE ST
 50
358.4778
  7
ROMANC
210
0.0
220
0.0
230
1.0
  0
TEXT
  8
10
  6
CONTINUOUS
 62
   134
  5
F6
 10
955997.198
 20
7291644.388
 30
0.0
 40
13.999
  1
UNSUBDIVIDED
 50
358.4778
  7
ROMANS
 11
955997.569873
 21
7291658.38206
 31
0.0
210
0.0
220
0.0
230
1.0
 73
     3
  0
TEXT
  8
10
  6
CONTINUOUS
 62
   134
  5
F7
 10
958002.2
 20
7289294.394
 30
0.0
 40
13.999
  1
LOT 1
 50
358.4778
  7
ROMANS
 72
     4
 11
958032.706246
 21
7289300.585809
 31
0.0
210
0.0
220
0.0
230
1.0
  0
TEXT
  8
13
  6
CONTINUOUS
 62
    14
  5
F9
 10
957943.619
 20
7289381.116
 30
0.0
 40
8.0
  1
(VOLUME 5509  PAGE 165.)
 50
358.4778
  7
ROMANS
 72
     4
 11
958037.692085
 21
7289382.617546
 31
0.0
210
0.0
220
0.0
230
1.0
  0
TEXT
  8
15
  6
CONTINUOUS
 62
    30
  5
FB
 10
957699.024
 20
7289229.24
 30
0.0
 40
50.0
  1
LUBBOCK
 50
33.4778
  7
ROMANC
 72
     4
 11
957843.999511
 21
7289355.088876
 31
0.0
210
0.0
220
0.0
230
1.0
  0
TEXT
  8
15
  6
CONTINUOUS
 62
    30
  5
FC
 10
957837.099
 20
7289200.663
 30
0.0
 40
50.0
  1
FIRE
 50
33.4778
  7
ROMANC
 72
     4
 11
957899.160839
 21
7289271.678702
 31
0.0
210
0.0
220
0.0
230
1.0
  0
TEXT
  8
15
  6
CONTINUOUS
 62
    30
  5
FD
 10
957737.435
 20
7289014.862
 30
0.0
 40
50.0
  1
DEPARTMENT
 50
33.4778
  7
ROMANC
 72
     4
 11
957954.322409
 21
7289188.268263
 31
0.0
210
0.0
220
0.0
230
1.0
  0
ENDSEC
  0
EOF
