  0
SECTION
  2
HEADER
  9
$ACADVER
  1
AC1009
  9
$INSBASE
 10
0.0
 20
0.0
 30
0.0
  9
$EXTMIN
 10
932109.885
 20
7289494.315
 30
0.0
  9
$EXTMAX
 10
937528.847
 20
7294911.837
 30
0.0
  9
$LIMMIN
 10
0.0
 20
0.0
  9
$LIMMAX
 10
12.0
 20
9.0
  9
$ORTHOMODE
 70
     0
  9
$REGENMODE
 70
     1
  9
$FILLMODE
 70
     1
  9
$QTEXTMODE
 70
     0
  9
$MIRRTEXT
 70
     1
  9
$DRAGMODE
 70
     2
  9
$LTSCALE
 40
1.0
  9
$OSMODE
 70
     0
  9
$ATTMODE
 70
     1
  9
$TEXTSIZE
 40
0.2
  9
$TRACEWID
 40
0.05
  9
$TEXTSTYLE
  7
STANDARD
  9
$CLAYER
  8
0
  9
$CELTYPE
  6
CONTINUOUS
  9
$CECOLOR
 62
   256
  9
$DIMSCALE
 40
1.0
  9
$DIMASZ
 40
0.18
  9
$DIMEXO
 40
0.0625
  9
$DIMDLI
 40
0.38
  9
$DIMRND
 40
0.0
  9
$DIMDLE
 40
0.0
  9
$DIMEXE
 40
0.18
  9
$DIMTP
 40
0.0
  9
$DIMTM
 40
0.0
  9
$DIMTXT
 40
0.18
  9
$DIMCEN
 40
0.09
  9
$DIMTSZ
 40
0.0
  9
$DIMTOL
 70
     0
  9
$DIMLIM
 70
     0
  9
$DIMTIH
 70
     1
  9
$DIMTOH
 70
     1
  9
$DIMSE1
 70
     0
  9
$DIMSE2
 70
     0
  9
$DIMTAD
 70
     0
  9
$DIMZIN
 70
     0
  9
$DIMBLK
  1

  9
$DIMASO
 70
     1
  9
$DIMSHO
 70
     1
  9
$DIMPOST
  1

  9
$DIMAPOST
  1

  9
$DIMALT
 70
     0
  9
$DIMALTD
 70
     2
  9
$DIMALTF
 40
25.4
  9
$DIMLFAC
 40
1.0
  9
$DIMTOFL
 70
     0
  9
$DIMTVP
 40
0.0
  9
$DIMTIX
 70
     0
  9
$DIMSOXD
 70
     0
  9
$DIMSAH
 70
     0
  9
$DIMBLK1
  1

  9
$DIMBLK2
  1

  9
$DIMSTYLE
  2
STANDARD
  9
$DIMCLRD
 70
     0
  9
$DIMCLRE
 70
     0
  9
$DIMCLRT
 70
     0
  9
$DIMTFAC
 40
1.0
  9
$DIMGAP
 40
0.09
  9
$LUNITS
 70
     2
  9
$LUPREC
 70
     4
  9
$AXISMODE
 70
     0
  9
$AXISUNIT
 10
0.0
 20
0.0
  9
$SKETCHINC
 40
0.1
  9
$FILLETRAD
 40
0.0
  9
$AUNITS
 70
     0
  9
$AUPREC
 70
     0
  9
$MENU
  1
acad
  9
$ELEVATION
 40
0.0
  9
$PELEVATION
 40
0.0
  9
$THICKNESS
 40
0.0
  9
$LIMCHECK
 70
     0
  9
$BLIPMODE
 70
     1
  9
$CHAMFERA
 40
0.0
  9
$CHAMFERB
 40
0.0
  9
$SKPOLY
 70
     0
  9
$TDCREATE
 40
2453013.900196759
  9
$TDUPDATE
 40
2453013.900196759
  9
$TDINDWG
 40
0.0000000000
  9
$TDUSRTIMER
 40
0.0000000000
  9
$USRTIMER
 70
     1
  9
$ANGBASE
 50
0.0
  9
$ANGDIR
 70
     0
  9
$PDMODE
 70
     0
  9
$PDSIZE
 40
0.0
  9
$PLINEWID
 40
0.0
  9
$COORDS
 70
     0
  9
$SPLFRAME
 70
     0
  9
$SPLINETYPE
 70
     6
  9
$SPLINESEGS
 70
    10
  9
$ATTDIA
 70
     0
  9
$ATTREQ
 70
     1
  9
$HANDLING
 70
     1
  9
$HANDSEED
  5
3FB
  9
$SURFTAB1
 70
     6
  9
$SURFTAB2
 70
     6
  9
$SURFTYPE
 70
     6
  9
$SURFU
 70
     6
  9
$SURFV
 70
     6
  9
$UCSNAME
  2

  9
$UCSORG
 10
0.0
 20
0.0
 30
0.0
  9
$UCSXDIR
 10
1.0
 20
0.0
 30
0.0
  9
$UCSYDIR
 10
0.0
 20
1.0
 30
0.0
  9
$PUCSNAME
  2

  9
$PUCSORG
 10
0.0
 20
0.0
 30
0.0
  9
$PUCSXDIR
 10
1.0
 20
0.0
 30
0.0
  9
$PUCSYDIR
 10
0.0
 20
1.0
 30
0.0
  9
$USERI1
 70
     0
  9
$USERI2
 70
     0
  9
$USERI3
 70
     0
  9
$USERI4
 70
     0
  9
$USERI5
 70
     0
  9
$USERR1
 40
0.0
  9
$USERR2
 40
0.0
  9
$USERR3
 40
0.0
  9
$USERR4
 40
0.0
  9
$USERR5
 40
0.0
  9
$WORLDVIEW
 70
     1
  9
$SHADEDGE
 70
     3
  9
$SHADEDIF
 70
    70
  9
$TILEMODE
 70
     1
  9
$MAXACTVP
 70
    16
  9
$PINSBASE
 10
0.0
 20
0.0
 30
0.0
  9
$PLIMCHECK
 70
     0
  9
$PEXTMIN
 10
-1.000000E+20
 20
-1.000000E+20
 30
-1.000000E+20
  9
$PEXTMAX
 10
-1.000000E+20
 20
-1.000000E+20
 30
-1.000000E+20
  9
$PLIMMIN
 10
0.0
 20
0.0
  9
$PLIMMAX
 10
12.0
 20
9.0
  9
$UNITMODE
 70
     0
  9
$VISRETAIN
 70
     0
  9
$PLINEGEN
 70
     1
  9
$PSLTSCALE
 70
     0
  9
$TREEDEPTH
 70
  3020
  9
$DWGCODEPAGE
  3
ansi_1252
  0
ENDSEC
  0
SECTION
  2
TABLES
  0
TABLE
  2
VPORT
 70
     1
  0
VPORT
  2
*ACTIVE
 70
     0
 10
0.0
 20
0.0
 11
1.0
 21
1.0
 12
0.0
 22
0.0
 13
0.0
 23
0.0
 14
0.0
 24
0.0
 15
0.0
 25
0.0
 16
0.0
 26
0.0
 36
1.0
 17
934842.854229
 27
7291866.110498
 37
0.0
 40
5032.752183
 41
1.46304
 42
50.0
 43
0.004
 44
0.0
 50
1.591862
 51
0.0
 71
     0
 72
   100
 73
     1
 74
     0
 75
     0
 76
     0
 77
     0
 78
     0
  0
ENDTAB
  0
TABLE
  2
LTYPE
 70
     7
  0
LTYPE
  2
CONTINUOUS
 70
     0
  3
Solid line
 72
    65
 73
     0
 40
0.0
  0
LTYPE
  2
DOT
 70
    64
  3
. . . . . . . . . . . . . . . . . . . . . . . . . . . . . . . . .
 72
    65
 73
     2
 40
0.25
 49
0.0
 49
-0.25
  0
LTYPE
  2
HIDDEN
 70
    64
  3
__ __ __ __ __ __ __ __ __ __ __ __ __ __ __ __ __ __ __ __ __ 
 72
    65
 73
     2
 40
0.375
 49
0.25
 49
-0.125
  0
LTYPE
  2
DASHED
 70
    64
  3
__ __ __ __ __ __ __ __ __ __ __ __ __ __ __ __ __ __ __ __ __
 72
    65
 73
     2
 40
0.75
 49
0.5
 49
-0.25
  0
LTYPE
  2
DASHDOT
 70
    64
  3
__ . __ . __ . __ . __ . __ . __ . __ . __ . __ . __ . __ . _
 72
    65
 73
     4
 40
1.0
 49
0.5
 49
-0.25
 49
0.0
 49
-0.25
  0
LTYPE
  2
DIVIDE
 70
    64
  3
____ . . ____ . . ____ . . ____ . . ____ . . ____ . . ____ . .
 72
    65
 73
     6
 40
1.25
 49
0.5
 49
-0.25
 49
0.0
 49
-0.25
 49
0.0
 49
-0.25
  0
LTYPE
  2
CENTER
 70
    64
  3
____ _ ____ _ ____ _ ____ _ ____ _ ____ _ ____ _ ____ _ ____ _
 72
    65
 73
     4
 40
2.0
 49
1.25
 49
-0.25
 49
0.25
 49
-0.25
  0
ENDTAB
  0
TABLE
  2
LAYER
 70
    15
  0
LAYER
  2
0
 70
     0
 62
     7
  6
CONTINUOUS
  0
LAYER
  2
CONSTRUCTION_CLASS
 70
     1
 62
     7
  6
CONTINUOUS
  0
LAYER
  2
PATTERN_CLASS
 70
     0
 62
     7
  6
CONTINUOUS
  0
LAYER
  2
6
 70
    64
 62
     7
  6
CONTINUOUS
  0
LAYER
  2
27
 70
    64
 62
     7
  6
CONTINUOUS
  0
LAYER
  2
7
 70
    64
 62
     7
  6
CONTINUOUS
  0
LAYER
  2
15
 70
    64
 62
     7
  6
CONTINUOUS
  0
LAYER
  2
19
 70
    64
 62
     7
  6
CONTINUOUS
  0
LAYER
  2
11
 70
    64
 62
     7
  6
CONTINUOUS
  0
LAYER
  2
21
 70
    64
 62
     7
  6
CONTINUOUS
  0
LAYER
  2
22
 70
    64
 62
     7
  6
CONTINUOUS
  0
LAYER
  2
1
 70
    64
 62
     7
  6
CONTINUOUS
  0
LAYER
  2
10
 70
    64
 62
     7
  6
CONTINUOUS
  0
LAYER
  2
58
 70
    64
 62
     7
  6
CONTINUOUS
  0
LAYER
  2
28
 70
    64
 62
     7
  6
CONTINUOUS
  0
ENDTAB
  0
TABLE
  2
STYLE
 70
     4
  0
STYLE
  2
STANDARD
 70
     0
 40
0.0
 41
1.0
 50
0.0
 71
     0
 42
0.0
  3
txt
  4

  0
STYLE
  2
ROMANC
 70
     0
 40
0.2
 41
1.0
 50
0.0
 71
     0
 42
0.2
  3
ROMANC
  4

  0
STYLE
  2
ROMANS
 70
     0
 40
0.2
 41
1.0
 50
0.0
 71
     0
 42
0.2
  3
ROMANS
  4

  0
STYLE
  2
txt
 70
     0
 40
0.2
 41
1.0
 50
0.0
 71
     0
 42
0.2
  3
TXT
  4

  0
ENDTAB
  0
TABLE
  2
VIEW
 70
     0
  0
ENDTAB
  0
TABLE
  2
UCS
 70
     0
  0
ENDTAB
  0
TABLE
  2
APPID
 70
     1
  0
APPID
  2
ACAD
 70
     0
  0
ENDTAB
  0
TABLE
  2
DIMSTYLE
 70
     1
  0
DIMSTYLE
  2
STANDARD
 70
     0
  3

  4

  5

  6

  7

 40
1.0
 41
0.18
 42
0.0625
 43
0.38
 44
0.18
 45
0.0
 46
0.0
 47
0.0
 48
0.0
140
0.18
141
0.09
142
0.0
143
25.4
144
1.0
145
0.0
146
1.0
147
0.09
 71
     0
 72
     0
 73
     1
 74
     1
 75
     0
 76
     0
 77
     0
 78
     0
170
     0
171
     2
172
     0
173
     0
174
     0
175
     0
176
     0
177
     0
178
     0
  0
ENDTAB
  0
ENDSEC
  0
SECTION
  2
BLOCKS
  0
ENDSEC
  0
SECTION
  2
ENTITIES
  0
POLYLINE
  8
6
  6
CONTINUOUS
 62
     7
  5
29
 66
     1
 10
0.0
 20
0.0
 30
0.0
  0
VERTEX
  8
6
  6
CONTINUOUS
 62
     7
  5
2A
 10
932223.504
 20
7289640.786
 30
0.0
  0
VERTEX
  8
6
  6
CONTINUOUS
 62
     7
  5
2B
 10
932224.145
 20
7289668.127
 30
0.0
  0
VERTEX
  8
6
  6
CONTINUOUS
 62
     7
  5
2C
 10
932211.979
 20
7289668.413
 30
0.0
  0
SEQEND
  8
6
  6
CONTINUOUS
 62
     7
  5
2D
  0
ARC
  8
6
  6
CONTINUOUS
 62
     7
  5
2E
 10
932212.682868
 20
7289698.404157
 30
0.0
 40
30.0
 50
178.6556
 51
268.6556
210
0.0
220
0.0
230
1.0
  0
POLYLINE
  8
6
  6
CONTINUOUS
 62
     7
  5
2F
 66
     1
 10
0.0
 20
0.0
 30
0.0
  0
VERTEX
  8
6
  6
CONTINUOUS
 62
     7
  5
30
 10
932182.692
 20
7289699.108
 30
0.0
  0
VERTEX
  8
6
  6
CONTINUOUS
 62
     7
  5
31
 10
932181.431
 20
7290045.035
 30
0.0
  0
VERTEX
  8
6
  6
CONTINUOUS
 62
     7
  5
32
 10
932188.769
 20
7290357.731
 30
0.0
  0
SEQEND
  8
6
  6
CONTINUOUS
 62
     7
  5
33
  0
LINE
  8
6
  6
CONTINUOUS
 62
     7
  5
34
 10
933283.429
 20
7289587.802
 30
0.0
 11
932136.254
 21
7290394.668
 31
0.0
  0
LINE
  8
6
  6
CONTINUOUS
 62
     7
  5
35
 10
933898.645
 20
7289568.561
 30
0.0
 11
932144.253
 21
7290789.453
 31
0.0
  0
LINE
  8
6
  6
CONTINUOUS
 62
     7
  5
36
 10
933712.216
 20
7289574.391
 30
0.0
 11
932140.5
 21
7290670.752
 31
0.0
  0
LINE
  8
27
  6
CONTINUOUS
 62
    32
  5
38
 10
933803.493
 20
7289571.537
 30
0.0
 11
932142.376
 21
7290730.099
 31
0.0
  0
POLYLINE
  8
6
  6
CONTINUOUS
 62
     7
  5
39
 66
     1
 10
0.0
 20
0.0
 30
0.0
  0
VERTEX
  8
6
  6
CONTINUOUS
 62
     7
  5
3A
 10
932553.177
 20
7291183.324
 30
0.0
  0
VERTEX
  8
6
  6
CONTINUOUS
 62
     7
  5
3B
 10
932753.08
 20
7291177.1
 30
0.0
  0
VERTEX
  8
6
  6
CONTINUOUS
 62
     7
  5
3C
 10
933950.88
 20
7291139.8
 30
0.0
  0
SEQEND
  8
6
  6
CONTINUOUS
 62
     7
  5
3D
  0
POLYLINE
  8
6
  6
CONTINUOUS
 62
     7
  5
3E
 66
     1
 10
0.0
 20
0.0
 30
0.0
  0
VERTEX
  8
6
  6
CONTINUOUS
 62
     7
  5
3F
 10
933950.88
 20
7291139.8
 30
0.0
  0
VERTEX
  8
6
  6
CONTINUOUS
 62
     7
  5
40
 10
933953.214
 20
7291214.764
 30
0.0
  0
VERTEX
  8
6
  6
CONTINUOUS
 62
     7
  5
41
 10
932225.671
 20
7291268.559
 30
0.0
  0
SEQEND
  8
6
  6
CONTINUOUS
 62
     7
  5
42
  0
ARC
  8
6
  6
CONTINUOUS
 62
     7
  5
43
 10
932226.138188
 20
7291283.551971
 30
0.0
 40
15.0
 50
178.2164
 51
268.2164
210
0.0
220
0.0
230
1.0
  0
LINE
  8
7
  6
CONTINUOUS
 62
     7
  5
45
 10
937345.255
 20
7289511.216
 30
0.0
 11
937363.21
 21
7289525.477
 31
0.0
  0
LINE
  8
7
  6
CONTINUOUS
 62
     7
  5
46
 10
934237.521
 20
7294829.495
 30
0.0
 11
934242.009
 21
7294410.249
 31
0.0
  0
LINE
  8
7
  6
CONTINUOUS
 62
     7
  5
47
 10
934242.009
 20
7294410.249
 30
0.0
 11
934452.851
 21
7294396.042
 31
0.0
  0
LINE
  8
7
  6
CONTINUOUS
 62
     7
  5
48
 10
934452.851
 20
7294396.042
 30
0.0
 11
934455.771
 21
7294249.641
 31
0.0
  0
LINE
  8
7
  6
CONTINUOUS
 62
     7
  5
49
 10
934455.771
 20
7294249.641
 30
0.0
 11
934803.788
 21
7294201.144
 31
0.0
  0
LINE
  8
7
  6
CONTINUOUS
 62
     7
  5
4A
 10
934803.788
 20
7294201.144
 30
0.0
 11
934929.85
 21
7294067.856
 31
0.0
  0
LINE
  8
7
  6
CONTINUOUS
 62
     7
  5
4B
 10
934929.85
 20
7294067.856
 30
0.0
 11
934907.636
 21
7293297.967
 31
0.0
  0
LINE
  8
7
  6
CONTINUOUS
 62
     7
  5
4C
 10
934907.636
 20
7293297.967
 30
0.0
 11
936483.987
 21
7293275.542
 31
0.0
  0
LINE
  8
7
  6
CONTINUOUS
 62
     7
  5
4D
 10
936483.987
 20
7293275.542
 30
0.0
 11
936778.918
 21
7292107.843
 31
0.0
  0
LINE
  8
7
  6
CONTINUOUS
 62
     7
  5
4E
 10
937259.002
 20
7289497.526
 30
0.0
 11
937287.766
 21
7289535.25
 31
0.0
  0
LINE
  8
7
  6
CONTINUOUS
 62
     7
  5
4F
 10
937287.766
 20
7289535.25
 30
0.0
 11
937292.937
 21
7289577.882
 31
0.0
  0
LINE
  8
7
  6
CONTINUOUS
 62
     7
  5
50
 10
937292.937
 20
7289577.882
 30
0.0
 11
937232.34
 21
7289771.435
 31
0.0
  0
LINE
  8
7
  6
CONTINUOUS
 62
     7
  5
51
 10
937232.34
 20
7289771.435
 30
0.0
 11
937171.575
 21
7289915.387
 31
0.0
  0
LINE
  8
7
  6
CONTINUOUS
 62
     7
  5
52
 10
937171.575
 20
7289915.387
 30
0.0
 11
937148.133
 21
7290016.095
 31
0.0
  0
LINE
  8
6
  6
CONTINUOUS
 62
     7
  5
53
 10
937148.133
 20
7290016.095
 30
0.0
 11
937144.971
 21
7290187.212
 31
0.0
  0
LINE
  8
7
  6
CONTINUOUS
 62
     7
  5
54
 10
937144.971
 20
7290187.212
 30
0.0
 11
937170.759
 21
7291087.33
 31
0.0
  0
LINE
  8
7
  6
CONTINUOUS
 62
     7
  5
55
 10
937170.759
 20
7291087.33
 30
0.0
 11
937191.983
 21
7291339.618
 31
0.0
  0
LINE
  8
7
  6
CONTINUOUS
 62
     7
  5
56
 10
937191.983
 20
7291339.618
 30
0.0
 11
937242.276
 21
7291567.627
 31
0.0
  0
LINE
  8
7
  6
CONTINUOUS
 62
     7
  5
57
 10
937242.276
 20
7291567.627
 30
0.0
 11
937310.866
 21
7291606.176
 31
0.0
  0
LINE
  8
7
  6
CONTINUOUS
 62
     7
  5
58
 10
937310.866
 20
7291606.176
 30
0.0
 11
937429.271
 21
7291615.023
 31
0.0
  0
POLYLINE
  8
7
  6
CONTINUOUS
 62
     7
  5
59
 66
     1
 10
0.0
 20
0.0
 30
0.0
  0
VERTEX
  8
7
  6
CONTINUOUS
 62
     7
  5
5A
 10
936778.918
 20
7292107.843
 30
0.0
  0
VERTEX
  8
7
  6
CONTINUOUS
 62
     7
  5
5B
 10
935946.342
 20
7292133.769
 30
0.0
  0
VERTEX
  8
7
  6
CONTINUOUS
 62
     7
  5
5C
 10
935901.484
 20
7290693.217
 30
0.0
  0
VERTEX
  8
7
  6
CONTINUOUS
 62
     7
  5
5D
 10
935485.085
 20
7290706.184
 30
0.0
  0
VERTEX
  8
7
  6
CONTINUOUS
 62
     7
  5
5E
 10
935449.002
 20
7289547.432
 30
0.0
  0
SEQEND
  8
7
  6
CONTINUOUS
 62
     7
  5
5F
  0
LINE
  8
6
  6
CONTINUOUS
 62
     7
  5
60
 10
935449.002
 20
7289547.432
 30
0.0
 11
933875.957
 21
7289584.349
 31
0.0
  0
LINE
  8
6
  6
CONTINUOUS
 62
     7
  5
61
 10
937345.255
 20
7289511.216
 30
0.0
 11
937333.118
 21
7289495.299
 31
0.0
  0
LINE
  8
6
  6
CONTINUOUS
 62
     7
  5
62
 10
932223.504
 20
7289640.786
 30
0.0
 11
933253.915
 21
7289608.56
 31
0.0
  0
POLYLINE
  8
7
  6
CONTINUOUS
 62
     7
  5
63
 66
     1
 10
0.0
 20
0.0
 30
0.0
  0
VERTEX
  8
7
  6
CONTINUOUS
 62
     7
  5
64
 10
932196.72
 20
7290820.243
 30
0.0
  0
VERTEX
  8
7
  6
CONTINUOUS
 62
     7
  5
65
 10
932358.625
 20
7290815.201
 30
0.0
  0
VERTEX
  8
7
  6
CONTINUOUS
 62
     7
  5
66
 10
932353.229
 20
7290641.901
 30
0.0
  0
SEQEND
  8
7
  6
CONTINUOUS
 62
     7
  5
67
  0
ARC
  8
7
  6
CONTINUOUS
 62
     7
  5
68
 10
933203.774375
 20
7290156.103135
 30
0.0
 40
1009.999629
 50
130.709333
 51
147.163058
210
0.0
220
0.0
230
1.0
  0
LINE
  8
6
  6
CONTINUOUS
 62
     7
  5
69
 10
932208.653
 20
7291202.056
 30
0.0
 11
932553.426
 21
7291191.321
 31
0.0
  0
LINE
  8
7
  6
CONTINUOUS
 62
     7
  5
6A
 10
932553.426
 20
7291191.321
 30
0.0
 11
932545.031
 21
7290921.711
 31
0.0
  0
TEXT
  8
15
  6
CONTINUOUS
 62
    30
  5
6D
 10
935906.652
 20
7289874.949
 30
0.0
 40
50.0
  1
LUBBOCK LAKE
 50
23.852692
  7
ROMANC
 72
     4
 11
936202.770232
 21
7290033.212839
 31
0.0
210
0.0
220
0.0
230
1.0
  0
TEXT
  8
15
  6
CONTINUOUS
 62
    30
  5
6E
 10
935884.053
 20
7289782.953
 30
0.0
 40
50.0
  1
LANDMARK STATE
 50
23.852692
  7
ROMANC
 72
     4
 11
936233.099364
 21
7289964.619094
 31
0.0
210
0.0
220
0.0
230
1.0
  0
TEXT
  8
15
  6
CONTINUOUS
 62
    30
  5
6F
 10
935919.065
 20
7289716.429
 30
0.0
 40
50.0
  1
HISTORICAL PARK
 50
23.852692
  7
ROMANC
 72
     4
 11
936263.427758
 21
7289896.02423
 31
0.0
210
0.0
220
0.0
230
1.0
  0
TEXT
  8
15
  6
CONTINUOUS
 62
    30
  5
70
 10
937246.375
 20
7290412.229
 30
0.0
 40
50.0
  1
BURL HUFFMAN
 50
88.173964
  7
ROMANC
 72
     4
 11
937232.34535
 21
7290756.728997
 31
0.0
210
0.0
220
0.0
230
1.0
  0
TEXT
  8
15
  6
CONTINUOUS
 62
    30
  5
71
 10
937331.763
 20
7290736.885
 30
0.0
 40
50.0
  1
 
 50
88.173964
  7
ROMANC
 72
     4
 11
937307.306757
 21
7290754.33916
 31
0.0
210
0.0
220
0.0
230
1.0
  0
TEXT
  8
15
  6
CONTINUOUS
 62
    30
  5
72
 10
937399.648
 20
7290512.507
 30
0.0
 40
50.0
  1
CITY PARK
 50
88.173964
  7
ROMANC
 72
     4
 11
937382.268961
 21
7290751.948374
 31
0.0
210
0.0
220
0.0
230
1.0
  0
TEXT
  8
15
  6
CONTINUOUS
 62
    30
  5
73
 10
935062.793
 20
7294200.699
 30
0.0
 40
50.0
  1
LUBBOCK LAKE
 50
23.413492
  7
ROMANC
 72
     4
 11
935360.11569
 21
7294356.688321
 31
0.0
210
0.0
220
0.0
230
1.0
  0
TEXT
  8
15
  6
CONTINUOUS
 62
    30
  5
74
 10
935039.489
 20
7294108.879
 30
0.0
 40
50.0
  1
LANDMARK STATE
 50
23.413492
  7
ROMANC
 72
     4
 11
935389.917654
 21
7294287.864173
 31
0.0
210
0.0
220
0.0
230
1.0
  0
TEXT
  8
15
  6
CONTINUOUS
 62
    30
  5
75
 10
935073.991
 20
7294042.09
 30
0.0
 40
50.0
  1
HISTORICAL PARK
 50
23.413492
  7
ROMANC
 72
     4
 11
935419.720312
 21
7294219.040272
 31
0.0
210
0.0
220
0.0
230
1.0
  0
TEXT
  8
19
  6
CONTINUOUS
 62
     1
  5
77
 10
932663.919
 20
7290154.79
 30
0.0
 40
24.0
  1
 
 50
324.206358
  7
ROMANC
 72
     4
 11
932677.426442
 21
7290159.844603
 31
0.0
210
0.0
220
0.0
230
1.0
  0
TEXT
  8
19
  6
CONTINUOUS
 62
     1
  5
78
 10
932683.385
 20
7290140.753
 30
0.0
 40
24.0
  1
 
 50
324.206358
  7
ROMANC
 72
     4
 11
932696.892442
 21
7290145.807603
 31
0.0
210
0.0
220
0.0
230
1.0
  0
TEXT
  8
19
  6
CONTINUOUS
 62
     1
  5
79
 10
932858.59
 20
7290014.422
 30
0.0
 40
24.0
  1
 
 50
324.206358
  7
ROMANC
 72
     4
 11
932872.097442
 21
7290019.476603
 31
0.0
210
0.0
220
0.0
230
1.0
  0
TEXT
  8
19
  6
CONTINUOUS
 62
     1
  5
7A
 10
932897.523
 20
7289986.348
 30
0.0
 40
24.0
  1
 
 50
324.206358
  7
ROMANC
 72
     4
 11
932911.030442
 21
7289991.402603
 31
0.0
210
0.0
220
0.0
230
1.0
  0
TEXT
  8
19
  6
CONTINUOUS
 62
     1
  5
7B
 10
932916.991
 20
7289972.311
 30
0.0
 40
24.0
  1
 
 50
324.206358
  7
ROMANC
 72
     4
 11
932930.498442
 21
7289977.365603
 31
0.0
210
0.0
220
0.0
230
1.0
  0
TEXT
  8
19
  6
CONTINUOUS
 62
     1
  5
7C
 10
933014.326
 20
7289902.128
 30
0.0
 40
24.0
  1
 
 50
324.206358
  7
ROMANC
 72
     4
 11
933027.833442
 21
7289907.182603
 31
0.0
210
0.0
220
0.0
230
1.0
  0
TEXT
  8
11
  6
CONTINUOUS
 62
     7
  5
7F
 10
932138.241
 20
7289629.716
 30
0.0
 40
8.0
  1
110.15'
 50
358.6556
  7
ROMANS
210
0.0
220
0.0
230
1.0
  0
TEXT
  8
11
  6
CONTINUOUS
 62
     7
  5
80
 10
932210.901
 20
7289671.442
 30
0.0
 40
8.0
  1
12.17'
 50
358.6556
  7
ROMANS
210
0.0
220
0.0
230
1.0
  0
TEXT
  8
11
  6
CONTINUOUS
 62
     7
  5
81
 10
932201.165
 20
7289679.673
 30
0.0
 40
8.0
  1
R=30'
 50
88.6556
  7
ROMANS
210
0.0
220
0.0
230
1.0
  0
TEXT
  8
11
  6
CONTINUOUS
 62
     7
  5
82
 10
932184.774
 20
7289950.946
 30
0.0
 40
8.0
  1
N
 50
270.208719
  7
ROMANS
 72
     1
 11
932184.78318
 21
7289948.426017
 31
0.0
210
0.0
220
0.0
230
1.0
  0
TEXT
  8
11
  6
CONTINUOUS
 62
     7
  5
83
 10
932184.808
 20
7289941.75
 30
0.0
 40
8.0
  1
1
 50
270.208719
  7
ROMANS
 72
     1
 11
932184.812856
 21
7289940.417009
 31
0.0
210
0.0
220
0.0
230
1.0
  0
TEXT
  8
11
  6
CONTINUOUS
 62
     7
  5
84
 10
932184.836
 20
7289933.875
 30
0.0
 40
8.0
  1
%%d
 50
270.208719
  7
ROMANS
 72
     1
 11
932184.841235
 21
7289932.43801
 31
0.0
210
0.0
220
0.0
230
1.0
  0
TEXT
  8
11
  6
CONTINUOUS
 62
     7
  5
85
 10
932184.862
 20
7289926.757
 30
0.0
 40
8.0
  1
3
 50
270.208719
  7
ROMANS
 72
     1
 11
932184.870499
 21
7289924.424015
 31
0.0
210
0.0
220
0.0
230
1.0
  0
TEXT
  8
11
  6
CONTINUOUS
 62
     7
  5
86
 10
932184.891
 20
7289918.758
 30
0.0
 40
8.0
  1
3
 50
270.208719
  7
ROMANS
 72
     1
 11
932184.899499
 21
7289916.425015
 31
0.0
210
0.0
220
0.0
230
1.0
  0
TEXT
  8
11
  6
CONTINUOUS
 62
     7
  5
87
 10
932184.924
 20
7289909.75
 30
0.0
 40
8.0
  1
'
 50
270.208719
  7
ROMANS
 72
     1
 11
932184.928856
 21
7289908.417009
 31
0.0
210
0.0
220
0.0
230
1.0
  0
TEXT
  8
11
  6
CONTINUOUS
 62
     7
  5
88
 10
932184.953
 20
7289901.75
 30
0.0
 40
8.0
  1
1
 50
270.208719
  7
ROMANS
 72
     1
 11
932184.957856
 21
7289900.417009
 31
0.0
210
0.0
220
0.0
230
1.0
  0
TEXT
  8
11
  6
CONTINUOUS
 62
     7
  5
89
 10
932184.982
 20
7289893.75
 30
0.0
 40
8.0
  1
1
 50
270.208719
  7
ROMANS
 72
     1
 11
932184.986856
 21
7289892.417009
 31
0.0
210
0.0
220
0.0
230
1.0
  0
TEXT
  8
11
  6
CONTINUOUS
 62
     7
  5
8A
 10
932185.006
 20
7289887.009
 30
0.0
 40
8.0
  1
"
 50
270.208719
  7
ROMANS
 72
     1
 11
932185.015409
 21
7289884.426017
 31
0.0
210
0.0
220
0.0
230
1.0
  0
TEXT
  8
11
  6
CONTINUOUS
 62
     7
  5
8B
 10
932185.034
 20
7289879.292
 30
0.0
 40
8.0
  1
W
 50
270.208719
  7
ROMANS
 72
     1
 11
932185.044433
 21
7289876.428019
 31
0.0
210
0.0
220
0.0
230
1.0
  0
TEXT
  8
11
  6
CONTINUOUS
 62
     7
  5
8C
 10
932185.059
 20
7289872.396
 30
0.0
 40
8.0
  1
 
 50
270.208719
  7
ROMANS
 72
     1
 11
932185.068712
 21
7289869.730018
 31
0.0
210
0.0
220
0.0
230
1.0
  0
TEXT
  8
11
  6
CONTINUOUS
 62
     7
  5
8D
 10
932185.089
 20
7289864.396
 30
0.0
 40
8.0
  1
 
 50
270.208719
  7
ROMANS
 72
     1
 11
932185.098712
 21
7289861.730018
 31
0.0
210
0.0
220
0.0
230
1.0
  0
TEXT
  8
11
  6
CONTINUOUS
 62
     7
  5
8E
 10
932185.118
 20
7289856.396
 30
0.0
 40
8.0
  1
 
 50
270.208719
  7
ROMANS
 72
     1
 11
932185.127712
 21
7289853.730018
 31
0.0
210
0.0
220
0.0
230
1.0
  0
TEXT
  8
11
  6
CONTINUOUS
 62
     7
  5
8F
 10
932185.153
 20
7289846.758
 30
0.0
 40
8.0
  1
3
 50
270.208719
  7
ROMANS
 72
     1
 11
932185.161499
 21
7289844.425015
 31
0.0
210
0.0
220
0.0
230
1.0
  0
TEXT
  8
11
  6
CONTINUOUS
 62
     7
  5
90
 10
932185.182
 20
7289838.758
 30
0.0
 40
8.0
  1
4
 50
270.208719
  7
ROMANS
 72
     1
 11
932185.190499
 21
7289836.425015
 31
0.0
210
0.0
220
0.0
230
1.0
  0
TEXT
  8
11
  6
CONTINUOUS
 62
     7
  5
91
 10
932185.212
 20
7289830.758
 30
0.0
 40
8.0
  1
5
 50
270.208719
  7
ROMANS
 72
     1
 11
932185.220539
 21
7289828.414016
 31
0.0
210
0.0
220
0.0
230
1.0
  0
TEXT
  8
11
  6
CONTINUOUS
 62
     7
  5
92
 10
932185.245
 20
7289821.751
 30
0.0
 40
8.0
  1
.
 50
270.208719
  7
ROMANS
 72
     1
 11
932185.249816
 21
7289820.429009
 31
0.0
210
0.0
220
0.0
230
1.0
  0
TEXT
  8
11
  6
CONTINUOUS
 62
     7
  5
93
 10
932185.27
 20
7289814.758
 30
0.0
 40
8.0
  1
9
 50
270.208719
  7
ROMANS
 72
     1
 11
932185.278499
 21
7289812.425015
 31
0.0
210
0.0
220
0.0
230
1.0
  0
TEXT
  8
11
  6
CONTINUOUS
 62
     7
  5
94
 10
932185.3
 20
7289806.758
 30
0.0
 40
8.0
  1
3
 50
270.208719
  7
ROMANS
 72
     1
 11
932185.308499
 21
7289804.425015
 31
0.0
210
0.0
220
0.0
230
1.0
  0
TEXT
  8
11
  6
CONTINUOUS
 62
     7
  5
95
 10
932185.332
 20
7289797.751
 30
0.0
 40
8.0
  1
'
 50
270.208719
  7
ROMANS
 72
     1
 11
932185.336856
 21
7289796.418009
 31
0.0
210
0.0
220
0.0
230
1.0
  0
TEXT
  8
11
  6
CONTINUOUS
 62
     7
  5
96
 10
932195.448
 20
7290173.467
 30
0.0
 40
8.0
  1
2
 50
88.6556
  7
ROMANS
 72
     1
 11
932187.504939
 21
7290175.987054
 31
0.0
210
0.0
220
0.0
230
1.0
 73
     3
  0
TEXT
  8
11
  6
CONTINUOUS
 62
     7
  5
97
 10
932195.636
 20
7290181.464
 30
0.0
 40
8.0
  1
8
 50
88.6556
  7
ROMANS
 72
     1
 11
932187.692939
 21
7290183.984054
 31
0.0
210
0.0
220
0.0
230
1.0
 73
     3
  0
TEXT
  8
11
  6
CONTINUOUS
 62
     7
  5
98
 10
932195.823
 20
7290189.462
 30
0.0
 40
8.0
  1
3
 50
88.6556
  7
ROMANS
 72
     1
 11
932187.879939
 21
7290191.982054
 31
0.0
210
0.0
220
0.0
230
1.0
 73
     3
  0
TEXT
  8
11
  6
CONTINUOUS
 62
     7
  5
99
 10
932196.035
 20
7290198.467
 30
0.0
 40
8.0
  1
.
 50
88.6556
  7
ROMANS
 72
     1
 11
932188.068219
 21
7290199.976333
 31
0.0
210
0.0
220
0.0
230
1.0
 73
     3
  0
TEXT
  8
11
  6
CONTINUOUS
 62
     7
  5
9A
 10
932196.199
 20
7290205.457
 30
0.0
 40
8.0
  1
9
 50
88.6556
  7
ROMANS
 72
     1
 11
932188.255939
 21
7290207.977054
 31
0.0
210
0.0
220
0.0
230
1.0
 73
     3
  0
TEXT
  8
11
  6
CONTINUOUS
 62
     7
  5
9B
 10
932196.386
 20
7290213.455
 30
0.0
 40
8.0
  1
7
 50
88.6556
  7
ROMANS
 72
     1
 11
932188.442939
 21
7290215.975054
 31
0.0
210
0.0
220
0.0
230
1.0
 73
     3
  0
TEXT
  8
11
  6
CONTINUOUS
 62
     7
  5
9C
 10
932196.598
 20
7290222.461
 30
0.0
 40
8.0
  1
'
 50
88.6556
  7
ROMANS
 72
     1
 11
932188.631477
 21
7290223.981329
 31
0.0
210
0.0
220
0.0
230
1.0
 73
     3
  0
TEXT
  8
11
  6
CONTINUOUS
 62
     7
  5
9D
 10
932254.67
 20
7290408.651
 30
0.0
 40
8.0
  1
230'
 50
51.763336
  7
ROMANS
210
0.0
220
0.0
230
1.0
  0
TEXT
  8
11
  6
CONTINUOUS
 62
     7
  5
9E
 10
932265.895
 20
7290631.509
 30
0.0
 40
8.0
  1
100'
 50
48.03175
  7
ROMANS
210
0.0
220
0.0
230
1.0
  0
TEXT
  8
11
  6
CONTINUOUS
 62
     7
  5
9F
 10
933708.931
 20
7289621.242
 30
0.0
 40
8.0
  1
100'
 50
48.03175
  7
ROMANS
210
0.0
220
0.0
230
1.0
  0
TEXT
  8
11
  6
CONTINUOUS
 62
     7
  5
A0
 10
933327.589
 20
7289672.843
 30
0.0
 40
8.0
  1
230'
 50
51.763336
  7
ROMANS
210
0.0
220
0.0
230
1.0
  0
TEXT
  8
11
  6
CONTINUOUS
 62
     7
  5
A1
 10
932415.789
 20
7290771.613
 30
0.0
 40
8.0
  1
R
 50
51.526567
  7
ROMANS
 72
     1
 11
932411.093649
 21
7290778.563113
 31
0.0
210
0.0
220
0.0
230
1.0
 73
     3
  0
TEXT
  8
11
  6
CONTINUOUS
 62
     7
  5
A2
 10
932420.257
 20
7290777.236
 30
0.0
 40
8.0
  1
=
 50
51.526567
  7
ROMANS
 72
     1
 11
932416.067458
 21
7290784.822608
 31
0.0
210
0.0
220
0.0
230
1.0
 73
     3
  0
TEXT
  8
11
  6
CONTINUOUS
 62
     7
  5
A3
 10
932426.489
 20
7290785.077
 30
0.0
 40
8.0
  1
1
 50
51.526567
  7
ROMANS
 72
     1
 11
932421.055154
 21
7290791.097815
 31
0.0
210
0.0
220
0.0
230
1.0
 73
     3
  0
TEXT
  8
11
  6
CONTINUOUS
 62
     7
  5
A4
 10
932430.499
 20
7290790.065
 30
0.0
 40
8.0
  1
0
 50
50.084267
  7
ROMANS
 72
     1
 11
932426.06413
 21
7290797.23157
 31
0.0
210
0.0
220
0.0
230
1.0
 73
     3
  0
TEXT
  8
11
  6
CONTINUOUS
 62
     7
  5
A5
 10
932436.481
 20
7290797.216
 30
0.0
 40
8.0
  1
1
 50
50.084267
  7
ROMANS
 72
     1
 11
932431.200421
 21
7290803.371678
 31
0.0
210
0.0
220
0.0
230
1.0
 73
     3
  0
TEXT
  8
11
  6
CONTINUOUS
 62
     7
  5
A6
 10
932440.766
 20
7290802.337
 30
0.0
 40
8.0
  1
0
 50
50.084267
  7
ROMANS
 72
     1
 11
932436.33113
 21
7290809.50357
 31
0.0
210
0.0
220
0.0
230
1.0
 73
     3
  0
TEXT
  8
11
  6
CONTINUOUS
 62
     7
  5
A7
 10
932446.596
 20
7290809.254
 30
0.0
 40
8.0
  1
'
 50
48.641969
  7
ROMANS
 72
     1
 11
932441.472034
 21
7290815.540641
 31
0.0
210
0.0
220
0.0
230
1.0
 73
     3
  0
TEXT
  8
11
  6
CONTINUOUS
 62
     7
  5
A8
 10
932450.133
 20
7290813.271
 30
0.0
 40
8.0
  1
 
 50
48.641969
  7
ROMANS
 72
     1
 11
932445.88983
 21
7290820.558185
 31
0.0
210
0.0
220
0.0
230
1.0
 73
     3
  0
TEXT
  8
11
  6
CONTINUOUS
 62
     7
  5
A9
 10
932455.419
 20
7290819.277
 30
0.0
 40
8.0
  1
 
 50
48.641969
  7
ROMANS
 72
     1
 11
932451.17583
 21
7290826.564185
 31
0.0
210
0.0
220
0.0
230
1.0
 73
     3
  0
TEXT
  8
11
  6
CONTINUOUS
 62
     7
  5
AA
 10
932461.583
 20
7290826.321
 30
0.0
 40
8.0
  1
2
 50
47.199672
  7
ROMANS
 72
     1
 11
932457.298339
 21
7290833.468347
 31
0.0
210
0.0
220
0.0
230
1.0
 73
     3
  0
TEXT
  8
11
  6
CONTINUOUS
 62
     7
  5
AB
 10
932467.019
 20
7290832.192
 30
0.0
 40
8.0
  1
5
 50
47.199672
  7
ROMANS
 72
     1
 11
932462.741812
 21
7290839.347418
 31
0.0
210
0.0
220
0.0
230
1.0
 73
     3
  0
TEXT
  8
11
  6
CONTINUOUS
 62
     7
  5
AC
 10
932473.14
 20
7290838.802
 30
0.0
 40
8.0
  1
1
 50
47.199672
  7
ROMANS
 72
     1
 11
932468.175893
 21
7290845.215621
 31
0.0
210
0.0
220
0.0
230
1.0
 73
     3
  0
TEXT
  8
11
  6
CONTINUOUS
 62
     7
  5
AD
 10
932478.575
 20
7290844.671
 30
0.0
 40
8.0
  1
.
 50
47.199672
  7
ROMANS
 72
     1
 11
932473.603419
 21
7290851.07655
 31
0.0
210
0.0
220
0.0
230
1.0
 73
     3
  0
TEXT
  8
11
  6
CONTINUOUS
 62
     7
  5
AE
 10
932483.238
 20
7290849.504
 30
0.0
 40
8.0
  1
2
 50
45.757375
  7
ROMANS
 72
     1
 11
932479.134596
 21
7290856.756928
 31
0.0
210
0.0
220
0.0
230
1.0
 73
     3
  0
TEXT
  8
11
  6
CONTINUOUS
 62
     7
  5
AF
 10
932488.82
 20
7290855.235
 30
0.0
 40
8.0
  1
9
 50
45.757375
  7
ROMANS
 72
     1
 11
932484.716596
 21
7290862.487928
 31
0.0
210
0.0
220
0.0
230
1.0
 73
     3
  0
TEXT
  8
11
  6
CONTINUOUS
 62
     7
  5
B0
 10
932495.104
 20
7290861.687
 30
0.0
 40
8.0
  1
'
 50
45.757375
  7
ROMANS
 72
     1
 11
932490.302898
 21
7290868.223536
 31
0.0
210
0.0
220
0.0
230
1.0
 73
     3
  0
TEXT
  8
11
  6
CONTINUOUS
 62
     7
  5
B1
 10
932229.727
 20
7290735.911
 30
0.0
 40
8.0
  1
2
 50
325.348956
  7
ROMANS
 72
     1
 11
932231.646196
 21
7290734.58451
 31
0.0
210
0.0
220
0.0
230
1.0
  0
TEXT
  8
11
  6
CONTINUOUS
 62
     7
  5
B2
 10
932236.307
 20
7290731.362
 30
0.0
 40
8.0
  1
2
 50
325.348956
  7
ROMANS
 72
     1
 11
932238.226196
 21
7290730.03551
 31
0.0
210
0.0
220
0.0
230
1.0
  0
TEXT
  8
11
  6
CONTINUOUS
 62
     7
  5
B3
 10
932242.732
 20
7290726.922
 30
0.0
 40
8.0
  1
6
 50
325.348956
  7
ROMANS
 72
     1
 11
932244.805028
 21
7290725.489186
 31
0.0
210
0.0
220
0.0
230
1.0
  0
TEXT
  8
11
  6
CONTINUOUS
 62
     7
  5
B4
 10
932250.299
 20
7290721.692
 30
0.0
 40
8.0
  1
.
 50
325.348956
  7
ROMANS
 72
     1
 11
932251.386517
 21
7290720.940341
 31
0.0
210
0.0
220
0.0
230
1.0
  0
TEXT
  8
11
  6
CONTINUOUS
 62
     7
  5
B5
 10
932256.05
 20
7290717.717
 30
0.0
 40
8.0
  1
4
 50
325.348956
  7
ROMANS
 72
     1
 11
932257.969196
 21
7290716.39051
 31
0.0
210
0.0
220
0.0
230
1.0
  0
TEXT
  8
11
  6
CONTINUOUS
 62
     7
  5
B6
 10
932262.633
 20
7290713.168
 30
0.0
 40
8.0
  1
5
 50
325.348956
  7
ROMANS
 72
     1
 11
932264.561245
 21
7290711.835256
 31
0.0
210
0.0
220
0.0
230
1.0
  0
TEXT
  8
11
  6
CONTINUOUS
 62
     7
  5
B7
 10
932270.042
 20
7290708.047
 30
0.0
 40
8.0
  1
'
 50
325.348956
  7
ROMANS
 72
     1
 11
932271.138566
 21
7290707.289087
 31
0.0
210
0.0
220
0.0
230
1.0
  0
TEXT
  8
11
  6
CONTINUOUS
 62
     7
  5
B8
 10
932240.457
 20
7290809.975
 30
0.0
 40
8.0
  1
217'
 50
358.2164
  7
ROMANS
210
0.0
220
0.0
230
1.0
  0
TEXT
  8
11
  6
CONTINUOUS
 62
     7
  5
B9
 10
932338.821
 20
7291189.37
 30
0.0
 40
8.0
  1
400'
 50
358.2164
  7
ROMANS
210
0.0
220
0.0
230
1.0
  0
TEXT
  8
11
  6
CONTINUOUS
 62
     7
  5
BA
 10
932179.178
 20
7291364.914
 30
0.0
 40
8.0
  1
55'
 50
358.2164
  7
ROMANS
210
0.0
220
0.0
230
1.0
  0
TEXT
  8
11
  6
CONTINUOUS
 62
     7
  5
BB
 10
932222.68
 20
7291307.598
 30
0.0
 40
8.0
  1
89.02'
 50
88.2164
  7
ROMANS
210
0.0
220
0.0
230
1.0
  0
TEXT
  8
11
  6
CONTINUOUS
 62
     7
  5
BC
 10
932233.537
 20
7291228.637
 30
0.0
 40
8.0
  1
67'
 50
88.2164
  7
ROMANS
210
0.0
220
0.0
230
1.0
  0
TEXT
  8
11
  6
CONTINUOUS
 62
     7
  5
BD
 10
932536.833
 20
7291219.193
 30
0.0
 40
8.0
  1
67'
 50
88.2164
  7
ROMANS
210
0.0
220
0.0
230
1.0
  0
TEXT
  8
11
  6
CONTINUOUS
 62
     7
  5
BE
 10
932577.946
 20
7291213.914
 30
0.0
 40
8.0
  1
75'
 50
88.2164
  7
ROMANS
210
0.0
220
0.0
230
1.0
  0
TEXT
  8
11
  6
CONTINUOUS
 62
     7
  5
BF
 10
933431.441
 20
7291187.353
 30
0.0
 40
8.0
  1
75'
 50
88.2164
  7
ROMANS
210
0.0
220
0.0
230
1.0
  0
TEXT
  8
11
  6
CONTINUOUS
 62
     7
  5
C0
 10
933947.365
 20
7291172.662
 30
0.0
 40
8.0
  1
75'
 50
88.2164
  7
ROMANS
210
0.0
220
0.0
230
1.0
  0
TEXT
  8
11
  6
CONTINUOUS
 62
     7
  5
C1
 10
932546.198
 20
7291047.041
 30
0.0
 40
8.0
  1
269.74'
 50
88.2164
  7
ROMANS
210
0.0
220
0.0
230
1.0
  0
TEXT
  8
11
  6
CONTINUOUS
 62
     7
  5
C2
 10
932366.391
 20
7290746.14
 30
0.0
 40
8.0
  1
111.48'
 50
88.2164
  7
ROMANS
210
0.0
220
0.0
230
1.0
  0
TEXT
  8
11
  6
CONTINUOUS
 62
     7
  5
C3
 10
932352.011
 20
7290711.94
 30
0.0
 40
8.0
  1
170.08'
 50
88.2164
  7
ROMANS
210
0.0
220
0.0
230
1.0
  0
TEXT
  8
11
  6
CONTINUOUS
 62
     7
  5
C4
 10
933037.414
 20
7291252.975
 30
0.0
 40
8.0
  1
1728.38'
 50
358.2164
  7
ROMANS
210
0.0
220
0.0
230
1.0
  0
TEXT
  8
11
  6
CONTINUOUS
 62
     7
  5
C5
 10
933095.056
 20
7291176.074
 30
0.0
 40
8.0
  1
1398.38'
 50
358.2164
  7
ROMANS
210
0.0
220
0.0
230
1.0
  0
TEXT
  8
11
  6
CONTINUOUS
 62
     7
  5
C6
 10
935772.287
 20
7294783.295
 30
0.0
 40
8.0
  1
3
 50
358.2164
  7
ROMANS
 72
     1
 11
935774.867867
 21
7294791.21851
 31
0.0
210
0.0
220
0.0
230
1.0
 73
     3
  0
TEXT
  8
11
  6
CONTINUOUS
 62
     7
  5
C7
 10
935780.283
 20
7294783.046
 30
0.0
 40
8.0
  1
3
 50
358.2164
  7
ROMANS
 72
     1
 11
935782.863867
 21
7294790.96951
 31
0.0
210
0.0
220
0.0
230
1.0
 73
     3
  0
TEXT
  8
11
  6
CONTINUOUS
 62
     7
  5
C8
 10
935789.286
 20
7294782.766
 30
0.0
 40
8.0
  1
1
 50
358.2164
  7
ROMANS
 72
     1
 11
935790.867351
 21
7294790.720635
 31
0.0
210
0.0
220
0.0
230
1.0
 73
     3
  0
TEXT
  8
11
  6
CONTINUOUS
 62
     7
  5
C9
 10
935796.275
 20
7294782.548
 30
0.0
 40
8.0
  1
3
 50
358.2164
  7
ROMANS
 72
     1
 11
935798.855867
 21
7294790.47151
 31
0.0
210
0.0
220
0.0
230
1.0
 73
     3
  0
TEXT
  8
11
  6
CONTINUOUS
 62
     7
  5
CA
 10
935805.279
 20
7294782.268
 30
0.0
 40
8.0
  1
.
 50
358.2164
  7
ROMANS
 72
     1
 11
935806.849357
 21
7294790.222977
 31
0.0
210
0.0
220
0.0
230
1.0
 73
     3
  0
TEXT
  8
11
  6
CONTINUOUS
 62
     7
  5
CB
 10
935812.267
 20
7294782.05
 30
0.0
 40
8.0
  1
5
 50
358.2164
  7
ROMANS
 72
     1
 11
935814.858862
 21
7294789.973168
 31
0.0
210
0.0
220
0.0
230
1.0
 73
     3
  0
TEXT
  8
11
  6
CONTINUOUS
 62
     7
  5
CC
 10
935820.263
 20
7294781.801
 30
0.0
 40
8.0
  1
4
 50
358.2164
  7
ROMANS
 72
     1
 11
935822.843867
 21
7294789.72451
 31
0.0
210
0.0
220
0.0
230
1.0
 73
     3
  0
TEXT
  8
11
  6
CONTINUOUS
 62
     7
  5
CD
 10
935829.267
 20
7294781.521
 30
0.0
 40
8.0
  1
'
 50
358.2164
  7
ROMANS
 72
     1
 11
935830.848351
 21
7294789.475635
 31
0.0
210
0.0
220
0.0
230
1.0
 73
     3
  0
TEXT
  8
11
  6
CONTINUOUS
 62
     7
  5
CE
 10
934227.969
 20
7294694.178
 30
0.0
 40
8.0
  1
4
 50
270.613364
  7
ROMANS
 72
     1
 11
934235.993516
 21
7294691.930774
 31
0.0
210
0.0
220
0.0
230
1.0
 73
     3
  0
TEXT
  8
11
  6
CONTINUOUS
 62
     7
  5
CF
 10
934228.065
 20
7294685.171
 30
0.0
 40
8.0
  1
1
 50
270.613364
  7
ROMANS
 72
     1
 11
934236.078811
 21
7294683.923717
 31
0.0
210
0.0
220
0.0
230
1.0
 73
     3
  0
TEXT
  8
11
  6
CONTINUOUS
 62
     7
  5
D0
 10
934228.14
 20
7294678.179
 30
0.0
 40
8.0
  1
9
 50
270.613364
  7
ROMANS
 72
     1
 11
934236.164516
 21
7294675.931774
 31
0.0
210
0.0
220
0.0
230
1.0
 73
     3
  0
TEXT
  8
11
  6
CONTINUOUS
 62
     7
  5
D1
 10
934228.237
 20
7294669.172
 30
0.0
 40
8.0
  1
.
 50
270.613364
  7
ROMANS
 72
     1
 11
934236.250694
 21
7294667.935716
 31
0.0
210
0.0
220
0.0
230
1.0
 73
     3
  0
TEXT
  8
11
  6
CONTINUOUS
 62
     7
  5
D2
 10
934228.312
 20
7294662.18
 30
0.0
 40
8.0
  1
2
 50
270.613364
  7
ROMANS
 72
     1
 11
934236.336516
 21
7294659.932774
 31
0.0
210
0.0
220
0.0
230
1.0
 73
     3
  0
TEXT
  8
11
  6
CONTINUOUS
 62
     7
  5
D3
 10
934228.398
 20
7294654.181
 30
0.0
 40
8.0
  1
7
 50
270.613364
  7
ROMANS
 72
     1
 11
934236.422516
 21
7294651.933774
 31
0.0
210
0.0
220
0.0
230
1.0
 73
     3
  0
TEXT
  8
11
  6
CONTINUOUS
 62
     7
  5
D4
 10
934228.493
 20
7294645.173
 30
0.0
 40
8.0
  1
'
 50
270.613364
  7
ROMANS
 72
     1
 11
934236.506811
 21
7294643.925717
 31
0.0
210
0.0
220
0.0
230
1.0
 73
     3
  0
TEXT
  8
11
  6
CONTINUOUS
 62
     7
  5
D5
 10
934228.551
 20
7294639.82
 30
0.0
 40
8.0
  1
 
 50
270.613364
  7
ROMANS
 72
     1
 11
934236.579081
 21
7294637.239793
 31
0.0
210
0.0
220
0.0
230
1.0
 73
     3
  0
TEXT
  8
11
  6
CONTINUOUS
 62
     7
  5
D6
 10
934228.636
 20
7294631.82
 30
0.0
 40
8.0
  1
 
 50
270.613364
  7
ROMANS
 72
     1
 11
934236.664081
 21
7294629.239793
 31
0.0
210
0.0
220
0.0
230
1.0
 73
     3
  0
TEXT
  8
11
  6
CONTINUOUS
 62
     7
  5
D7
 10
934228.738
 20
7294622.372
 30
0.0
 40
8.0
  1
N
 50
270.613364
  7
ROMANS
 72
     1
 11
934236.764518
 21
7294619.937785
 31
0.0
210
0.0
220
0.0
230
1.0
 73
     3
  0
TEXT
  8
11
  6
CONTINUOUS
 62
     7
  5
D8
 10
934228.826
 20
7294614.183
 30
0.0
 40
8.0
  1
2
 50
270.613364
  7
ROMANS
 72
     1
 11
934236.850516
 21
7294611.935774
 31
0.0
210
0.0
220
0.0
230
1.0
 73
     3
  0
TEXT
  8
11
  6
CONTINUOUS
 62
     7
  5
D9
 10
934228.92
 20
7294605.302
 30
0.0
 40
8.0
  1
%%d
 50
270.613364
  7
ROMANS
 72
     1
 11
934236.934925
 21
7294603.950722
 31
0.0
210
0.0
220
0.0
230
1.0
 73
     3
  0
TEXT
  8
11
  6
CONTINUOUS
 62
     7
  5
DA
 10
934228.997
 20
7294598.184
 30
0.0
 40
8.0
  1
2
 50
270.613364
  7
ROMANS
 72
     1
 11
934237.021516
 21
7294595.936774
 31
0.0
210
0.0
220
0.0
230
1.0
 73
     3
  0
TEXT
  8
11
  6
CONTINUOUS
 62
     7
  5
DB
 10
934229.082
 20
7294590.184
 30
0.0
 40
8.0
  1
3
 50
270.613364
  7
ROMANS
 72
     1
 11
934237.106516
 21
7294587.936774
 31
0.0
210
0.0
220
0.0
230
1.0
 73
     3
  0
TEXT
  8
11
  6
CONTINUOUS
 62
     7
  5
DC
 10
934229.179
 20
7294581.177
 30
0.0
 40
8.0
  1
'
 50
270.613364
  7
ROMANS
 72
     1
 11
934237.192811
 21
7294579.929717
 31
0.0
210
0.0
220
0.0
230
1.0
 73
     3
  0
TEXT
  8
11
  6
CONTINUOUS
 62
     7
  5
DD
 10
934229.254
 20
7294574.185
 30
0.0
 40
8.0
  1
4
 50
270.613364
  7
ROMANS
 72
     1
 11
934237.278516
 21
7294571.937774
 31
0.0
210
0.0
220
0.0
230
1.0
 73
     3
  0
TEXT
  8
11
  6
CONTINUOUS
 62
     7
  5
DE
 10
934229.339
 20
7294566.186
 30
0.0
 40
8.0
  1
9
 50
270.613364
  7
ROMANS
 72
     1
 11
934237.363516
 21
7294563.938774
 31
0.0
210
0.0
220
0.0
230
1.0
 73
     3
  0
TEXT
  8
11
  6
CONTINUOUS
 62
     7
  5
DF
 10
934229.422
 20
7294558.438
 30
0.0
 40
8.0
  1
"
 50
270.613364
  7
ROMANS
 72
     1
 11
934237.449193
 21
7294555.940788
 31
0.0
210
0.0
220
0.0
230
1.0
 73
     3
  0
TEXT
  8
11
  6
CONTINUOUS
 62
     7
  5
E0
 10
934229.504
 20
7294550.722
 30
0.0
 40
8.0
  1
W
 50
270.613364
  7
ROMANS
 72
     1
 11
934237.534201
 21
7294547.943804
 31
0.0
210
0.0
220
0.0
230
1.0
 73
     3
  0
TEXT
  8
11
  6
CONTINUOUS
 62
     7
  5
E1
 10
934322.995
 20
7294407.798
 30
0.0
 40
8.0
  1
2
 50
356.145036
  7
ROMANS
 72
     1
 11
934325.322721
 21
7294407.64115
 31
0.0
210
0.0
220
0.0
230
1.0
  0
TEXT
  8
11
  6
CONTINUOUS
 62
     7
  5
E2
 10
934331.982
 20
7294407.193
 30
0.0
 40
8.0
  1
1
 50
356.145036
  7
ROMANS
 72
     1
 11
934333.311984
 21
7294407.103381
 31
0.0
210
0.0
220
0.0
230
1.0
  0
TEXT
  8
11
  6
CONTINUOUS
 62
     7
  5
E3
 10
934339.965
 20
7294406.655
 30
0.0
 40
8.0
  1
1
 50
356.145036
  7
ROMANS
 72
     1
 11
934341.294984
 21
7294406.565381
 31
0.0
210
0.0
220
0.0
230
1.0
  0
TEXT
  8
11
  6
CONTINUOUS
 62
     7
  5
E4
 10
934347.947
 20
7294406.118
 30
0.0
 40
8.0
  1
.
 50
356.145036
  7
ROMANS
 72
     1
 11
934349.266009
 21
7294406.029121
 31
0.0
210
0.0
220
0.0
230
1.0
  0
TEXT
  8
11
  6
CONTINUOUS
 62
     7
  5
E5
 10
934354.923
 20
7294405.647
 30
0.0
 40
8.0
  1
3
 50
356.145036
  7
ROMANS
 72
     1
 11
934357.250721
 21
7294405.49015
 31
0.0
210
0.0
220
0.0
230
1.0
  0
TEXT
  8
11
  6
CONTINUOUS
 62
     7
  5
E6
 10
934362.905
 20
7294405.11
 30
0.0
 40
8.0
  1
2
 50
356.145036
  7
ROMANS
 72
     1
 11
934365.232721
 21
7294404.95315
 31
0.0
210
0.0
220
0.0
230
1.0
  0
TEXT
  8
11
  6
CONTINUOUS
 62
     7
  5
E7
 10
934371.892
 20
7294404.504
 30
0.0
 40
8.0
  1
'
 50
356.145036
  7
ROMANS
 72
     1
 11
934373.221984
 21
7294404.414381
 31
0.0
210
0.0
220
0.0
230
1.0
  0
TEXT
  8
11
  6
CONTINUOUS
 62
     7
  5
E8
 10
934292.861
 20
7294395.797
 30
0.0
 40
8.0
  1
N
 50
356.145036
  7
ROMANS
 72
     1
 11
934295.913147
 21
7294403.609477
 31
0.0
210
0.0
220
0.0
230
1.0
 73
     3
  0
TEXT
  8
11
  6
CONTINUOUS
 62
     7
  5
E9
 10
934301.031
 20
7294395.247
 30
0.0
 40
8.0
  1
8
 50
356.145036
  7
ROMANS
 72
     1
 11
934303.89657
 21
7294403.072049
 31
0.0
210
0.0
220
0.0
230
1.0
 73
     3
  0
TEXT
  8
11
  6
CONTINUOUS
 62
     7
  5
EA
 10
934309.013
 20
7294394.709
 30
0.0
 40
8.0
  1
7
 50
356.145036
  7
ROMANS
 72
     1
 11
934311.87857
 21
7294402.534049
 31
0.0
210
0.0
220
0.0
230
1.0
 73
     3
  0
TEXT
  8
11
  6
CONTINUOUS
 62
     7
  5
EB
 10
934317.875
 20
7294394.112
 30
0.0
 40
8.0
  1
%%d
 50
356.145036
  7
ROMANS
 72
     1
 11
934319.846597
 21
7294401.997288
 31
0.0
210
0.0
220
0.0
230
1.0
 73
     3
  0
TEXT
  8
11
  6
CONTINUOUS
 62
     7
  5
EC
 10
934324.977
 20
7294393.632
 30
0.0
 40
8.0
  1
5
 50
356.145036
  7
ROMANS
 72
     1
 11
934327.853545
 21
7294401.45631
 31
0.0
210
0.0
220
0.0
230
1.0
 73
     3
  0
TEXT
  8
11
  6
CONTINUOUS
 62
     7
  5
ED
 10
934332.959
 20
7294393.095
 30
0.0
 40
8.0
  1
5
 50
356.145036
  7
ROMANS
 72
     1
 11
934335.835545
 21
7294400.91931
 31
0.0
210
0.0
220
0.0
230
1.0
 73
     3
  0
TEXT
  8
11
  6
CONTINUOUS
 62
     7
  5
EE
 10
934341.947
 20
7294392.49
 30
0.0
 40
8.0
  1
'
 50
356.145036
  7
ROMANS
 72
     1
 11
934343.814832
 21
7294400.38228
 31
0.0
210
0.0
220
0.0
230
1.0
 73
     3
  0
TEXT
  8
11
  6
CONTINUOUS
 62
     7
  5
EF
 10
934348.922
 20
7294392.019
 30
0.0
 40
8.0
  1
4
 50
356.145036
  7
ROMANS
 72
     1
 11
934351.78757
 21
7294399.844049
 31
0.0
210
0.0
220
0.0
230
1.0
 73
     3
  0
TEXT
  8
11
  6
CONTINUOUS
 62
     7
  5
F0
 10
934356.904
 20
7294391.482
 30
0.0
 40
8.0
  1
3
 50
356.145036
  7
ROMANS
 72
     1
 11
934359.76957
 21
7294399.307049
 31
0.0
210
0.0
220
0.0
230
1.0
 73
     3
  0
TEXT
  8
11
  6
CONTINUOUS
 62
     7
  5
F1
 10
934364.636
 20
7294390.962
 30
0.0
 40
8.0
  1
"
 50
356.145036
  7
ROMANS
 72
     1
 11
934367.751004
 21
7294398.770242
 31
0.0
210
0.0
220
0.0
230
1.0
 73
     3
  0
TEXT
  8
11
  6
CONTINUOUS
 62
     7
  5
F2
 10
934372.335
 20
7294390.442
 30
0.0
 40
8.0
  1
W
 50
356.145036
  7
ROMANS
 72
     1
 11
934375.730368
 21
7294398.23135
 31
0.0
210
0.0
220
0.0
230
1.0
 73
     3
  0
TEXT
  8
11
  6
CONTINUOUS
 62
     7
  5
F3
 10
934456.973
 20
7294339.76
 30
0.0
 40
8.0
  1
1
 50
271.142525
  7
ROMANS
 72
     1
 11
934456.999599
 21
7294338.426265
 31
0.0
210
0.0
220
0.0
230
1.0
  0
TEXT
  8
11
  6
CONTINUOUS
 62
     7
  5
F4
 10
934457.114
 20
7294332.77
 30
0.0
 40
8.0
  1
4
 50
271.142525
  7
ROMANS
 72
     1
 11
934457.160519
 21
7294330.437464
 31
0.0
210
0.0
220
0.0
230
1.0
  0
TEXT
  8
11
  6
CONTINUOUS
 62
     7
  5
F5
 10
934457.269
 20
7294324.961
 30
0.0
 40
8.0
  1
6
 50
271.142525
  7
ROMANS
 72
     1
 11
934457.319248
 21
7294322.441501
 31
0.0
210
0.0
220
0.0
230
1.0
  0
TEXT
  8
11
  6
CONTINUOUS
 62
     7
  5
F6
 10
934457.452
 20
7294315.766
 30
0.0
 40
8.0
  1
.
 50
271.142525
  7
ROMANS
 72
     1
 11
934457.47836
 21
7294314.444263
 31
0.0
210
0.0
220
0.0
230
1.0
  0
TEXT
  8
11
  6
CONTINUOUS
 62
     7
  5
F7
 10
934457.592
 20
7294308.775
 30
0.0
 40
8.0
  1
4
 50
271.142525
  7
ROMANS
 72
     1
 11
934457.638519
 21
7294306.442464
 31
0.0
210
0.0
220
0.0
230
1.0
  0
TEXT
  8
11
  6
CONTINUOUS
 62
     7
  5
F8
 10
934457.751
 20
7294300.777
 30
0.0
 40
8.0
  1
3
 50
271.142525
  7
ROMANS
 72
     1
 11
934457.797519
 21
7294298.444464
 31
0.0
210
0.0
220
0.0
230
1.0
  0
TEXT
  8
11
  6
CONTINUOUS
 62
     7
  5
F9
 10
934457.931
 20
7294291.77
 30
0.0
 40
8.0
  1
'
 50
271.142525
  7
ROMANS
 72
     1
 11
934457.957599
 21
7294290.436265
 31
0.0
210
0.0
220
0.0
230
1.0
  0
TEXT
  8
11
  6
CONTINUOUS
 62
     7
  5
FA
 10
934442.447
 20
7294366.022
 30
0.0
 40
8.0
  1
N
 50
271.142525
  7
ROMANS
 72
     1
 11
934450.495657
 21
7294363.662017
 31
0.0
210
0.0
220
0.0
230
1.0
 73
     3
  0
TEXT
  8
11
  6
CONTINUOUS
 62
     7
  5
FB
 10
934442.61
 20
7294357.835
 30
0.0
 40
8.0
  1
2
 50
271.142525
  7
ROMANS
 72
     1
 11
934450.654928
 21
7294355.66198
 31
0.0
210
0.0
220
0.0
230
1.0
 73
     3
  0
TEXT
  8
11
  6
CONTINUOUS
 62
     7
  5
FC
 10
934442.787
 20
7294348.955
 30
0.0
 40
8.0
  1
%%d
 50
271.142525
  7
ROMANS
 72
     1
 11
934450.814063
 21
7294347.677802
 31
0.0
210
0.0
220
0.0
230
1.0
 73
     3
  0
TEXT
  8
11
  6
CONTINUOUS
 62
     7
  5
FD
 10
934442.929
 20
7294341.838
 30
0.0
 40
8.0
  1
5
 50
271.142525
  7
ROMANS
 72
     1
 11
934450.974148
 21
7294339.653982
 31
0.0
210
0.0
220
0.0
230
1.0
 73
     3
  0
TEXT
  8
11
  6
CONTINUOUS
 62
     7
  5
FE
 10
934443.089
 20
7294333.839
 30
0.0
 40
8.0
  1
3
 50
271.142525
  7
ROMANS
 72
     1
 11
934451.133928
 21
7294331.66598
 31
0.0
210
0.0
220
0.0
230
1.0
 73
     3
  0
TEXT
  8
11
  6
CONTINUOUS
 62
     7
  5
FF
 10
934443.269
 20
7294324.833
 30
0.0
 40
8.0
  1
'
 50
271.142525
  7
ROMANS
 72
     1
 11
934451.294009
 21
7294323.658781
 31
0.0
210
0.0
220
0.0
230
1.0
 73
     3
  0
TEXT
  8
11
  6
CONTINUOUS
 62
     7
  5
100
 10
934443.407
 20
7294317.843
 30
0.0
 40
8.0
  1
3
 50
271.142525
  7
ROMANS
 72
     1
 11
934451.451928
 21
7294315.66998
 31
0.0
210
0.0
220
0.0
230
1.0
 73
     3
  0
TEXT
  8
11
  6
CONTINUOUS
 62
     7
  5
101
 10
934443.568
 20
7294309.845
 30
0.0
 40
8.0
  1
4
 50
271.142525
  7
ROMANS
 72
     1
 11
934451.612928
 21
7294307.67198
 31
0.0
210
0.0
220
0.0
230
1.0
 73
     3
  0
TEXT
  8
11
  6
CONTINUOUS
 62
     7
  5
102
 10
934443.722
 20
7294302.097
 30
0.0
 40
8.0
  1
"
 50
271.142525
  7
ROMANS
 72
     1
 11
934451.771913
 21
7294299.67403
 31
0.0
210
0.0
220
0.0
230
1.0
 73
     3
  0
TEXT
  8
11
  6
CONTINUOUS
 62
     7
  5
103
 10
934443.876
 20
7294294.383
 30
0.0
 40
8.0
  1
W
 50
271.142525
  7
ROMANS
 72
     1
 11
934451.931516
 21
7294291.679085
 31
0.0
210
0.0
220
0.0
230
1.0
 73
     3
  0
TEXT
  8
11
  6
CONTINUOUS
 62
     7
  5
104
 10
934545.979
 20
7294225.964
 30
0.0
 40
8.0
  1
3
 50
352.066883
  7
ROMANS
 72
     1
 11
934549.393809
 21
7294233.565445
 31
0.0
210
0.0
220
0.0
230
1.0
 73
     3
  0
TEXT
  8
11
  6
CONTINUOUS
 62
     7
  5
105
 10
934553.903
 20
7294224.86
 30
0.0
 40
8.0
  1
5
 50
352.066883
  7
ROMANS
 72
     1
 11
934557.328704
 21
7294232.459927
 31
0.0
210
0.0
220
0.0
230
1.0
 73
     3
  0
TEXT
  8
11
  6
CONTINUOUS
 62
     7
  5
106
 10
934562.825
 20
7294223.617
 30
0.0
 40
8.0
  1
1
 50
352.066883
  7
ROMANS
 72
     1
 11
934565.249379
 21
7294231.356462
 31
0.0
210
0.0
220
0.0
230
1.0
 73
     3
  0
TEXT
  8
11
  6
CONTINUOUS
 62
     7
  5
107
 10
934570.749
 20
7294222.513
 30
0.0
 40
8.0
  1
.
 50
352.066883
  7
ROMANS
 72
     1
 11
934573.162485
 21
7294230.25398
 31
0.0
210
0.0
220
0.0
230
1.0
 73
     3
  0
TEXT
  8
11
  6
CONTINUOUS
 62
     7
  5
108
 10
934577.673
 20
7294221.548
 30
0.0
 40
8.0
  1
3
 50
352.066883
  7
ROMANS
 72
     1
 11
934581.087809
 21
7294229.149445
 31
0.0
210
0.0
220
0.0
230
1.0
 73
     3
  0
TEXT
  8
11
  6
CONTINUOUS
 62
     7
  5
109
 10
934585.597
 20
7294220.444
 30
0.0
 40
8.0
  1
8
 50
352.066883
  7
ROMANS
 72
     1
 11
934589.011809
 21
7294228.045445
 31
0.0
210
0.0
220
0.0
230
1.0
 73
     3
  0
TEXT
  8
11
  6
CONTINUOUS
 62
     7
  5
10A
 10
934594.519
 20
7294219.201
 30
0.0
 40
8.0
  1
'
 50
352.066883
  7
ROMANS
 72
     1
 11
934596.943379
 21
7294226.940462
 31
0.0
210
0.0
220
0.0
230
1.0
 73
     3
  0
TEXT
  8
11
  6
CONTINUOUS
 62
     7
  5
10B
 10
934599.821
 20
7294218.461
 30
0.0
 40
8.0
  1
 
 50
352.066883
  7
ROMANS
 72
     1
 11
934603.565622
 21
7294226.016485
 31
0.0
210
0.0
220
0.0
230
1.0
 73
     3
  0
TEXT
  8
11
  6
CONTINUOUS
 62
     7
  5
10C
 10
934607.744
 20
7294217.357
 30
0.0
 40
8.0
  1
 
 50
352.066883
  7
ROMANS
 72
     1
 11
934611.488622
 21
7294224.912485
 31
0.0
210
0.0
220
0.0
230
1.0
 73
     3
  0
TEXT
  8
11
  6
CONTINUOUS
 62
     7
  5
10D
 10
934617.103
 20
7294216.053
 30
0.0
 40
8.0
  1
N
 50
352.066883
  7
ROMANS
 72
     1
 11
934620.703019
 21
7294223.628636
 31
0.0
210
0.0
220
0.0
230
1.0
 73
     3
  0
TEXT
  8
11
  6
CONTINUOUS
 62
     7
  5
10E
 10
934625.213
 20
7294214.923
 30
0.0
 40
8.0
  1
8
 50
352.066883
  7
ROMANS
 72
     1
 11
934628.627809
 21
7294222.524445
 31
0.0
210
0.0
220
0.0
230
1.0
 73
     3
  0
TEXT
  8
11
  6
CONTINUOUS
 62
     7
  5
10F
 10
934633.137
 20
7294213.819
 30
0.0
 40
8.0
  1
3
 50
352.066883
  7
ROMANS
 72
     1
 11
934636.551809
 21
7294221.420445
 31
0.0
210
0.0
220
0.0
230
1.0
 73
     3
  0
TEXT
  8
11
  6
CONTINUOUS
 62
     7
  5
110
 10
934641.934
 20
7294212.593
 30
0.0
 40
8.0
  1
%%d
 50
352.066883
  7
ROMANS
 72
     1
 11
934644.461384
 21
7294220.318108
 31
0.0
210
0.0
220
0.0
230
1.0
 73
     3
  0
TEXT
  8
11
  6
CONTINUOUS
 62
     7
  5
111
 10
934648.984
 20
7294211.611
 30
0.0
 40
8.0
  1
5
 50
352.066883
  7
ROMANS
 72
     1
 11
934652.409704
 21
7294219.210927
 31
0.0
210
0.0
220
0.0
230
1.0
 73
     3
  0
TEXT
  8
11
  6
CONTINUOUS
 62
     7
  5
112
 10
934657.906
 20
7294210.367
 30
0.0
 40
8.0
  1
1
 50
352.066883
  7
ROMANS
 72
     1
 11
934660.330379
 21
7294218.106462
 31
0.0
210
0.0
220
0.0
230
1.0
 73
     3
  0
TEXT
  8
11
  6
CONTINUOUS
 62
     7
  5
113
 10
934665.83
 20
7294209.263
 30
0.0
 40
8.0
  1
'
 50
352.066883
  7
ROMANS
 72
     1
 11
934668.254379
 21
7294217.002462
 31
0.0
210
0.0
220
0.0
230
1.0
 73
     3
  0
TEXT
  8
11
  6
CONTINUOUS
 62
     7
  5
114
 10
934672.754
 20
7294208.298
 30
0.0
 40
8.0
  1
2
 50
352.066883
  7
ROMANS
 72
     1
 11
934676.168809
 21
7294215.899445
 31
0.0
210
0.0
220
0.0
230
1.0
 73
     3
  0
TEXT
  8
11
  6
CONTINUOUS
 62
     7
  5
115
 10
934680.428
 20
7294207.229
 30
0.0
 40
8.0
  1
"
 50
352.066883
  7
ROMANS
 72
     1
 11
934684.090417
 21
7294214.795941
 31
0.0
210
0.0
220
0.0
230
1.0
 73
     3
  0
TEXT
  8
11
  6
CONTINUOUS
 62
     7
  5
116
 10
934688.072
 20
7294206.163
 30
0.0
 40
8.0
  1
W
 50
352.066883
  7
ROMANS
 72
     1
 11
934692.012727
 21
7294213.691158
 31
0.0
210
0.0
220
0.0
230
1.0
 73
     3
  0
TEXT
  8
11
  6
CONTINUOUS
 62
     7
  5
117
 10
934806.42
 20
7294182.352
 30
0.0
 40
8.0
  1
1
 50
313.404108
  7
ROMANS
 72
     1
 11
934813.14816
 21
7294186.880658
 31
0.0
210
0.0
220
0.0
230
1.0
 73
     3
  0
TEXT
  8
11
  6
CONTINUOUS
 62
     7
  5
118
 10
934811.225
 20
7294177.272
 30
0.0
 40
8.0
  1
8
 50
313.404108
  7
ROMANS
 72
     1
 11
934818.6403
 21
7294181.074133
 31
0.0
210
0.0
220
0.0
230
1.0
 73
     3
  0
TEXT
  8
11
  6
CONTINUOUS
 62
     7
  5
119
 10
934816.722
 20
7294171.46
 30
0.0
 40
8.0
  1
3
 50
313.404108
  7
ROMANS
 72
     1
 11
934824.1373
 21
7294175.262133
 31
0.0
210
0.0
220
0.0
230
1.0
 73
     3
  0
TEXT
  8
11
  6
CONTINUOUS
 62
     7
  5
11A
 10
934822.912
 20
7294164.916
 30
0.0
 40
8.0
  1
.
 50
313.404108
  7
ROMANS
 72
     1
 11
934829.632602
 21
7294169.45265
 31
0.0
210
0.0
220
0.0
230
1.0
 73
     3
  0
TEXT
  8
11
  6
CONTINUOUS
 62
     7
  5
11B
 10
934827.717
 20
7294159.837
 30
0.0
 40
8.0
  1
4
 50
313.404108
  7
ROMANS
 72
     1
 11
934835.1323
 21
7294163.639133
 31
0.0
210
0.0
220
0.0
230
1.0
 73
     3
  0
TEXT
  8
11
  6
CONTINUOUS
 62
     7
  5
11C
 10
934833.084
 20
7294154.161
 30
0.0
 40
8.0
  1
6
 50
313.404108
  7
ROMANS
 72
     1
 11
934840.627795
 21
7294157.827273
 31
0.0
210
0.0
220
0.0
230
1.0
 73
     3
  0
TEXT
  8
11
  6
CONTINUOUS
 62
     7
  5
11D
 10
934839.404
 20
7294147.479
 30
0.0
 40
8.0
  1
'
 50
313.404108
  7
ROMANS
 72
     1
 11
934846.13216
 21
7294152.007658
 31
0.0
210
0.0
220
0.0
230
1.0
 73
     3
  0
TEXT
  8
11
  6
CONTINUOUS
 62
     7
  5
11E
 10
934843.082
 20
7294143.589
 30
0.0
 40
8.0
  1
 
 50
313.404108
  7
ROMANS
 72
     1
 11
934850.726117
 21
7294147.1492
 31
0.0
210
0.0
220
0.0
230
1.0
 73
     3
  0
TEXT
  8
11
  6
CONTINUOUS
 62
     7
  5
11F
 10
934848.579
 20
7294137.777
 30
0.0
 40
8.0
  1
 
 50
313.404108
  7
ROMANS
 72
     1
 11
934856.223117
 21
7294141.3372
 31
0.0
210
0.0
220
0.0
230
1.0
 73
     3
  0
TEXT
  8
11
  6
CONTINUOUS
 62
     7
  5
120
 10
934855.073
 20
7294130.912
 30
0.0
 40
8.0
  1
N
 50
313.404108
  7
ROMANS
 72
     1
 11
934862.616795
 21
7294134.578273
 31
0.0
210
0.0
220
0.0
230
1.0
 73
     3
  0
TEXT
  8
11
  6
CONTINUOUS
 62
     7
  5
121
 10
934860.699
 20
7294124.963
 30
0.0
 40
8.0
  1
4
 50
313.404108
  7
ROMANS
 72
     1
 11
934868.1143
 21
7294128.765133
 31
0.0
210
0.0
220
0.0
230
1.0
 73
     3
  0
TEXT
  8
11
  6
CONTINUOUS
 62
     7
  5
122
 10
934866.196
 20
7294119.15
 30
0.0
 40
8.0
  1
5
 50
313.404108
  7
ROMANS
 72
     1
 11
934873.618858
 21
7294122.944141
 31
0.0
210
0.0
220
0.0
230
1.0
 73
     3
  0
TEXT
  8
11
  6
CONTINUOUS
 62
     7
  5
123
 10
934872.3
 20
7294112.697
 30
0.0
 40
8.0
  1
%%d
 50
313.404108
  7
ROMANS
 72
     1
 11
934879.099623
 21
7294117.1501
 31
0.0
210
0.0
220
0.0
230
1.0
 73
     3
  0
TEXT
  8
11
  6
CONTINUOUS
 62
     7
  5
124
 10
934877.883
 20
7294106.794
 30
0.0
 40
8.0
  1
1
 50
313.404108
  7
ROMANS
 72
     1
 11
934884.61116
 21
7294111.322658
 31
0.0
210
0.0
220
0.0
230
1.0
 73
     3
  0
TEXT
  8
11
  6
CONTINUOUS
 62
     7
  5
125
 10
934883.38
 20
7294100.982
 30
0.0
 40
8.0
  1
1
 50
313.404108
  7
ROMANS
 72
     1
 11
934890.10816
 21
7294105.510658
 31
0.0
210
0.0
220
0.0
230
1.0
 73
     3
  0
TEXT
  8
11
  6
CONTINUOUS
 62
     7
  5
126
 10
934888.878
 20
7294095.169
 30
0.0
 40
8.0
  1
'
 50
313.404108
  7
ROMANS
 72
     1
 11
934895.60616
 21
7294099.697658
 31
0.0
210
0.0
220
0.0
230
1.0
 73
     3
  0
TEXT
  8
11
  6
CONTINUOUS
 62
     7
  5
127
 10
934894.374
 20
7294089.357
 30
0.0
 40
8.0
  1
1
 50
313.404108
  7
ROMANS
 72
     1
 11
934901.10216
 21
7294093.885658
 31
0.0
210
0.0
220
0.0
230
1.0
 73
     3
  0
TEXT
  8
11
  6
CONTINUOUS
 62
     7
  5
128
 10
934899.05
 20
7294084.415
 30
0.0
 40
8.0
  1
6
 50
313.404108
  7
ROMANS
 72
     1
 11
934906.593795
 21
7294088.081273
 31
0.0
210
0.0
220
0.0
230
1.0
 73
     3
  0
TEXT
  8
11
  6
CONTINUOUS
 62
     7
  5
129
 10
934904.503
 20
7294078.647
 30
0.0
 40
8.0
  1
"
 50
313.404108
  7
ROMANS
 72
     1
 11
934912.090085
 21
7294082.267502
 31
0.0
210
0.0
220
0.0
230
1.0
 73
     3
  0
TEXT
  8
11
  6
CONTINUOUS
 62
     7
  5
12A
 10
934909.806
 20
7294073.042
 30
0.0
 40
8.0
  1
W
 50
313.404108
  7
ROMANS
 72
     1
 11
934917.586171
 21
7294076.458348
 31
0.0
210
0.0
220
0.0
230
1.0
 73
     3
  0
TEXT
  8
11
  6
CONTINUOUS
 62
     7
  5
12B
 10
934910.291
 20
7293771.338
 30
0.0
 40
8.0
  1
7
 50
268.347253
  7
ROMANS
 72
     1
 11
934918.220384
 21
7293768.775236
 31
0.0
210
0.0
220
0.0
230
1.0
 73
     3
  0
TEXT
  8
11
  6
CONTINUOUS
 62
     7
  5
12C
 10
934910.06
 20
7293763.342
 30
0.0
 40
8.0
  1
7
 50
268.347253
  7
ROMANS
 72
     1
 11
934917.989384
 21
7293760.779236
 31
0.0
210
0.0
220
0.0
230
1.0
 73
     3
  0
TEXT
  8
11
  6
CONTINUOUS
 62
     7
  5
12D
 10
934909.838
 20
7293755.66
 30
0.0
 40
8.0
  1
0
 50
268.347253
  7
ROMANS
 72
     1
 11
934917.758212
 21
7293752.779368
 31
0.0
210
0.0
220
0.0
230
1.0
 73
     3
  0
TEXT
  8
11
  6
CONTINUOUS
 62
     7
  5
12E
 10
934909.568
 20
7293746.341
 30
0.0
 40
8.0
  1
.
 50
268.347253
  7
ROMANS
 72
     1
 11
934917.526543
 21
7293744.788815
 31
0.0
210
0.0
220
0.0
230
1.0
 73
     3
  0
TEXT
  8
11
  6
CONTINUOUS
 62
     7
  5
12F
 10
934909.368
 20
7293739.352
 30
0.0
 40
8.0
  1
2
 50
268.347253
  7
ROMANS
 72
     1
 11
934917.297384
 21
7293736.789236
 31
0.0
210
0.0
220
0.0
230
1.0
 73
     3
  0
TEXT
  8
11
  6
CONTINUOUS
 62
     7
  5
130
 10
934909.107
 20
7293730.347
 30
0.0
 40
8.0
  1
1
 50
268.347253
  7
ROMANS
 72
     1
 11
934917.065226
 21
7293728.78382
 31
0.0
210
0.0
220
0.0
230
1.0
 73
     3
  0
TEXT
  8
11
  6
CONTINUOUS
 62
     7
  5
131
 10
934908.876
 20
7293722.351
 30
0.0
 40
8.0
  1
'
 50
268.347253
  7
ROMANS
 72
     1
 11
934916.834226
 21
7293720.78782
 31
0.0
210
0.0
220
0.0
230
1.0
 73
     3
  0
TEXT
  8
11
  6
CONTINUOUS
 62
     7
  5
132
 10
934908.722
 20
7293716.999
 30
0.0
 40
8.0
  1
 
 50
268.347253
  7
ROMANS
 72
     1
 11
934916.641779
 21
7293714.103374
 31
0.0
210
0.0
220
0.0
230
1.0
 73
     3
  0
TEXT
  8
11
  6
CONTINUOUS
 62
     7
  5
133
 10
934908.492
 20
7293709.002
 30
0.0
 40
8.0
  1
 
 50
268.347253
  7
ROMANS
 72
     1
 11
934916.411779
 21
7293706.106374
 31
0.0
210
0.0
220
0.0
230
1.0
 73
     3
  0
TEXT
  8
11
  6
CONTINUOUS
 62
     7
  5
134
 10
934908.261
 20
7293701.005
 30
0.0
 40
8.0
  1
 
 50
268.347253
  7
ROMANS
 72
     1
 11
934916.180779
 21
7293698.109374
 31
0.0
210
0.0
220
0.0
230
1.0
 73
     3
  0
TEXT
  8
11
  6
CONTINUOUS
 62
     7
  5
135
 10
934907.988
 20
7293691.56
 30
0.0
 40
8.0
  1
N
 50
268.347253
  7
ROMANS
 72
     1
 11
934915.91199
 21
7293688.810313
 31
0.0
210
0.0
220
0.0
230
1.0
 73
     3
  0
TEXT
  8
11
  6
CONTINUOUS
 62
     7
  5
136
 10
934907.761
 20
7293683.69
 30
0.0
 40
8.0
  1
0
 50
268.347253
  7
ROMANS
 72
     1
 11
934915.681212
 21
7293680.809368
 31
0.0
210
0.0
220
0.0
230
1.0
 73
     3
  0
TEXT
  8
11
  6
CONTINUOUS
 62
     7
  5
137
 10
934907.496
 20
7293674.496
 30
0.0
 40
8.0
  1
%%d
 50
268.347253
  7
ROMANS
 72
     1
 11
934915.451226
 21
7293672.828863
 31
0.0
210
0.0
220
0.0
230
1.0
 73
     3
  0
TEXT
  8
11
  6
CONTINUOUS
 62
     7
  5
138
 10
934907.291
 20
7293667.381
 30
0.0
 40
8.0
  1
7
 50
268.347253
  7
ROMANS
 72
     1
 11
934915.220384
 21
7293664.818236
 31
0.0
210
0.0
220
0.0
230
1.0
 73
     3
  0
TEXT
  8
11
  6
CONTINUOUS
 62
     7
  5
139
 10
934907.03
 20
7293658.377
 30
0.0
 40
8.0
  1
'
 50
268.347253
  7
ROMANS
 72
     1
 11
934914.988226
 21
7293656.81382
 31
0.0
210
0.0
220
0.0
230
1.0
 73
     3
  0
TEXT
  8
11
  6
CONTINUOUS
 62
     7
  5
13A
 10
934906.83
 20
7293651.388
 30
0.0
 40
8.0
  1
5
 50
268.347253
  7
ROMANS
 72
     1
 11
934914.759067
 21
7293648.81424
 31
0.0
210
0.0
220
0.0
230
1.0
 73
     3
  0
TEXT
  8
11
  6
CONTINUOUS
 62
     7
  5
13B
 10
934906.599
 20
7293643.391
 30
0.0
 40
8.0
  1
7
 50
268.347253
  7
ROMANS
 72
     1
 11
934914.528384
 21
7293640.828236
 31
0.0
210
0.0
220
0.0
230
1.0
 73
     3
  0
TEXT
  8
11
  6
CONTINUOUS
 62
     7
  5
13C
 10
934906.375
 20
7293635.646
 30
0.0
 40
8.0
  1
"
 50
268.347253
  7
ROMANS
 72
     1
 11
934914.297173
 21
7293632.83334
 31
0.0
210
0.0
220
0.0
230
1.0
 73
     3
  0
TEXT
  8
11
  6
CONTINUOUS
 62
     7
  5
13D
 10
934906.151
 20
7293627.933
 30
0.0
 40
8.0
  1
W
 50
268.347253
  7
ROMANS
 72
     1
 11
934914.065069
 21
7293624.839456
 31
0.0
210
0.0
220
0.0
230
1.0
 73
     3
  0
TEXT
  8
11
  6
CONTINUOUS
 62
     7
  5
13E
 10
935622.575
 20
7293290.797
 30
0.0
 40
8.0
  1
1
 50
359.184997
  7
ROMANS
 72
     1
 11
935623.907865
 21
7293290.778039
 31
0.0
210
0.0
220
0.0
230
1.0
  0
TEXT
  8
11
  6
CONTINUOUS
 62
     7
  5
13F
 10
935629.566
 20
7293290.697
 30
0.0
 40
8.0
  1
5
 50
359.184997
  7
ROMANS
 72
     1
 11
935631.909763
 21
7293290.663659
 31
0.0
210
0.0
220
0.0
230
1.0
  0
TEXT
  8
11
  6
CONTINUOUS
 62
     7
  5
140
 10
935637.566
 20
7293290.584
 30
0.0
 40
8.0
  1
7
 50
359.184997
  7
ROMANS
 72
     1
 11
935639.898764
 21
7293290.550815
 31
0.0
210
0.0
220
0.0
230
1.0
  0
TEXT
  8
11
  6
CONTINUOUS
 62
     7
  5
141
 10
935645.376
 20
7293290.472
 30
0.0
 40
8.0
  1
6
 50
359.184997
  7
ROMANS
 72
     1
 11
935647.895745
 21
7293290.436156
 31
0.0
210
0.0
220
0.0
230
1.0
  0
TEXT
  8
11
  6
CONTINUOUS
 62
     7
  5
142
 10
935654.573
 20
7293290.342
 30
0.0
 40
8.0
  1
.
 50
359.184997
  7
ROMANS
 72
     1
 11
935655.894866
 21
7293290.323196
 31
0.0
210
0.0
220
0.0
230
1.0
  0
TEXT
  8
11
  6
CONTINUOUS
 62
     7
  5
143
 10
935661.563
 20
7293290.242
 30
0.0
 40
8.0
  1
5
 50
359.184997
  7
ROMANS
 72
     1
 11
935663.906763
 21
7293290.208659
 31
0.0
210
0.0
220
0.0
230
1.0
  0
TEXT
  8
11
  6
CONTINUOUS
 62
     7
  5
144
 10
935670.57
 20
7293290.114
 30
0.0
 40
8.0
  1
1
 50
359.184997
  7
ROMANS
 72
     1
 11
935671.902865
 21
7293290.095039
 31
0.0
210
0.0
220
0.0
230
1.0
  0
TEXT
  8
11
  6
CONTINUOUS
 62
     7
  5
145
 10
935678.57
 20
7293290.001
 30
0.0
 40
8.0
  1
'
 50
359.184997
  7
ROMANS
 72
     1
 11
935679.902865
 21
7293289.982039
 31
0.0
210
0.0
220
0.0
230
1.0
  0
TEXT
  8
11
  6
CONTINUOUS
 62
     7
  5
146
 10
935683.924
 20
7293289.924
 30
0.0
 40
8.0
  1
 
 50
359.184997
  7
ROMANS
 72
     1
 11
935686.58973
 21
7293289.886079
 31
0.0
210
0.0
220
0.0
230
1.0
  0
TEXT
  8
11
  6
CONTINUOUS
 62
     7
  5
147
 10
935691.923
 20
7293289.81
 30
0.0
 40
8.0
  1
 
 50
359.184997
  7
ROMANS
 72
     1
 11
935694.58873
 21
7293289.772079
 31
0.0
210
0.0
220
0.0
230
1.0
  0
TEXT
  8
11
  6
CONTINUOUS
 62
     7
  5
148
 10
935699.922
 20
7293289.696
 30
0.0
 40
8.0
  1
 
 50
359.184997
  7
ROMANS
 72
     1
 11
935702.58773
 21
7293289.658079
 31
0.0
210
0.0
220
0.0
230
1.0
  0
TEXT
  8
11
  6
CONTINUOUS
 62
     7
  5
149
 10
935707.922
 20
7293289.583
 30
0.0
 40
8.0
  1
 
 50
359.184997
  7
ROMANS
 72
     1
 11
935710.58773
 21
7293289.545079
 31
0.0
210
0.0
220
0.0
230
1.0
  0
TEXT
  8
11
  6
CONTINUOUS
 62
     7
  5
14A
 10
935715.92
 20
7293289.469
 30
0.0
 40
8.0
  1
 
 50
359.184997
  7
ROMANS
 72
     1
 11
935718.58573
 21
7293289.431079
 31
0.0
210
0.0
220
0.0
230
1.0
  0
TEXT
  8
11
  6
CONTINUOUS
 62
     7
  5
14B
 10
935725.367
 20
7293289.334
 30
0.0
 40
8.0
  1
S
 50
359.184997
  7
ROMANS
 72
     1
 11
935727.880746
 21
7293289.298241
 31
0.0
210
0.0
220
0.0
230
1.0
  0
TEXT
  8
11
  6
CONTINUOUS
 62
     7
  5
14C
 10
935733.556
 20
7293289.218
 30
0.0
 40
8.0
  1
8
 50
359.184997
  7
ROMANS
 72
     1
 11
935735.888764
 21
7293289.184815
 31
0.0
210
0.0
220
0.0
230
1.0
  0
TEXT
  8
11
  6
CONTINUOUS
 62
     7
  5
14D
 10
935741.555
 20
7293289.105
 30
0.0
 40
8.0
  1
9
 50
359.184997
  7
ROMANS
 72
     1
 11
935743.887764
 21
7293289.071815
 31
0.0
210
0.0
220
0.0
230
1.0
  0
TEXT
  8
11
  6
CONTINUOUS
 62
     7
  5
14E
 10
935750.437
 20
7293288.978
 30
0.0
 40
8.0
  1
%%d
 50
359.184997
  7
ROMANS
 72
     1
 11
935751.873855
 21
7293288.95756
 31
0.0
210
0.0
220
0.0
230
1.0
  0
TEXT
  8
11
  6
CONTINUOUS
 62
     7
  5
14F
 10
935758.562
 20
7293288.862
 30
0.0
 40
8.0
  1
1
 50
359.184997
  7
ROMANS
 72
     1
 11
935759.894865
 21
7293288.843039
 31
0.0
210
0.0
220
0.0
230
1.0
  0
TEXT
  8
11
  6
CONTINUOUS
 62
     7
  5
150
 10
935766.561
 20
7293288.748
 30
0.0
 40
8.0
  1
'
 50
359.184997
  7
ROMANS
 72
     1
 11
935767.893865
 21
7293288.729039
 31
0.0
210
0.0
220
0.0
230
1.0
  0
TEXT
  8
11
  6
CONTINUOUS
 62
     7
  5
151
 10
935773.552
 20
7293288.65
 30
0.0
 40
8.0
  1
5
 50
359.184997
  7
ROMANS
 72
     1
 11
935775.895763
 21
7293288.616659
 31
0.0
210
0.0
220
0.0
230
1.0
  0
TEXT
  8
11
  6
CONTINUOUS
 62
     7
  5
152
 10
935781.551
 20
7293288.536
 30
0.0
 40
8.0
  1
3
 50
359.184997
  7
ROMANS
 72
     1
 11
935783.883764
 21
7293288.502815
 31
0.0
210
0.0
220
0.0
230
1.0
  0
TEXT
  8
11
  6
CONTINUOUS
 62
     7
  5
153
 10
935789.298
 20
7293288.425
 30
0.0
 40
8.0
  1
"
 50
359.184997
  7
ROMANS
 72
     1
 11
935791.880739
 21
7293288.388259
 31
0.0
210
0.0
220
0.0
230
1.0
  0
TEXT
  8
11
  6
CONTINUOUS
 62
     7
  5
154
 10
935797.014
 20
7293288.315
 30
0.0
 40
8.0
  1
W
 50
359.184997
  7
ROMANS
 72
     1
 11
935799.87771
 21
7293288.274262
 31
0.0
210
0.0
220
0.0
230
1.0
  0
TEXT
  8
11
  6
CONTINUOUS
 62
     7
  5
155
 10
936596.01
 20
7292787.097
 30
0.0
 40
8.0
  1
1
 50
284.175017
  7
ROMANS
 72
     1
 11
936604.092849
 21
7292787.763664
 31
0.0
210
0.0
220
0.0
230
1.0
 73
     3
  0
TEXT
  8
11
  6
CONTINUOUS
 62
     7
  5
156
 10
936597.722
 20
7292780.318
 30
0.0
 40
8.0
  1
2
 50
284.175017
  7
ROMANS
 72
     1
 11
936606.049734
 21
7292780.015112
 31
0.0
210
0.0
220
0.0
230
1.0
 73
     3
  0
TEXT
  8
11
  6
CONTINUOUS
 62
     7
  5
157
 10
936599.604
 20
7292772.867
 30
0.0
 40
8.0
  1
0
 50
284.175017
  7
ROMANS
 72
     1
 11
936608.009607
 21
7292772.255794
 31
0.0
210
0.0
220
0.0
230
1.0
 73
     3
  0
TEXT
  8
11
  6
CONTINUOUS
 62
     7
  5
158
 10
936601.64
 20
7292764.806
 30
0.0
 40
8.0
  1
4
 50
284.175017
  7
ROMANS
 72
     1
 11
936609.967734
 21
7292764.503112
 31
0.0
210
0.0
220
0.0
230
1.0
 73
     3
  0
TEXT
  8
11
  6
CONTINUOUS
 62
     7
  5
159
 10
936603.847
 20
7292756.071
 30
0.0
 40
8.0
  1
.
 50
284.175017
  7
ROMANS
 72
     1
 11
936611.927155
 21
7292756.748329
 31
0.0
210
0.0
220
0.0
230
1.0
 73
     3
  0
TEXT
  8
11
  6
CONTINUOUS
 62
     7
  5
15A
 10
936605.558
 20
7292749.293
 30
0.0
 40
8.0
  1
3
 50
284.175017
  7
ROMANS
 72
     1
 11
936613.885734
 21
7292748.990112
 31
0.0
210
0.0
220
0.0
230
1.0
 73
     3
  0
TEXT
  8
11
  6
CONTINUOUS
 62
     7
  5
15B
 10
936607.518
 20
7292741.537
 30
0.0
 40
8.0
  1
7
 50
284.175017
  7
ROMANS
 72
     1
 11
936615.845734
 21
7292741.234112
 31
0.0
210
0.0
220
0.0
230
1.0
 73
     3
  0
TEXT
  8
11
  6
CONTINUOUS
 62
     7
  5
15C
 10
936609.724
 20
7292732.802
 30
0.0
 40
8.0
  1
'
 50
284.175017
  7
ROMANS
 72
     1
 11
936617.806849
 21
7292733.468664
 31
0.0
210
0.0
220
0.0
230
1.0
 73
     3
  0
TEXT
  8
11
  6
CONTINUOUS
 62
     7
  5
15D
 10
936611.035
 20
7292727.611
 30
0.0
 40
8.0
  1
 
 50
284.175017
  7
ROMANS
 72
     1
 11
936619.44428
 21
7292726.985251
 31
0.0
210
0.0
220
0.0
230
1.0
 73
     3
  0
TEXT
  8
11
  6
CONTINUOUS
 62
     7
  5
15E
 10
936612.994
 20
7292719.855
 30
0.0
 40
8.0
  1
 
 50
284.175017
  7
ROMANS
 72
     1
 11
936621.40328
 21
7292719.229251
 31
0.0
210
0.0
220
0.0
230
1.0
 73
     3
  0
TEXT
  8
11
  6
CONTINUOUS
 62
     7
  5
15F
 10
936614.953
 20
7292712.098
 30
0.0
 40
8.0
  1
 
 50
284.175017
  7
ROMANS
 72
     1
 11
936623.36228
 21
7292711.472251
 31
0.0
210
0.0
220
0.0
230
1.0
 73
     3
  0
TEXT
  8
11
  6
CONTINUOUS
 62
     7
  5
160
 10
936616.912
 20
7292704.341
 30
0.0
 40
8.0
  1
 
 50
284.175017
  7
ROMANS
 72
     1
 11
936625.32128
 21
7292703.715251
 31
0.0
210
0.0
220
0.0
230
1.0
 73
     3
  0
TEXT
  8
11
  6
CONTINUOUS
 62
     7
  5
161
 10
936618.871
 20
7292696.586
 30
0.0
 40
8.0
  1
 
 50
284.175017
  7
ROMANS
 72
     1
 11
936627.28028
 21
7292695.960251
 31
0.0
210
0.0
220
0.0
230
1.0
 73
     3
  0
TEXT
  8
11
  6
CONTINUOUS
 62
     7
  5
162
 10
936621.184
 20
7292687.424
 30
0.0
 40
8.0
  1
N
 50
284.175017
  7
ROMANS
 72
     1
 11
936629.557527
 21
7292686.939806
 31
0.0
210
0.0
220
0.0
230
1.0
 73
     3
  0
TEXT
  8
11
  6
CONTINUOUS
 62
     7
  5
163
 10
936623.438
 20
7292678.507
 30
0.0
 40
8.0
  1
1
 50
284.175017
  7
ROMANS
 72
     1
 11
936631.520849
 21
7292679.173664
 31
0.0
210
0.0
220
0.0
230
1.0
 73
     3
  0
TEXT
  8
11
  6
CONTINUOUS
 62
     7
  5
164
 10
936625.15
 20
7292671.729
 30
0.0
 40
8.0
  1
5
 50
284.175017
  7
ROMANS
 72
     1
 11
936633.480427
 21
7292671.415447
 31
0.0
210
0.0
220
0.0
230
1.0
 73
     3
  0
TEXT
  8
11
  6
CONTINUOUS
 62
     7
  5
165
 10
936627.325
 20
7292663.117
 30
0.0
 40
8.0
  1
%%d
 50
284.175017
  7
ROMANS
 72
     1
 11
936635.433317
 21
7292663.682831
 31
0.0
210
0.0
220
0.0
230
1.0
 73
     3
  0
TEXT
  8
11
  6
CONTINUOUS
 62
     7
  5
166
 10
936629.068
 20
7292656.216
 30
0.0
 40
8.0
  1
5
 50
284.175017
  7
ROMANS
 72
     1
 11
936637.398427
 21
7292655.902447
 31
0.0
210
0.0
220
0.0
230
1.0
 73
     3
  0
TEXT
  8
11
  6
CONTINUOUS
 62
     7
  5
167
 10
936631.026
 20
7292648.46
 30
0.0
 40
8.0
  1
7
 50
284.175017
  7
ROMANS
 72
     1
 11
936639.353734
 21
7292648.157112
 31
0.0
210
0.0
220
0.0
230
1.0
 73
     3
  0
TEXT
  8
11
  6
CONTINUOUS
 62
     7
  5
168
 10
936633.233
 20
7292639.725
 30
0.0
 40
8.0
  1
'
 50
284.175017
  7
ROMANS
 72
     1
 11
936641.315849
 21
7292640.391664
 31
0.0
210
0.0
220
0.0
230
1.0
 73
     3
  0
TEXT
  8
11
  6
CONTINUOUS
 62
     7
  5
169
 10
936634.944
 20
7292632.947
 30
0.0
 40
8.0
  1
3
 50
284.175017
  7
ROMANS
 72
     1
 11
936643.271734
 21
7292632.644112
 31
0.0
210
0.0
220
0.0
230
1.0
 73
     3
  0
TEXT
  8
11
  6
CONTINUOUS
 62
     7
  5
16A
 10
936637.152
 20
7292624.213
 30
0.0
 40
8.0
  1
1
 50
284.175017
  7
ROMANS
 72
     1
 11
936645.234849
 21
7292624.879664
 31
0.0
210
0.0
220
0.0
230
1.0
 73
     3
  0
TEXT
  8
11
  6
CONTINUOUS
 62
     7
  5
16B
 10
936638.801
 20
7292617.678
 30
0.0
 40
8.0
  1
"
 50
284.175017
  7
ROMANS
 72
     1
 11
936647.189955
 21
7292617.132724
 31
0.0
210
0.0
220
0.0
230
1.0
 73
     3
  0
TEXT
  8
11
  6
CONTINUOUS
 62
     7
  5
16C
 10
936640.691
 20
7292610.196
 30
0.0
 40
8.0
  1
W
 50
284.175017
  7
ROMANS
 72
     1
 11
936649.148767
 21
7292609.37828
 31
0.0
210
0.0
220
0.0
230
1.0
 73
     3
  0
TEXT
  8
11
  6
CONTINUOUS
 62
     7
  5
16D
 10
936307.125
 20
7292125.536
 30
0.0
 40
8.0
  1
8
 50
358.2164
  7
ROMANS
 72
     1
 11
936309.45687
 21
7292125.463386
 31
0.0
210
0.0
220
0.0
230
1.0
  0
TEXT
  8
11
  6
CONTINUOUS
 62
     7
  5
16E
 10
936315.122
 20
7292125.287
 30
0.0
 40
8.0
  1
3
 50
358.2164
  7
ROMANS
 72
     1
 11
936317.45387
 21
7292125.214386
 31
0.0
210
0.0
220
0.0
230
1.0
  0
TEXT
  8
11
  6
CONTINUOUS
 62
     7
  5
16F
 10
936323.118
 20
7292125.038
 30
0.0
 40
8.0
  1
2
 50
358.2164
  7
ROMANS
 72
     1
 11
936325.44987
 21
7292124.965386
 31
0.0
210
0.0
220
0.0
230
1.0
  0
TEXT
  8
11
  6
CONTINUOUS
 62
     7
  5
170
 10
936332.121
 20
7292124.758
 30
0.0
 40
8.0
  1
.
 50
358.2164
  7
ROMANS
 72
     1
 11
936333.44236
 21
7292124.716853
 31
0.0
210
0.0
220
0.0
230
1.0
  0
TEXT
  8
11
  6
CONTINUOUS
 62
     7
  5
171
 10
936339.11
 20
7292124.54
 30
0.0
 40
8.0
  1
9
 50
358.2164
  7
ROMANS
 72
     1
 11
936341.44187
 21
7292124.467386
 31
0.0
210
0.0
220
0.0
230
1.0
  0
TEXT
  8
11
  6
CONTINUOUS
 62
     7
  5
172
 10
936347.106
 20
7292124.291
 30
0.0
 40
8.0
  1
8
 50
358.2164
  7
ROMANS
 72
     1
 11
936349.43787
 21
7292124.218386
 31
0.0
210
0.0
220
0.0
230
1.0
  0
TEXT
  8
11
  6
CONTINUOUS
 62
     7
  5
173
 10
936356.11
 20
7292124.011
 30
0.0
 40
8.0
  1
'
 50
358.2164
  7
ROMANS
 72
     1
 11
936357.442354
 21
7292123.969511
 31
0.0
210
0.0
220
0.0
230
1.0
  0
TEXT
  8
11
  6
CONTINUOUS
 62
     7
  5
174
 10
936361.461
 20
7292123.844
 30
0.0
 40
8.0
  1
 
 50
358.2164
  7
ROMANS
 72
     1
 11
936364.125708
 21
7292123.761022
 31
0.0
210
0.0
220
0.0
230
1.0
  0
TEXT
  8
11
  6
CONTINUOUS
 62
     7
  5
175
 10
936369.457
 20
7292123.595
 30
0.0
 40
8.0
  1
 
 50
358.2164
  7
ROMANS
 72
     1
 11
936372.121708
 21
7292123.512022
 31
0.0
210
0.0
220
0.0
230
1.0
  0
TEXT
  8
11
  6
CONTINUOUS
 62
     7
  5
176
 10
936377.453
 20
7292123.346
 30
0.0
 40
8.0
  1
 
 50
358.2164
  7
ROMANS
 72
     1
 11
936380.117708
 21
7292123.263022
 31
0.0
210
0.0
220
0.0
230
1.0
  0
TEXT
  8
11
  6
CONTINUOUS
 62
     7
  5
177
 10
936386.898
 20
7292123.052
 30
0.0
 40
8.0
  1
S
 50
358.2164
  7
ROMANS
 72
     1
 11
936389.410782
 21
7292122.973753
 31
0.0
210
0.0
220
0.0
230
1.0
  0
TEXT
  8
11
  6
CONTINUOUS
 62
     7
  5
178
 10
936395.083
 20
7292122.797
 30
0.0
 40
8.0
  1
8
 50
358.2164
  7
ROMANS
 72
     1
 11
936397.41487
 21
7292122.724386
 31
0.0
210
0.0
220
0.0
230
1.0
  0
TEXT
  8
11
  6
CONTINUOUS
 62
     7
  5
179
 10
936403.079
 20
7292122.548
 30
0.0
 40
8.0
  1
9
 50
358.2164
  7
ROMANS
 72
     1
 11
936405.41087
 21
7292122.475386
 31
0.0
210
0.0
220
0.0
230
1.0
  0
TEXT
  8
11
  6
CONTINUOUS
 62
     7
  5
17A
 10
936411.957
 20
7292122.272
 30
0.0
 40
8.0
  1
%%d
 50
358.2164
  7
ROMANS
 72
     1
 11
936413.393304
 21
7292122.227274
 31
0.0
210
0.0
220
0.0
230
1.0
  0
TEXT
  8
11
  6
CONTINUOUS
 62
     7
  5
17B
 10
936419.071
 20
7292122.05
 30
0.0
 40
8.0
  1
5
 50
358.2164
  7
ROMANS
 72
     1
 11
936421.413864
 21
7292121.977044
 31
0.0
210
0.0
220
0.0
230
1.0
  0
TEXT
  8
11
  6
CONTINUOUS
 62
     7
  5
17C
 10
936426.753
 20
7292121.811
 30
0.0
 40
8.0
  1
0
 50
358.2164
  7
ROMANS
 72
     1
 11
936429.402716
 21
7292121.728489
 31
0.0
210
0.0
220
0.0
230
1.0
  0
TEXT
  8
11
  6
CONTINUOUS
 62
     7
  5
17D
 10
936436.071
 20
7292121.521
 30
0.0
 40
8.0
  1
'
 50
358.2164
  7
ROMANS
 72
     1
 11
936437.403354
 21
7292121.479511
 31
0.0
210
0.0
220
0.0
230
1.0
  0
TEXT
  8
11
  6
CONTINUOUS
 62
     7
  5
17E
 10
936443.06
 20
7292121.303
 30
0.0
 40
8.0
  1
2
 50
358.2164
  7
ROMANS
 72
     1
 11
936445.39187
 21
7292121.230386
 31
0.0
210
0.0
220
0.0
230
1.0
  0
TEXT
  8
11
  6
CONTINUOUS
 62
     7
  5
17F
 10
936450.741
 20
7292121.064
 30
0.0
 40
8.0
  1
0
 50
358.2164
  7
ROMANS
 72
     1
 11
936453.390716
 21
7292120.981489
 31
0.0
210
0.0
220
0.0
230
1.0
  0
TEXT
  8
11
  6
CONTINUOUS
 62
     7
  5
180
 10
936458.8
 20
7292120.813
 30
0.0
 40
8.0
  1
"
 50
358.2164
  7
ROMANS
 72
     1
 11
936461.381749
 21
7292120.732605
 31
0.0
210
0.0
220
0.0
230
1.0
  0
TEXT
  8
11
  6
CONTINUOUS
 62
     7
  5
181
 10
936466.892
 20
7292120.561
 30
0.0
 40
8.0
  1
E
 50
358.2164
  7
ROMANS
 72
     1
 11
936469.390789
 21
7292120.483188
 31
0.0
210
0.0
220
0.0
230
1.0
  0
TEXT
  8
11
  6
CONTINUOUS
 62
     7
  5
182
 10
935917.051
 20
7291546.565
 30
0.0
 40
8.0
  1
1
 50
268.2164
  7
ROMANS
 72
     1
 11
935925.005635
 21
7291544.983649
 31
0.0
210
0.0
220
0.0
230
1.0
 73
     3
  0
TEXT
  8
11
  6
CONTINUOUS
 62
     7
  5
183
 10
935916.834
 20
7291539.577
 30
0.0
 40
8.0
  1
4
 50
268.2164
  7
ROMANS
 72
     1
 11
935924.75751
 21
7291536.996133
 31
0.0
210
0.0
220
0.0
230
1.0
 73
     3
  0
TEXT
  8
11
  6
CONTINUOUS
 62
     7
  5
184
 10
935916.585
 20
7291531.581
 30
0.0
 40
8.0
  1
4
 50
268.2164
  7
ROMANS
 72
     1
 11
935924.50851
 21
7291529.000133
 31
0.0
210
0.0
220
0.0
230
1.0
 73
     3
  0
TEXT
  8
11
  6
CONTINUOUS
 62
     7
  5
185
 10
935916.304
 20
7291522.577
 30
0.0
 40
8.0
  1
1
 50
268.2164
  7
ROMANS
 72
     1
 11
935924.258635
 21
7291520.995649
 31
0.0
210
0.0
220
0.0
230
1.0
 73
     3
  0
TEXT
  8
11
  6
CONTINUOUS
 62
     7
  5
186
 10
935916.055
 20
7291514.581
 30
0.0
 40
8.0
  1
.
 50
268.2164
  7
ROMANS
 72
     1
 11
935924.009977
 21
7291513.010643
 31
0.0
210
0.0
220
0.0
230
1.0
 73
     3
  0
TEXT
  8
11
  6
CONTINUOUS
 62
     7
  5
187
 10
935915.838
 20
7291507.592
 30
0.0
 40
8.0
  1
2
 50
268.2164
  7
ROMANS
 72
     1
 11
935923.76151
 21
7291505.011133
 31
0.0
210
0.0
220
0.0
230
1.0
 73
     3
  0
TEXT
  8
11
  6
CONTINUOUS
 62
     7
  5
188
 10
935915.589
 20
7291499.596
 30
0.0
 40
8.0
  1
5
 50
268.2164
  7
ROMANS
 72
     1
 11
935923.512168
 21
7291497.004138
 31
0.0
210
0.0
220
0.0
230
1.0
 73
     3
  0
TEXT
  8
11
  6
CONTINUOUS
 62
     7
  5
189
 10
935915.308
 20
7291490.592
 30
0.0
 40
8.0
  1
'
 50
268.2164
  7
ROMANS
 72
     1
 11
935923.262635
 21
7291489.010649
 31
0.0
210
0.0
220
0.0
230
1.0
 73
     3
  0
TEXT
  8
11
  6
CONTINUOUS
 62
     7
  5
18A
 10
935915.142
 20
7291485.241
 30
0.0
 40
8.0
  1
 
 50
268.2164
  7
ROMANS
 72
     1
 11
935923.055146
 21
7291482.327294
 31
0.0
210
0.0
220
0.0
230
1.0
 73
     3
  0
TEXT
  8
11
  6
CONTINUOUS
 62
     7
  5
18B
 10
935914.893
 20
7291477.245
 30
0.0
 40
8.0
  1
 
 50
268.2164
  7
ROMANS
 72
     1
 11
935922.806146
 21
7291474.331294
 31
0.0
210
0.0
220
0.0
230
1.0
 73
     3
  0
TEXT
  8
11
  6
CONTINUOUS
 62
     7
  5
18C
 10
935914.644
 20
7291469.249
 30
0.0
 40
8.0
  1
 
 50
268.2164
  7
ROMANS
 72
     1
 11
935922.557146
 21
7291466.335294
 31
0.0
210
0.0
220
0.0
230
1.0
 73
     3
  0
TEXT
  8
11
  6
CONTINUOUS
 62
     7
  5
18D
 10
935914.395
 20
7291461.253
 30
0.0
 40
8.0
  1
 
 50
268.2164
  7
ROMANS
 72
     1
 11
935922.308146
 21
7291458.339294
 31
0.0
210
0.0
220
0.0
230
1.0
 73
     3
  0
TEXT
  8
11
  6
CONTINUOUS
 62
     7
  5
18E
 10
935914.146
 20
7291453.257
 30
0.0
 40
8.0
  1
 
 50
268.2164
  7
ROMANS
 72
     1
 11
935922.059146
 21
7291450.343294
 31
0.0
210
0.0
220
0.0
230
1.0
 73
     3
  0
TEXT
  8
11
  6
CONTINUOUS
 62
     7
  5
18F
 10
935913.897
 20
7291445.26
 30
0.0
 40
8.0
  1
 
 50
268.2164
  7
ROMANS
 72
     1
 11
935921.810146
 21
7291442.346294
 31
0.0
210
0.0
220
0.0
230
1.0
 73
     3
  0
TEXT
  8
11
  6
CONTINUOUS
 62
     7
  5
190
 10
935913.603
 20
7291435.816
 30
0.0
 40
8.0
  1
N
 50
268.2164
  7
ROMANS
 72
     1
 11
935921.52069
 21
7291433.048224
 31
0.0
210
0.0
220
0.0
230
1.0
 73
     3
  0
TEXT
  8
11
  6
CONTINUOUS
 62
     7
  5
191
 10
935913.357
 20
7291427.946
 30
0.0
 40
8.0
  1
0
 50
268.2164
  7
ROMANS
 72
     1
 11
935921.270613
 21
7291425.047287
 31
0.0
210
0.0
220
0.0
230
1.0
 73
     3
  0
TEXT
  8
11
  6
CONTINUOUS
 62
     7
  5
192
 10
935913.071
 20
7291418.753
 30
0.0
 40
8.0
  1
%%d
 50
268.2164
  7
ROMANS
 72
     1
 11
935921.022398
 21
7291417.067699
 31
0.0
210
0.0
220
0.0
230
1.0
 73
     3
  0
TEXT
  8
11
  6
CONTINUOUS
 62
     7
  5
193
 10
935912.85
 20
7291411.639
 30
0.0
 40
8.0
  1
9
 50
268.2164
  7
ROMANS
 72
     1
 11
935920.77351
 21
7291409.058133
 31
0.0
210
0.0
220
0.0
230
1.0
 73
     3
  0
TEXT
  8
11
  6
CONTINUOUS
 62
     7
  5
194
 10
935912.569
 20
7291402.635
 30
0.0
 40
8.0
  1
'
 50
268.2164
  7
ROMANS
 72
     1
 11
935920.523635
 21
7291401.053649
 31
0.0
210
0.0
220
0.0
230
1.0
 73
     3
  0
TEXT
  8
11
  6
CONTINUOUS
 62
     7
  5
195
 10
935912.352
 20
7291395.646
 30
0.0
 40
8.0
  1
3
 50
268.2164
  7
ROMANS
 72
     1
 11
935920.27551
 21
7291393.065133
 31
0.0
210
0.0
220
0.0
230
1.0
 73
     3
  0
TEXT
  8
11
  6
CONTINUOUS
 62
     7
  5
196
 10
935912.071
 20
7291386.643
 30
0.0
 40
8.0
  1
1
 50
268.2164
  7
ROMANS
 72
     1
 11
935920.025635
 21
7291385.061649
 31
0.0
210
0.0
220
0.0
230
1.0
 73
     3
  0
TEXT
  8
11
  6
CONTINUOUS
 62
     7
  5
197
 10
935911.862
 20
7291379.906
 30
0.0
 40
8.0
  1
"
 50
268.2164
  7
ROMANS
 72
     1
 11
935919.777729
 21
7291377.075254
 31
0.0
210
0.0
220
0.0
230
1.0
 73
     3
  0
TEXT
  8
11
  6
CONTINUOUS
 62
     7
  5
198
 10
935911.61
 20
7291371.815
 30
0.0
 40
8.0
  1
E
 50
268.2164
  7
ROMANS
 72
     1
 11
935919.528312
 21
7291369.067214
 31
0.0
210
0.0
220
0.0
230
1.0
 73
     3
  0
TEXT
  8
11
  6
CONTINUOUS
 62
     7
  5
199
 10
935624.52
 20
7290704.843
 30
0.0
 40
8.0
  1
4
 50
358.2164
  7
ROMANS
 72
     1
 11
935626.85187
 21
7290704.770386
 31
0.0
210
0.0
220
0.0
230
1.0
  0
TEXT
  8
11
  6
CONTINUOUS
 62
     7
  5
19A
 10
935633.524
 20
7290704.563
 30
0.0
 40
8.0
  1
1
 50
358.2164
  7
ROMANS
 72
     1
 11
935634.856354
 21
7290704.521511
 31
0.0
210
0.0
220
0.0
230
1.0
  0
TEXT
  8
11
  6
CONTINUOUS
 62
     7
  5
19B
 10
935640.324
 20
7290704.351
 30
0.0
 40
8.0
  1
6
 50
358.2164
  7
ROMANS
 72
     1
 11
935642.842779
 21
7290704.272566
 31
0.0
210
0.0
220
0.0
230
1.0
  0
TEXT
  8
11
  6
CONTINUOUS
 62
     7
  5
19C
 10
935649.516
 20
7290704.065
 30
0.0
 40
8.0
  1
.
 50
358.2164
  7
ROMANS
 72
     1
 11
935650.83736
 21
7290704.023853
 31
0.0
210
0.0
220
0.0
230
1.0
  0
TEXT
  8
11
  6
CONTINUOUS
 62
     7
  5
19D
 10
935656.316
 20
7290703.853
 30
0.0
 40
8.0
  1
6
 50
358.2164
  7
ROMANS
 72
     1
 11
935658.834779
 21
7290703.774566
 31
0.0
210
0.0
220
0.0
230
1.0
  0
TEXT
  8
11
  6
CONTINUOUS
 62
     7
  5
19E
 10
935664.186
 20
7290703.608
 30
0.0
 40
8.0
  1
0
 50
358.2164
  7
ROMANS
 72
     1
 11
935666.835716
 21
7290703.525489
 31
0.0
210
0.0
220
0.0
230
1.0
  0
TEXT
  8
11
  6
CONTINUOUS
 62
     7
  5
19F
 10
935673.504
 20
7290703.318
 30
0.0
 40
8.0
  1
'
 50
358.2164
  7
ROMANS
 72
     1
 11
935674.836354
 21
7290703.276511
 31
0.0
210
0.0
220
0.0
230
1.0
  0
TEXT
  8
11
  6
CONTINUOUS
 62
     7
  5
1A0
 10
935678.856
 20
7290703.151
 30
0.0
 40
8.0
  1
 
 50
358.2164
  7
ROMANS
 72
     1
 11
935681.520708
 21
7290703.068022
 31
0.0
210
0.0
220
0.0
230
1.0
  0
TEXT
  8
11
  6
CONTINUOUS
 62
     7
  5
1A1
 10
935686.852
 20
7290702.902
 30
0.0
 40
8.0
  1
 
 50
358.2164
  7
ROMANS
 72
     1
 11
935689.516708
 21
7290702.819022
 31
0.0
210
0.0
220
0.0
230
1.0
  0
TEXT
  8
11
  6
CONTINUOUS
 62
     7
  5
1A2
 10
935694.848
 20
7290702.653
 30
0.0
 40
8.0
  1
 
 50
358.2164
  7
ROMANS
 72
     1
 11
935697.512708
 21
7290702.570022
 31
0.0
210
0.0
220
0.0
230
1.0
  0
TEXT
  8
11
  6
CONTINUOUS
 62
     7
  5
1A3
 10
935704.293
 20
7290702.359
 30
0.0
 40
8.0
  1
S
 50
358.2164
  7
ROMANS
 72
     1
 11
935706.805782
 21
7290702.280753
 31
0.0
210
0.0
220
0.0
230
1.0
  0
TEXT
  8
11
  6
CONTINUOUS
 62
     7
  5
1A4
 10
935712.478
 20
7290702.104
 30
0.0
 40
8.0
  1
8
 50
358.2164
  7
ROMANS
 72
     1
 11
935714.80987
 21
7290702.031386
 31
0.0
210
0.0
220
0.0
230
1.0
  0
TEXT
  8
11
  6
CONTINUOUS
 62
     7
  5
1A5
 10
935720.474
 20
7290701.855
 30
0.0
 40
8.0
  1
9
 50
358.2164
  7
ROMANS
 72
     1
 11
935722.80587
 21
7290701.782386
 31
0.0
210
0.0
220
0.0
230
1.0
  0
TEXT
  8
11
  6
CONTINUOUS
 62
     7
  5
1A6
 10
935729.351
 20
7290701.579
 30
0.0
 40
8.0
  1
%%d
 50
358.2164
  7
ROMANS
 72
     1
 11
935730.787304
 21
7290701.534274
 31
0.0
210
0.0
220
0.0
230
1.0
  0
TEXT
  8
11
  6
CONTINUOUS
 62
     7
  5
1A7
 10
935736.466
 20
7290701.358
 30
0.0
 40
8.0
  1
4
 50
358.2164
  7
ROMANS
 72
     1
 11
935738.79787
 21
7290701.285386
 31
0.0
210
0.0
220
0.0
230
1.0
  0
TEXT
  8
11
  6
CONTINUOUS
 62
     7
  5
1A8
 10
935744.462
 20
7290701.109
 30
0.0
 40
8.0
  1
8
 50
358.2164
  7
ROMANS
 72
     1
 11
935746.79387
 21
7290701.036386
 31
0.0
210
0.0
220
0.0
230
1.0
  0
TEXT
  8
11
  6
CONTINUOUS
 62
     7
  5
1A9
 10
935753.466
 20
7290700.828
 30
0.0
 40
8.0
  1
'
 50
358.2164
  7
ROMANS
 72
     1
 11
935754.798354
 21
7290700.786511
 31
0.0
210
0.0
220
0.0
230
1.0
  0
TEXT
  8
11
  6
CONTINUOUS
 62
     7
  5
1AA
 10
935760.454
 20
7290700.611
 30
0.0
 40
8.0
  1
3
 50
358.2164
  7
ROMANS
 72
     1
 11
935762.78587
 21
7290700.538386
 31
0.0
210
0.0
220
0.0
230
1.0
  0
TEXT
  8
11
  6
CONTINUOUS
 62
     7
  5
1AB
 10
935768.136
 20
7290700.371
 30
0.0
 40
8.0
  1
0
 50
358.2164
  7
ROMANS
 72
     1
 11
935770.785716
 21
7290700.288489
 31
0.0
210
0.0
220
0.0
230
1.0
  0
TEXT
  8
11
  6
CONTINUOUS
 62
     7
  5
1AC
 10
935776.195
 20
7290700.12
 30
0.0
 40
8.0
  1
"
 50
358.2164
  7
ROMANS
 72
     1
 11
935778.776749
 21
7290700.039605
 31
0.0
210
0.0
220
0.0
230
1.0
  0
TEXT
  8
11
  6
CONTINUOUS
 62
     7
  5
1AD
 10
935784.286
 20
7290699.868
 30
0.0
 40
8.0
  1
E
 50
358.2164
  7
ROMANS
 72
     1
 11
935786.784789
 21
7290699.790188
 31
0.0
210
0.0
220
0.0
230
1.0
  0
TEXT
  8
11
  6
CONTINUOUS
 62
     7
  5
1AE
 10
935459.523
 20
7290238.694
 30
0.0
 40
8.0
  1
1
 50
268.2164
  7
ROMANS
 72
     1
 11
935467.477635
 21
7290237.112649
 31
0.0
210
0.0
220
0.0
230
1.0
 73
     3
  0
TEXT
  8
11
  6
CONTINUOUS
 62
     7
  5
1AF
 10
935459.274
 20
7290230.698
 30
0.0
 40
8.0
  1
1
 50
268.2164
  7
ROMANS
 72
     1
 11
935467.228635
 21
7290229.116649
 31
0.0
210
0.0
220
0.0
230
1.0
 73
     3
  0
TEXT
  8
11
  6
CONTINUOUS
 62
     7
  5
1B0
 10
935459.056
 20
7290223.709
 30
0.0
 40
8.0
  1
9
 50
268.2164
  7
ROMANS
 72
     1
 11
935466.97951
 21
7290221.128133
 31
0.0
210
0.0
220
0.0
230
1.0
 73
     3
  0
TEXT
  8
11
  6
CONTINUOUS
 62
     7
  5
1B1
 10
935458.807
 20
7290215.713
 30
0.0
 40
8.0
  1
9
 50
268.2164
  7
ROMANS
 72
     1
 11
935466.73051
 21
7290213.132133
 31
0.0
210
0.0
220
0.0
230
1.0
 73
     3
  0
TEXT
  8
11
  6
CONTINUOUS
 62
     7
  5
1B2
 10
935458.527
 20
7290206.71
 30
0.0
 40
8.0
  1
.
 50
268.2164
  7
ROMANS
 72
     1
 11
935466.481977
 21
7290205.139643
 31
0.0
210
0.0
220
0.0
230
1.0
 73
     3
  0
TEXT
  8
11
  6
CONTINUOUS
 62
     7
  5
1B3
 10
935458.309
 20
7290199.721
 30
0.0
 40
8.0
  1
5
 50
268.2164
  7
ROMANS
 72
     1
 11
935466.232168
 21
7290197.129138
 31
0.0
210
0.0
220
0.0
230
1.0
 73
     3
  0
TEXT
  8
11
  6
CONTINUOUS
 62
     7
  5
1B4
 10
935458.029
 20
7290190.717
 30
0.0
 40
8.0
  1
1
 50
268.2164
  7
ROMANS
 72
     1
 11
935465.983635
 21
7290189.135649
 31
0.0
210
0.0
220
0.0
230
1.0
 73
     3
  0
TEXT
  8
11
  6
CONTINUOUS
 62
     7
  5
1B5
 10
934622.081
 20
7289569.839
 30
0.0
 40
8.0
  1
1
 50
358.6556
  7
ROMANS
 72
     1
 11
934623.413633
 21
7289569.807725
 31
0.0
210
0.0
220
0.0
230
1.0
  0
TEXT
  8
11
  6
CONTINUOUS
 62
     7
  5
1B6
 10
934629.071
 20
7289569.676
 30
0.0
 40
8.0
  1
5
 50
358.6556
  7
ROMANS
 72
     1
 11
934631.414355
 21
7289569.621005
 31
0.0
210
0.0
220
0.0
230
1.0
  0
TEXT
  8
11
  6
CONTINUOUS
 62
     7
  5
1B7
 10
934637.068
 20
7289569.488
 30
0.0
 40
8.0
  1
3
 50
358.6556
  7
ROMANS
 72
     1
 11
934639.400358
 21
7289569.433263
 31
0.0
210
0.0
220
0.0
230
1.0
  0
TEXT
  8
11
  6
CONTINUOUS
 62
     7
  5
1B8
 10
934645.066
 20
7289569.3
 30
0.0
 40
8.0
  1
3
 50
358.6556
  7
ROMANS
 72
     1
 11
934647.398358
 21
7289569.245263
 31
0.0
210
0.0
220
0.0
230
1.0
  0
TEXT
  8
11
  6
CONTINUOUS
 62
     7
  5
1B9
 10
934654.072
 20
7289569.088
 30
0.0
 40
8.0
  1
.
 50
358.6556
  7
ROMANS
 72
     1
 11
934655.393636
 21
7289569.056983
 31
0.0
210
0.0
220
0.0
230
1.0
  0
TEXT
  8
11
  6
CONTINUOUS
 62
     7
  5
1BA
 10
934660.873
 20
7289568.929
 30
0.0
 40
8.0
  1
6
 50
358.6556
  7
ROMANS
 72
     1
 11
934663.392306
 21
7289568.869876
 31
0.0
210
0.0
220
0.0
230
1.0
  0
TEXT
  8
11
  6
CONTINUOUS
 62
     7
  5
1BB
 10
934668.871
 20
7289568.742
 30
0.0
 40
8.0
  1
6
 50
358.6556
  7
ROMANS
 72
     1
 11
934671.390306
 21
7289568.682876
 31
0.0
210
0.0
220
0.0
230
1.0
  0
TEXT
  8
11
  6
CONTINUOUS
 62
     7
  5
1BC
 10
934678.065
 20
7289568.525
 30
0.0
 40
8.0
  1
'
 50
358.6556
  7
ROMANS
 72
     1
 11
934679.397633
 21
7289568.493725
 31
0.0
210
0.0
220
0.0
230
1.0
  0
TEXT
  8
11
  6
CONTINUOUS
 62
     7
  5
1BD
 10
935457.78
 20
7290182.721
 30
0.0
 40
8.0
  1
'
 50
268.2164
  7
ROMANS
 72
     1
 11
935465.734635
 21
7290181.139649
 31
0.0
210
0.0
220
0.0
230
1.0
 73
     3
  0
TEXT
  8
11
  6
CONTINUOUS
 62
     7
  5
1BE
 10
935457.613
 20
7290177.37
 30
0.0
 40
8.0
  1
 
 50
268.2164
  7
ROMANS
 72
     1
 11
935465.526146
 21
7290174.456294
 31
0.0
210
0.0
220
0.0
230
1.0
 73
     3
  0
TEXT
  8
11
  6
CONTINUOUS
 62
     7
  5
1BF
 10
935457.364
 20
7290169.374
 30
0.0
 40
8.0
  1
 
 50
268.2164
  7
ROMANS
 72
     1
 11
935465.277146
 21
7290166.460294
 31
0.0
210
0.0
220
0.0
230
1.0
 73
     3
  0
TEXT
  8
11
  6
CONTINUOUS
 62
     7
  5
1C0
 10
935457.115
 20
7290161.378
 30
0.0
 40
8.0
  1
 
 50
268.2164
  7
ROMANS
 72
     1
 11
935465.028146
 21
7290158.464294
 31
0.0
210
0.0
220
0.0
230
1.0
 73
     3
  0
TEXT
  8
11
  6
CONTINUOUS
 62
     7
  5
1C1
 10
935456.866
 20
7290153.381
 30
0.0
 40
8.0
  1
 
 50
268.2164
  7
ROMANS
 72
     1
 11
935464.779146
 21
7290150.467294
 31
0.0
210
0.0
220
0.0
230
1.0
 73
     3
  0
TEXT
  8
11
  6
CONTINUOUS
 62
     7
  5
1C2
 10
935456.617
 20
7290145.385
 30
0.0
 40
8.0
  1
 
 50
268.2164
  7
ROMANS
 72
     1
 11
935464.530146
 21
7290142.471294
 31
0.0
210
0.0
220
0.0
230
1.0
 73
     3
  0
TEXT
  8
11
  6
CONTINUOUS
 62
     7
  5
1C3
 10
935456.323
 20
7290135.941
 30
0.0
 40
8.0
  1
N
 50
268.2164
  7
ROMANS
 72
     1
 11
935464.24069
 21
7290133.173224
 31
0.0
210
0.0
220
0.0
230
1.0
 73
     3
  0
TEXT
  8
11
  6
CONTINUOUS
 62
     7
  5
1C4
 10
935456.078
 20
7290128.071
 30
0.0
 40
8.0
  1
0
 50
268.2164
  7
ROMANS
 72
     1
 11
935463.991613
 21
7290125.172287
 31
0.0
210
0.0
220
0.0
230
1.0
 73
     3
  0
TEXT
  8
11
  6
CONTINUOUS
 62
     7
  5
1C5
 10
935455.791
 20
7290118.878
 30
0.0
 40
8.0
  1
%%d
 50
268.2164
  7
ROMANS
 72
     1
 11
935463.742398
 21
7290117.192699
 31
0.0
210
0.0
220
0.0
230
1.0
 73
     3
  0
TEXT
  8
11
  6
CONTINUOUS
 62
     7
  5
1C6
 10
935455.57
 20
7290111.764
 30
0.0
 40
8.0
  1
9
 50
268.2164
  7
ROMANS
 72
     1
 11
935463.49351
 21
7290109.183133
 31
0.0
210
0.0
220
0.0
230
1.0
 73
     3
  0
TEXT
  8
11
  6
CONTINUOUS
 62
     7
  5
1C7
 10
935455.29
 20
7290102.76
 30
0.0
 40
8.0
  1
'
 50
268.2164
  7
ROMANS
 72
     1
 11
935463.244635
 21
7290101.178649
 31
0.0
210
0.0
220
0.0
230
1.0
 73
     3
  0
TEXT
  8
11
  6
CONTINUOUS
 62
     7
  5
1C8
 10
935455.041
 20
7290094.764
 30
0.0
 40
8.0
  1
1
 50
268.2164
  7
ROMANS
 72
     1
 11
935462.995635
 21
7290093.182649
 31
0.0
210
0.0
220
0.0
230
1.0
 73
     3
  0
TEXT
  8
11
  6
CONTINUOUS
 62
     7
  5
1C9
 10
935454.831
 20
7290088.027
 30
0.0
 40
8.0
  1
"
 50
268.2164
  7
ROMANS
 72
     1
 11
935462.746729
 21
7290085.196254
 31
0.0
210
0.0
220
0.0
230
1.0
 73
     3
  0
TEXT
  8
11
  6
CONTINUOUS
 62
     7
  5
1CA
 10
935454.579
 20
7290079.936
 30
0.0
 40
8.0
  1
E
 50
268.2164
  7
ROMANS
 72
     1
 11
935462.497312
 21
7290077.188214
 31
0.0
210
0.0
220
0.0
230
1.0
 73
     3
  0
TEXT
  8
11
  6
CONTINUOUS
 62
     7
  5
1CB
 10
937298.803
 20
7289550.667
 30
0.0
 40
8.0
  1
7
 50
83.084436
  7
ROMANS
 72
     1
 11
937291.142111
 21
7289553.946279
 31
0.0
210
0.0
220
0.0
230
1.0
 73
     3
  0
TEXT
  8
11
  6
CONTINUOUS
 62
     7
  5
1CC
 10
937299.887
 20
7289559.61
 30
0.0
 40
8.0
  1
1
 50
83.084436
  7
ROMANS
 72
     1
 11
937292.105705
 21
7289561.896554
 31
0.0
210
0.0
220
0.0
230
1.0
 73
     3
  0
TEXT
  8
11
  6
CONTINUOUS
 62
     7
  5
1CD
 10
937300.852
 20
7289567.552
 30
0.0
 40
8.0
  1
.
 50
83.084436
  7
ROMANS
 72
     1
 11
937293.06938
 21
7289569.827634
 31
0.0
210
0.0
220
0.0
230
1.0
 73
     3
  0
TEXT
  8
11
  6
CONTINUOUS
 62
     7
  5
1CE
 10
937301.692
 20
7289574.493
 30
0.0
 40
8.0
  1
2
 50
83.084436
  7
ROMANS
 72
     1
 11
937294.031111
 21
7289577.772279
 31
0.0
210
0.0
220
0.0
230
1.0
 73
     3
  0
TEXT
  8
11
  6
CONTINUOUS
 62
     7
  5
1CF
 10
937302.657
 20
7289582.435
 30
0.0
 40
8.0
  1
7
 50
83.084436
  7
ROMANS
 72
     1
 11
937294.996111
 21
7289585.714279
 31
0.0
210
0.0
220
0.0
230
1.0
 73
     3
  0
TEXT
  8
11
  6
CONTINUOUS
 62
     7
  5
1D0
 10
937303.741
 20
7289591.378
 30
0.0
 40
8.0
  1
'
 50
83.084436
  7
ROMANS
 72
     1
 11
937295.959705
 21
7289593.664554
 31
0.0
210
0.0
220
0.0
230
1.0
 73
     3
  0
TEXT
  8
11
  6
CONTINUOUS
 62
     7
  5
1D1
 10
937291.174
 20
7289604.032
 30
0.0
 40
8.0
  1
W
 50
83.084436
  7
ROMANS
 72
     1
 11
937291.518844
 21
7289606.875163
 31
0.0
210
0.0
220
0.0
230
1.0
  0
TEXT
  8
11
  6
CONTINUOUS
 62
     7
  5
1D2
 10
937230.994
 20
7289777.162
 30
0.0
 40
8.0
  1
1
 50
287.384369
  7
ROMANS
 72
     1
 11
937239.026849
 21
7289778.280133
 31
0.0
210
0.0
220
0.0
230
1.0
 73
     3
  0
TEXT
  8
11
  6
CONTINUOUS
 62
     7
  5
1D3
 10
937233.083
 20
7289770.49
 30
0.0
 40
8.0
  1
9
 50
287.384369
  7
ROMANS
 72
     1
 11
937241.41463
 21
7289770.653811
 31
0.0
210
0.0
220
0.0
230
1.0
 73
     3
  0
TEXT
  8
11
  6
CONTINUOUS
 62
     7
  5
1D4
 10
937235.417
 20
7289763.036
 30
0.0
 40
8.0
  1
6
 50
287.384369
  7
ROMANS
 72
     1
 11
937243.804502
 21
7289763.021353
 31
0.0
210
0.0
220
0.0
230
1.0
 73
     3
  0
TEXT
  8
11
  6
CONTINUOUS
 62
     7
  5
1D5
 10
937238.165
 20
7289754.258
 30
0.0
 40
8.0
  1
.
 50
287.384369
  7
ROMANS
 72
     1
 11
937246.194563
 21
7289755.38663
 31
0.0
210
0.0
220
0.0
230
1.0
 73
     3
  0
TEXT
  8
11
  6
CONTINUOUS
 62
     7
  5
1D6
 10
937240.254
 20
7289747.586
 30
0.0
 40
8.0
  1
2
 50
287.384369
  7
ROMANS
 72
     1
 11
937248.58563
 21
7289747.749811
 31
0.0
210
0.0
220
0.0
230
1.0
 73
     3
  0
TEXT
  8
11
  6
CONTINUOUS
 62
     7
  5
1D7
 10
937242.644
 20
7289739.952
 30
0.0
 40
8.0
  1
2
 50
287.384369
  7
ROMANS
 72
     1
 11
937250.97563
 21
7289740.115811
 31
0.0
210
0.0
220
0.0
230
1.0
 73
     3
  0
TEXT
  8
11
  6
CONTINUOUS
 62
     7
  5
1D8
 10
937245.335
 20
7289731.355
 30
0.0
 40
8.0
  1
'
 50
287.384369
  7
ROMANS
 72
     1
 11
937253.367849
 21
7289732.473133
 31
0.0
210
0.0
220
0.0
230
1.0
 73
     3
  0
TEXT
  8
11
  6
CONTINUOUS
 62
     7
  5
1D9
 10
937246.935
 20
7289726.246
 30
0.0
 40
8.0
  1
 
 50
287.384369
  7
ROMANS
 72
     1
 11
937255.366124
 21
7289726.092022
 31
0.0
210
0.0
220
0.0
230
1.0
 73
     3
  0
TEXT
  8
11
  6
CONTINUOUS
 62
     7
  5
1DA
 10
937249.325
 20
7289718.61
 30
0.0
 40
8.0
  1
 
 50
287.384369
  7
ROMANS
 72
     1
 11
937257.756124
 21
7289718.456022
 31
0.0
210
0.0
220
0.0
230
1.0
 73
     3
  0
TEXT
  8
11
  6
CONTINUOUS
 62
     7
  5
1DB
 10
937252.147
 20
7289709.594
 30
0.0
 40
8.0
  1
S
 50
287.384369
  7
ROMANS
 72
     1
 11
937260.532709
 21
7289709.585078
 31
0.0
210
0.0
220
0.0
230
1.0
 73
     3
  0
TEXT
  8
11
  6
CONTINUOUS
 62
     7
  5
1DC
 10
937254.897
 20
7289700.816
 30
0.0
 40
8.0
  1
1
 50
287.384369
  7
ROMANS
 72
     1
 11
937262.929849
 21
7289701.934133
 31
0.0
210
0.0
220
0.0
230
1.0
 73
     3
  0
TEXT
  8
11
  6
CONTINUOUS
 62
     7
  5
1DD
 10
937256.986
 20
7289694.144
 30
0.0
 40
8.0
  1
8
 50
287.384369
  7
ROMANS
 72
     1
 11
937265.31763
 21
7289694.307811
 31
0.0
210
0.0
220
0.0
230
1.0
 73
     3
  0
TEXT
  8
11
  6
CONTINUOUS
 62
     7
  5
1DE
 10
937259.639
 20
7289685.668
 30
0.0
 40
8.0
  1
%%d
 50
287.384369
  7
ROMANS
 72
     1
 11
937267.702923
 21
7289686.686883
 31
0.0
210
0.0
220
0.0
230
1.0
 73
     3
  0
TEXT
  8
11
  6
CONTINUOUS
 62
     7
  5
1DF
 10
937261.765
 20
7289678.874
 30
0.0
 40
8.0
  1
4
 50
287.384369
  7
ROMANS
 72
     1
 11
937270.09663
 21
7289679.037811
 31
0.0
210
0.0
220
0.0
230
1.0
 73
     3
  0
TEXT
  8
11
  6
CONTINUOUS
 62
     7
  5
1E0
 10
937264.156
 20
7289671.24
 30
0.0
 40
8.0
  1
3
 50
287.384369
  7
ROMANS
 72
     1
 11
937272.48763
 21
7289671.403811
 31
0.0
210
0.0
220
0.0
230
1.0
 73
     3
  0
TEXT
  8
11
  6
CONTINUOUS
 62
     7
  5
1E1
 10
937266.848
 20
7289662.644
 30
0.0
 40
8.0
  1
'
 50
287.384369
  7
ROMANS
 72
     1
 11
937274.880849
 21
7289663.762133
 31
0.0
210
0.0
220
0.0
230
1.0
 73
     3
  0
TEXT
  8
11
  6
CONTINUOUS
 62
     7
  5
1E2
 10
937268.936
 20
7289655.971
 30
0.0
 40
8.0
  1
4
 50
287.384369
  7
ROMANS
 72
     1
 11
937277.26763
 21
7289656.134811
 31
0.0
210
0.0
220
0.0
230
1.0
 73
     3
  0
TEXT
  8
11
  6
CONTINUOUS
 62
     7
  5
1E3
 10
937271.327
 20
7289648.337
 30
0.0
 40
8.0
  1
4
 50
287.384369
  7
ROMANS
 72
     1
 11
937279.65863
 21
7289648.500811
 31
0.0
210
0.0
220
0.0
230
1.0
 73
     3
  0
TEXT
  8
11
  6
CONTINUOUS
 62
     7
  5
1E4
 10
937273.642
 20
7289640.942
 30
0.0
 40
8.0
  1
"
 50
287.384369
  7
ROMANS
 72
     1
 11
937282.048325
 21
7289640.86723
 31
0.0
210
0.0
220
0.0
230
1.0
 73
     3
  0
TEXT
  8
11
  6
CONTINUOUS
 62
     7
  5
1E5
 10
937276.062
 20
7289633.218
 30
0.0
 40
8.0
  1
E
 50
287.384369
  7
ROMANS
 72
     1
 11
937284.443526
 21
7289633.222439
 31
0.0
210
0.0
220
0.0
230
1.0
 73
     3
  0
TEXT
  8
11
  6
CONTINUOUS
 62
     7
  5
1E6
 10
937165.458
 20
7289936.593
 30
0.0
 40
8.0
  1
1
 50
292.885508
  7
ROMANS
 72
     1
 11
937173.346662
 21
7289938.476056
 31
0.0
210
0.0
220
0.0
230
1.0
 73
     3
  0
TEXT
  8
11
  6
CONTINUOUS
 62
     7
  5
1E7
 10
937168.103
 20
7289930.327
 30
0.0
 40
8.0
  1
6
 50
292.885508
  7
ROMANS
 72
     1
 11
937176.453276
 21
7289931.116492
 31
0.0
210
0.0
220
0.0
230
1.0
 73
     3
  0
TEXT
  8
11
  6
CONTINUOUS
 62
     7
  5
1E8
 10
937171.287
 20
7289922.781
 30
0.0
 40
8.0
  1
5
 50
292.885508
  7
ROMANS
 72
     1
 11
937179.568831
 21
7289923.732638
 31
0.0
210
0.0
220
0.0
230
1.0
 73
     3
  0
TEXT
  8
11
  6
CONTINUOUS
 62
     7
  5
1E9
 10
937174.791
 20
7289914.482
 30
0.0
 40
8.0
  1
.
 50
292.885508
  7
ROMANS
 72
     1
 11
937182.675384
 21
7289916.37519
 31
0.0
210
0.0
220
0.0
230
1.0
 73
     3
  0
TEXT
  8
11
  6
CONTINUOUS
 62
     7
  5
1EA
 10
937177.51
 20
7289908.04
 30
0.0
 40
8.0
  1
4
 50
292.885508
  7
ROMANS
 72
     1
 11
937185.787553
 21
7289909.001772
 31
0.0
210
0.0
220
0.0
230
1.0
 73
     3
  0
TEXT
  8
11
  6
CONTINUOUS
 62
     7
  5
1EB
 10
937180.621
 20
7289900.671
 30
0.0
 40
8.0
  1
2
 50
292.885508
  7
ROMANS
 72
     1
 11
937188.898553
 21
7289901.632772
 31
0.0
210
0.0
220
0.0
230
1.0
 73
     3
  0
TEXT
  8
11
  6
CONTINUOUS
 62
     7
  5
1EC
 10
937184.124
 20
7289892.371
 30
0.0
 40
8.0
  1
'
 50
292.885508
  7
ROMANS
 72
     1
 11
937192.012662
 21
7289894.254056
 31
0.0
210
0.0
220
0.0
230
1.0
 73
     3
  0
TEXT
  8
11
  6
CONTINUOUS
 62
     7
  5
1ED
 10
937186.206
 20
7289887.438
 30
0.0
 40
8.0
  1
 
 50
292.885508
  7
ROMANS
 72
     1
 11
937194.613054
 21
7289888.092985
 31
0.0
210
0.0
220
0.0
230
1.0
 73
     3
  0
TEXT
  8
11
  6
CONTINUOUS
 62
     7
  5
1EE
 10
937189.317
 20
7289880.069
 30
0.0
 40
8.0
  1
 
 50
292.885508
  7
ROMANS
 72
     1
 11
937197.724054
 21
7289880.723985
 31
0.0
210
0.0
220
0.0
230
1.0
 73
     3
  0
TEXT
  8
11
  6
CONTINUOUS
 62
     7
  5
1EF
 10
937192.993
 20
7289871.364
 30
0.0
 40
8.0
  1
S
 50
292.885508
  7
ROMANS
 72
     1
 11
937201.340942
 21
7289872.15902
 31
0.0
210
0.0
220
0.0
230
1.0
 73
     3
  0
TEXT
  8
11
  6
CONTINUOUS
 62
     7
  5
1F0
 10
937196.177
 20
7289863.818
 30
0.0
 40
8.0
  1
2
 50
292.885508
  7
ROMANS
 72
     1
 11
937204.454553
 21
7289864.779772
 31
0.0
210
0.0
220
0.0
230
1.0
 73
     3
  0
TEXT
  8
11
  6
CONTINUOUS
 62
     7
  5
1F1
 10
937199.287
 20
7289856.449
 30
0.0
 40
8.0
  1
4
 50
292.885508
  7
ROMANS
 72
     1
 11
937207.564553
 21
7289857.410772
 31
0.0
210
0.0
220
0.0
230
1.0
 73
     3
  0
TEXT
  8
11
  6
CONTINUOUS
 62
     7
  5
1F2
 10
937202.742
 20
7289848.266
 30
0.0
 40
8.0
  1
%%d
 50
292.885508
  7
ROMANS
 72
     1
 11
937210.671107
 21
7289850.053243
 31
0.0
210
0.0
220
0.0
230
1.0
 73
     3
  0
TEXT
  8
11
  6
CONTINUOUS
 62
     7
  5
1F3
 10
937205.901
 20
7289840.78
 30
0.0
 40
8.0
  1
1
 50
292.885508
  7
ROMANS
 72
     1
 11
937213.789662
 21
7289842.663056
 31
0.0
210
0.0
220
0.0
230
1.0
 73
     3
  0
TEXT
  8
11
  6
CONTINUOUS
 62
     7
  5
1F4
 10
937208.62
 20
7289834.338
 30
0.0
 40
8.0
  1
3
 50
292.885508
  7
ROMANS
 72
     1
 11
937216.897553
 21
7289835.299772
 31
0.0
210
0.0
220
0.0
230
1.0
 73
     3
  0
TEXT
  8
11
  6
CONTINUOUS
 62
     7
  5
1F5
 10
937212.125
 20
7289826.039
 30
0.0
 40
8.0
  1
'
 50
292.885508
  7
ROMANS
 72
     1
 11
937220.013662
 21
7289827.922056
 31
0.0
210
0.0
220
0.0
230
1.0
 73
     3
  0
TEXT
  8
11
  6
CONTINUOUS
 62
     7
  5
1F6
 10
937214.843
 20
7289819.597
 30
0.0
 40
8.0
  1
4
 50
292.885508
  7
ROMANS
 72
     1
 11
937223.120553
 21
7289820.558772
 31
0.0
210
0.0
220
0.0
230
1.0
 73
     3
  0
TEXT
  8
11
  6
CONTINUOUS
 62
     7
  5
1F7
 10
937217.955
 20
7289812.227
 30
0.0
 40
8.0
  1
8
 50
292.885508
  7
ROMANS
 72
     1
 11
937226.232553
 21
7289813.188772
 31
0.0
210
0.0
220
0.0
230
1.0
 73
     3
  0
TEXT
  8
11
  6
CONTINUOUS
 62
     7
  5
1F8
 10
937220.967
 20
7289805.088
 30
0.0
 40
8.0
  1
"
 50
292.885508
  7
ROMANS
 72
     1
 11
937229.341776
 21
7289805.819452
 31
0.0
210
0.0
220
0.0
230
1.0
 73
     3
  0
TEXT
  8
11
  6
CONTINUOUS
 62
     7
  5
1F9
 10
937224.116
 20
7289797.631
 30
0.0
 40
8.0
  1
E
 50
292.885508
  7
ROMANS
 72
     1
 11
937232.458498
 21
7289798.438918
 31
0.0
210
0.0
220
0.0
230
1.0
 73
     3
  0
TEXT
  8
11
  6
CONTINUOUS
 62
     7
  5
1FA
 10
937144.628
 20
7290018.342
 30
0.0
 40
8.0
  1
9
 50
283.103525
  7
ROMANS
 72
     1
 11
937152.948613
 21
7290017.883436
 31
0.0
210
0.0
220
0.0
230
1.0
 73
     3
  0
TEXT
  8
11
  6
CONTINUOUS
 62
     7
  5
1FB
 10
937146.371
 20
7290010.858
 30
0.0
 40
8.0
  1
0
 50
283.103525
  7
ROMANS
 72
     1
 11
937154.763708
 21
7290010.089717
 31
0.0
210
0.0
220
0.0
230
1.0
 73
     3
  0
TEXT
  8
11
  6
CONTINUOUS
 62
     7
  5
1FC
 10
937148.485
 20
7290001.777
 30
0.0
 40
8.0
  1
.
 50
283.103525
  7
ROMANS
 72
     1
 11
937156.576408
 21
7290002.303112
 31
0.0
210
0.0
220
0.0
230
1.0
 73
     3
  0
TEXT
  8
11
  6
CONTINUOUS
 62
     7
  5
1FD
 10
937150.298
 20
7289993.985
 30
0.0
 40
8.0
  1
1
 50
283.103525
  7
ROMANS
 72
     1
 11
937158.391902
 21
7289994.500398
 31
0.0
210
0.0
220
0.0
230
1.0
 73
     3
  0
TEXT
  8
11
  6
CONTINUOUS
 62
     7
  5
1FE
 10
937151.84
 20
7289987.36
 30
0.0
 40
8.0
  1
6
 50
283.103525
  7
ROMANS
 72
     1
 11
937160.203008
 21
7289986.719306
 31
0.0
210
0.0
220
0.0
230
1.0
 73
     3
  0
TEXT
  8
11
  6
CONTINUOUS
 62
     7
  5
1FF
 10
937153.925
 20
7289978.403
 30
0.0
 40
8.0
  1
'
 50
283.103525
  7
ROMANS
 72
     1
 11
937162.018902
 21
7289978.918398
 31
0.0
210
0.0
220
0.0
230
1.0
 73
     3
  0
TEXT
  8
11
  6
CONTINUOUS
 62
     7
  5
200
 10
937136.527
 20
7290138.569
 30
0.0
 40
8.0
  1
1
 50
272.245361
  7
ROMANS
 72
     1
 11
937144.573083
 21
7290137.550455
 31
0.0
210
0.0
220
0.0
230
1.0
 73
     3
  0
TEXT
  8
11
  6
CONTINUOUS
 62
     7
  5
201
 10
937136.8
 20
7290131.582
 30
0.0
 40
8.0
  1
7
 50
272.245361
  7
ROMANS
 72
     1
 11
937144.885262
 21
7290129.564223
 31
0.0
210
0.0
220
0.0
230
1.0
 73
     3
  0
TEXT
  8
11
  6
CONTINUOUS
 62
     7
  5
202
 10
937137.114
 20
7290123.589
 30
0.0
 40
8.0
  1
2
 50
272.245361
  7
ROMANS
 72
     1
 11
937145.199262
 21
7290121.571223
 31
0.0
210
0.0
220
0.0
230
1.0
 73
     3
  0
TEXT
  8
11
  6
CONTINUOUS
 62
     7
  5
203
 10
937137.466
 20
7290114.586
 30
0.0
 40
8.0
  1
.
 50
272.245361
  7
ROMANS
 72
     1
 11
937145.511652
 21
7290113.578446
 31
0.0
210
0.0
220
0.0
230
1.0
 73
     3
  0
TEXT
  8
11
  6
CONTINUOUS
 62
     7
  5
204
 10
937137.74
 20
7290107.6
 30
0.0
 40
8.0
  1
4
 50
272.245361
  7
ROMANS
 72
     1
 11
937145.825262
 21
7290105.582223
 31
0.0
210
0.0
220
0.0
230
1.0
 73
     3
  0
TEXT
  8
11
  6
CONTINUOUS
 62
     7
  5
205
 10
937138.053
 20
7290099.607
 30
0.0
 40
8.0
  1
9
 50
272.245361
  7
ROMANS
 72
     1
 11
937146.138262
 21
7290097.589223
 31
0.0
210
0.0
220
0.0
230
1.0
 73
     3
  0
TEXT
  8
11
  6
CONTINUOUS
 62
     7
  5
206
 10
937138.406
 20
7290090.605
 30
0.0
 40
8.0
  1
'
 50
272.245361
  7
ROMANS
 72
     1
 11
937146.452083
 21
7290089.586455
 31
0.0
210
0.0
220
0.0
230
1.0
 73
     3
  0
TEXT
  8
11
  6
CONTINUOUS
 62
     7
  5
207
 10
937154.92
 20
7290035.879
 30
0.0
 40
8.0
  1
S
 50
283.103525
  7
ROMANS
 72
     1
 11
937155.489952
 21
7290033.430459
 31
0.0
210
0.0
220
0.0
230
1.0
  0
TEXT
  8
11
  6
CONTINUOUS
 62
     7
  5
208
 10
937157.005
 20
7290026.922
 30
0.0
 40
8.0
  1
1
 50
283.103525
  7
ROMANS
 72
     1
 11
937157.307206
 21
7290025.623709
 31
0.0
210
0.0
220
0.0
230
1.0
  0
TEXT
  8
11
  6
CONTINUOUS
 62
     7
  5
209
 10
937158.59
 20
7290020.111
 30
0.0
 40
8.0
  1
4
 50
283.103525
  7
ROMANS
 72
     1
 11
937159.118917
 21
7290017.838747
 31
0.0
210
0.0
220
0.0
230
1.0
  0
TEXT
  8
11
  6
CONTINUOUS
 62
     7
  5
20A
 10
937160.604
 20
7290011.461
 30
0.0
 40
8.0
  1
%%d
 50
283.103525
  7
ROMANS
 72
     1
 11
937160.929784
 21
7290010.061417
 31
0.0
210
0.0
220
0.0
230
1.0
  0
TEXT
  8
11
  6
CONTINUOUS
 62
     7
  5
20B
 10
937162.218
 20
7290004.528
 30
0.0
 40
8.0
  1
2
 50
283.103525
  7
ROMANS
 72
     1
 11
937162.746917
 21
7290002.255747
 31
0.0
210
0.0
220
0.0
230
1.0
  0
TEXT
  8
11
  6
CONTINUOUS
 62
     7
  5
20C
 10
937163.988
 20
7289996.92
 30
0.0
 40
8.0
  1
6
 50
283.103525
  7
ROMANS
 72
     1
 11
937164.559312
 21
7289994.465616
 31
0.0
210
0.0
220
0.0
230
1.0
  0
TEXT
  8
11
  6
CONTINUOUS
 62
     7
  5
20D
 10
937166.074
 20
7289987.963
 30
0.0
 40
8.0
  1
'
 50
283.103525
  7
ROMANS
 72
     1
 11
937166.376206
 21
7289986.664709
 31
0.0
210
0.0
220
0.0
230
1.0
  0
TEXT
  8
11
  6
CONTINUOUS
 62
     7
  5
20E
 10
937167.658
 20
7289981.153
 30
0.0
 40
8.0
  1
5
 50
283.103525
  7
ROMANS
 72
     1
 11
937168.189411
 21
7289978.870033
 31
0.0
210
0.0
220
0.0
230
1.0
  0
TEXT
  8
11
  6
CONTINUOUS
 62
     7
  5
20F
 10
937169.472
 20
7289973.361
 30
0.0
 40
8.0
  1
2
 50
283.103525
  7
ROMANS
 72
     1
 11
937170.000917
 21
7289971.088747
 31
0.0
210
0.0
220
0.0
230
1.0
  0
TEXT
  8
11
  6
CONTINUOUS
 62
     7
  5
210
 10
937171.23
 20
7289965.815
 30
0.0
 40
8.0
  1
"
 50
283.103525
  7
ROMANS
 72
     1
 11
937171.815595
 21
7289963.299256
 31
0.0
210
0.0
220
0.0
230
1.0
  0
TEXT
  8
11
  6
CONTINUOUS
 62
     7
  5
211
 10
937173.064
 20
7289957.931
 30
0.0
 40
8.0
  1
E
 50
283.103525
  7
ROMANS
 72
     1
 11
937173.630778
 21
7289955.496095
 31
0.0
210
0.0
220
0.0
230
1.0
  0
TEXT
  8
11
  6
CONTINUOUS
 62
     7
  5
212
 10
937149.813
 20
7290157.037
 30
0.0
 40
8.0
  1
S
 50
272.245361
  7
ROMANS
 72
     1
 11
937149.911496
 21
7290154.52493
 31
0.0
210
0.0
220
0.0
230
1.0
  0
TEXT
  8
11
  6
CONTINUOUS
 62
     7
  5
213
 10
937150.133
 20
7290148.853
 30
0.0
 40
8.0
  1
3
 50
272.245361
  7
ROMANS
 72
     1
 11
937150.224404
 21
7290146.521791
 31
0.0
210
0.0
220
0.0
230
1.0
  0
TEXT
  8
11
  6
CONTINUOUS
 62
     7
  5
214
 10
937150.481
 20
7290139.979
 30
0.0
 40
8.0
  1
%%d
 50
272.245361
  7
ROMANS
 72
     1
 11
937150.5373
 21
7290138.543103
 31
0.0
210
0.0
220
0.0
230
1.0
  0
TEXT
  8
11
  6
CONTINUOUS
 62
     7
  5
215
 10
937150.761
 20
7290132.866
 30
0.0
 40
8.0
  1
3
 50
272.245361
  7
ROMANS
 72
     1
 11
937150.852404
 21
7290130.534791
 31
0.0
210
0.0
220
0.0
230
1.0
  0
TEXT
  8
11
  6
CONTINUOUS
 62
     7
  5
216
 10
937151.074
 20
7290124.871
 30
0.0
 40
8.0
  1
5
 50
272.245361
  7
ROMANS
 72
     1
 11
937151.165835
 21
7290122.5288
 31
0.0
210
0.0
220
0.0
230
1.0
  0
TEXT
  8
11
  6
CONTINUOUS
 62
     7
  5
217
 10
937151.426
 20
7290115.87
 30
0.0
 40
8.0
  1
'
 50
272.245361
  7
ROMANS
 72
     1
 11
937151.478225
 21
7290114.538023
 31
0.0
210
0.0
220
0.0
230
1.0
  0
TEXT
  8
11
  6
CONTINUOUS
 62
     7
  5
218
 10
937151.7
 20
7290108.884
 30
0.0
 40
8.0
  1
2
 50
272.245361
  7
ROMANS
 72
     1
 11
937151.791404
 21
7290106.552791
 31
0.0
210
0.0
220
0.0
230
1.0
  0
TEXT
  8
11
  6
CONTINUOUS
 62
     7
  5
219
 10
937152.014
 20
7290100.89
 30
0.0
 40
8.0
  1
3
 50
272.245361
  7
ROMANS
 72
     1
 11
937152.105404
 21
7290098.558791
 31
0.0
210
0.0
220
0.0
230
1.0
  0
TEXT
  8
11
  6
CONTINUOUS
 62
     7
  5
21A
 10
937152.317
 20
7290093.149
 30
0.0
 40
8.0
  1
"
 50
272.245361
  7
ROMANS
 72
     1
 11
937152.418199
 21
7290090.567983
 31
0.0
210
0.0
220
0.0
230
1.0
  0
TEXT
  8
11
  6
CONTINUOUS
 62
     7
  5
21B
 10
937152.634
 20
7290085.06
 30
0.0
 40
8.0
  1
E
 50
272.245361
  7
ROMANS
 72
     1
 11
937152.731947
 21
7290082.561919
 31
0.0
210
0.0
220
0.0
230
1.0
  0
TEXT
  8
11
  6
CONTINUOUS
 62
     7
  5
21C
 10
937140.073
 20
7290617.282
 30
0.0
 40
8.0
  1
9
 50
269.110622
  7
ROMANS
 72
     1
 11
937148.035824
 21
7290614.825105
 31
0.0
210
0.0
220
0.0
230
1.0
 73
     3
  0
TEXT
  8
11
  6
CONTINUOUS
 62
     7
  5
21D
 10
937139.953
 20
7290609.598
 30
0.0
 40
8.0
  1
0
 50
269.110622
  7
ROMANS
 72
     1
 11
937147.910888
 21
7290606.823144
 31
0.0
210
0.0
220
0.0
230
1.0
 73
     3
  0
TEXT
  8
11
  6
CONTINUOUS
 62
     7
  5
21E
 10
937139.829
 20
7290601.599
 30
0.0
 40
8.0
  1
0
 50
269.110622
  7
ROMANS
 72
     1
 11
937147.786888
 21
7290598.824144
 31
0.0
210
0.0
220
0.0
230
1.0
 73
     3
  0
TEXT
  8
11
  6
CONTINUOUS
 62
     7
  5
21F
 10
937139.684
 20
7290592.277
 30
0.0
 40
8.0
  1
.
 50
269.110622
  7
ROMANS
 72
     1
 11
937147.662516
 21
7290590.830984
 31
0.0
210
0.0
220
0.0
230
1.0
 73
     3
  0
TEXT
  8
11
  6
CONTINUOUS
 62
     7
  5
220
 10
937139.577
 20
7290585.286
 30
0.0
 40
8.0
  1
5
 50
269.110622
  7
ROMANS
 72
     1
 11
937147.539653
 21
7290582.818107
 31
0.0
210
0.0
220
0.0
230
1.0
 73
     3
  0
TEXT
  8
11
  6
CONTINUOUS
 62
     7
  5
221
 10
937139.452
 20
7290577.286
 30
0.0
 40
8.0
  1
8
 50
269.110622
  7
ROMANS
 72
     1
 11
937147.414824
 21
7290574.829105
 31
0.0
210
0.0
220
0.0
230
1.0
 73
     3
  0
TEXT
  8
11
  6
CONTINUOUS
 62
     7
  5
222
 10
937139.312
 20
7290568.28
 30
0.0
 40
8.0
  1
'
 50
269.110622
  7
ROMANS
 72
     1
 11
937147.290345
 21
7290566.822985
 31
0.0
210
0.0
220
0.0
230
1.0
 73
     3
  0
TEXT
  8
11
  6
CONTINUOUS
 62
     7
  5
223
 10
937139.229
 20
7290562.927
 30
0.0
 40
8.0
  1
 
 50
269.110622
  7
ROMANS
 72
     1
 11
937147.186655
 21
7290560.137146
 31
0.0
210
0.0
220
0.0
230
1.0
 73
     3
  0
TEXT
  8
11
  6
CONTINUOUS
 62
     7
  5
224
 10
937139.105
 20
7290554.928
 30
0.0
 40
8.0
  1
 
 50
269.110622
  7
ROMANS
 72
     1
 11
937147.062655
 21
7290552.138146
 31
0.0
210
0.0
220
0.0
230
1.0
 73
     3
  0
TEXT
  8
11
  6
CONTINUOUS
 62
     7
  5
225
 10
937138.981
 20
7290546.929
 30
0.0
 40
8.0
  1
 
 50
269.110622
  7
ROMANS
 72
     1
 11
937146.938655
 21
7290544.139146
 31
0.0
210
0.0
220
0.0
230
1.0
 73
     3
  0
TEXT
  8
11
  6
CONTINUOUS
 62
     7
  5
226
 10
937138.856
 20
7290538.929
 30
0.0
 40
8.0
  1
 
 50
269.110622
  7
ROMANS
 72
     1
 11
937146.813655
 21
7290536.139146
 31
0.0
210
0.0
220
0.0
230
1.0
 73
     3
  0
TEXT
  8
11
  6
CONTINUOUS
 62
     7
  5
227
 10
937138.708
 20
7290529.482
 30
0.0
 40
8.0
  1
S
 50
269.110622
  7
ROMANS
 72
     1
 11
937146.668014
 21
7290526.844127
 31
0.0
210
0.0
220
0.0
230
1.0
 73
     3
  0
TEXT
  8
11
  6
CONTINUOUS
 62
     7
  5
228
 10
937138.587
 20
7290521.609
 30
0.0
 40
8.0
  1
0
 50
269.110622
  7
ROMANS
 72
     1
 11
937146.544888
 21
7290518.834144
 31
0.0
210
0.0
220
0.0
230
1.0
 73
     3
  0
TEXT
  8
11
  6
CONTINUOUS
 62
     7
  5
229
 10
937138.445
 20
7290512.413
 30
0.0
 40
8.0
  1
%%d
 50
269.110622
  7
ROMANS
 72
     1
 11
937146.421731
 21
7290510.851998
 31
0.0
210
0.0
220
0.0
230
1.0
 73
     3
  0
TEXT
  8
11
  6
CONTINUOUS
 62
     7
  5
22A
 10
937138.334
 20
7290505.295
 30
0.0
 40
8.0
  1
2
 50
269.110622
  7
ROMANS
 72
     1
 11
937146.296824
 21
7290502.838105
 31
0.0
210
0.0
220
0.0
230
1.0
 73
     3
  0
TEXT
  8
11
  6
CONTINUOUS
 62
     7
  5
22B
 10
937138.21
 20
7290497.296
 30
0.0
 40
8.0
  1
7
 50
269.110622
  7
ROMANS
 72
     1
 11
937146.172824
 21
7290494.839105
 31
0.0
210
0.0
220
0.0
230
1.0
 73
     3
  0
TEXT
  8
11
  6
CONTINUOUS
 62
     7
  5
22C
 10
937138.07
 20
7290488.29
 30
0.0
 40
8.0
  1
'
 50
269.110622
  7
ROMANS
 72
     1
 11
937146.048345
 21
7290486.832985
 31
0.0
210
0.0
220
0.0
230
1.0
 73
     3
  0
TEXT
  8
11
  6
CONTINUOUS
 62
     7
  5
22D
 10
937137.946
 20
7290480.29
 30
0.0
 40
8.0
  1
1
 50
269.110622
  7
ROMANS
 72
     1
 11
937145.924345
 21
7290478.832985
 31
0.0
210
0.0
220
0.0
230
1.0
 73
     3
  0
TEXT
  8
11
  6
CONTINUOUS
 62
     7
  5
22E
 10
937137.837
 20
7290473.299
 30
0.0
 40
8.0
  1
8
 50
269.110622
  7
ROMANS
 72
     1
 11
937145.799824
 21
7290470.842105
 31
0.0
210
0.0
220
0.0
230
1.0
 73
     3
  0
TEXT
  8
11
  6
CONTINUOUS
 62
     7
  5
22F
 10
937137.717
 20
7290465.553
 30
0.0
 40
8.0
  1
"
 50
269.110622
  7
ROMANS
 72
     1
 11
937145.675943
 21
7290462.846136
 31
0.0
210
0.0
220
0.0
230
1.0
 73
     3
  0
TEXT
  8
11
  6
CONTINUOUS
 62
     7
  5
230
 10
937137.59
 20
7290457.458
 30
0.0
 40
8.0
  1
E
 50
269.110622
  7
ROMANS
 72
     1
 11
937145.550231
 21
7290454.834126
 31
0.0
210
0.0
220
0.0
230
1.0
 73
     3
  0
TEXT
  8
11
  6
CONTINUOUS
 62
     7
  5
231
 10
937161.144
 20
7291174.691
 30
0.0
 40
8.0
  1
2
 50
85.191253
  7
ROMANS
 72
     1
 11
937161.339575
 21
7291177.015788
 31
0.0
210
0.0
220
0.0
230
1.0
  0
TEXT
  8
11
  6
CONTINUOUS
 62
     7
  5
232
 10
937161.814
 20
7291182.662
 30
0.0
 40
8.0
  1
5
 50
85.191253
  7
ROMANS
 72
     1
 11
937162.010497
 21
7291184.997749
 31
0.0
210
0.0
220
0.0
230
1.0
  0
TEXT
  8
11
  6
CONTINUOUS
 62
     7
  5
233
 10
937162.485
 20
7291190.635
 30
0.0
 40
8.0
  1
3
 50
85.191253
  7
ROMANS
 72
     1
 11
937162.680575
 21
7291192.959788
 31
0.0
210
0.0
220
0.0
230
1.0
  0
TEXT
  8
11
  6
CONTINUOUS
 62
     7
  5
234
 10
937163.24
 20
7291199.611
 30
0.0
 40
8.0
  1
.
 50
85.191253
  7
ROMANS
 72
     1
 11
937163.350823
 21
7291200.928347
 31
0.0
210
0.0
220
0.0
230
1.0
  0
TEXT
  8
11
  6
CONTINUOUS
 62
     7
  5
235
 10
937163.91
 20
7291207.583
 30
0.0
 40
8.0
  1
1
 50
85.191253
  7
ROMANS
 72
     1
 11
937164.021745
 21
7291208.911308
 31
0.0
210
0.0
220
0.0
230
1.0
  0
TEXT
  8
11
  6
CONTINUOUS
 62
     7
  5
236
 10
937164.497
 20
7291214.551
 30
0.0
 40
8.0
  1
8
 50
85.191253
  7
ROMANS
 72
     1
 11
937164.692575
 21
7291216.875788
 31
0.0
210
0.0
220
0.0
230
1.0
  0
TEXT
  8
11
  6
CONTINUOUS
 62
     7
  5
237
 10
937165.252
 20
7291223.526
 30
0.0
 40
8.0
  1
'
 50
85.191253
  7
ROMANS
 72
     1
 11
937165.363745
 21
7291224.854308
 31
0.0
210
0.0
220
0.0
230
1.0
  0
TEXT
  8
11
  6
CONTINUOUS
 62
     7
  5
238
 10
937165.701
 20
7291228.863
 30
0.0
 40
8.0
  1
 
 50
85.191253
  7
ROMANS
 72
     1
 11
937165.924491
 21
7291231.519616
 31
0.0
210
0.0
220
0.0
230
1.0
  0
TEXT
  8
11
  6
CONTINUOUS
 62
     7
  5
239
 10
937166.371
 20
7291236.834
 30
0.0
 40
8.0
  1
 
 50
85.191253
  7
ROMANS
 72
     1
 11
937166.594491
 21
7291239.490616
 31
0.0
210
0.0
220
0.0
230
1.0
  0
TEXT
  8
11
  6
CONTINUOUS
 62
     7
  5
23A
 10
937167.165
 20
7291246.249
 30
0.0
 40
8.0
  1
S
 50
85.191253
  7
ROMANS
 72
     1
 11
937167.375749
 21
7291248.754151
 31
0.0
210
0.0
220
0.0
230
1.0
  0
TEXT
  8
11
  6
CONTINUOUS
 62
     7
  5
23B
 10
937167.85
 20
7291254.41
 30
0.0
 40
8.0
  1
3
 50
85.191253
  7
ROMANS
 72
     1
 11
937168.045575
 21
7291256.734788
 31
0.0
210
0.0
220
0.0
230
1.0
  0
TEXT
  8
11
  6
CONTINUOUS
 62
     7
  5
23C
 10
937168.593
 20
7291263.261
 30
0.0
 40
8.0
  1
%%d
 50
85.191253
  7
ROMANS
 72
     1
 11
937168.713464
 21
7291264.692942
 31
0.0
210
0.0
220
0.0
230
1.0
  0
TEXT
  8
11
  6
CONTINUOUS
 62
     7
  5
23D
 10
937169.191
 20
7291270.353
 30
0.0
 40
8.0
  1
2
 50
85.191253
  7
ROMANS
 72
     1
 11
937169.386575
 21
7291272.677788
 31
0.0
210
0.0
220
0.0
230
1.0
  0
TEXT
  8
11
  6
CONTINUOUS
 62
     7
  5
23E
 10
937169.862
 20
7291278.325
 30
0.0
 40
8.0
  1
7
 50
85.191253
  7
ROMANS
 72
     1
 11
937170.057575
 21
7291280.649788
 31
0.0
210
0.0
220
0.0
230
1.0
  0
TEXT
  8
11
  6
CONTINUOUS
 62
     7
  5
23F
 10
937170.617
 20
7291287.301
 30
0.0
 40
8.0
  1
'
 50
85.191253
  7
ROMANS
 72
     1
 11
937170.728745
 21
7291288.629308
 31
0.0
210
0.0
220
0.0
230
1.0
  0
TEXT
  8
11
  6
CONTINUOUS
 62
     7
  5
240
 10
937171.203
 20
7291294.269
 30
0.0
 40
8.0
  1
5
 50
85.191253
  7
ROMANS
 72
     1
 11
937171.399497
 21
7291296.604749
 31
0.0
210
0.0
220
0.0
230
1.0
  0
TEXT
  8
11
  6
CONTINUOUS
 62
     7
  5
241
 10
937171.874
 20
7291302.241
 30
0.0
 40
8.0
  1
2
 50
85.191253
  7
ROMANS
 72
     1
 11
937172.069575
 21
7291304.565788
 31
0.0
210
0.0
220
0.0
230
1.0
  0
TEXT
  8
11
  6
CONTINUOUS
 62
     7
  5
242
 10
937172.524
 20
7291309.962
 30
0.0
 40
8.0
  1
"
 50
85.191253
  7
ROMANS
 72
     1
 11
937172.740533
 21
7291312.535908
 31
0.0
210
0.0
220
0.0
230
1.0
  0
TEXT
  8
11
  6
CONTINUOUS
 62
     7
  5
243
 10
937173.171
 20
7291317.651
 30
0.0
 40
8.0
  1
W
 50
85.191253
  7
ROMANS
 72
     1
 11
937173.411089
 21
7291320.504919
 31
0.0
210
0.0
220
0.0
230
1.0
  0
TEXT
  8
11
  6
CONTINUOUS
 62
     7
  5
244
 10
937187.711
 20
7291411.564
 30
0.0
 40
8.0
  1
2
 50
77.561075
  7
ROMANS
 72
     1
 11
937188.213525
 21
7291413.842236
 31
0.0
210
0.0
220
0.0
230
1.0
  0
TEXT
  8
11
  6
CONTINUOUS
 62
     7
  5
245
 10
937189.434
 20
7291419.376
 30
0.0
 40
8.0
  1
3
 50
77.561075
  7
ROMANS
 72
     1
 11
937189.936525
 21
7291421.654236
 31
0.0
210
0.0
220
0.0
230
1.0
  0
TEXT
  8
11
  6
CONTINUOUS
 62
     7
  5
246
 10
937191.159
 20
7291427.188
 30
0.0
 40
8.0
  1
3
 50
77.561075
  7
ROMANS
 72
     1
 11
937191.661525
 21
7291429.466236
 31
0.0
210
0.0
220
0.0
230
1.0
  0
TEXT
  8
11
  6
CONTINUOUS
 62
     7
  5
247
 10
937193.098
 20
7291435.985
 30
0.0
 40
8.0
  1
.
 50
77.561075
  7
ROMANS
 72
     1
 11
937193.382757
 21
7291437.275968
 31
0.0
210
0.0
220
0.0
230
1.0
  0
TEXT
  8
11
  6
CONTINUOUS
 62
     7
  5
248
 10
937194.605
 20
7291442.812
 30
0.0
 40
8.0
  1
4
 50
77.561075
  7
ROMANS
 72
     1
 11
937195.107525
 21
7291445.090236
 31
0.0
210
0.0
220
0.0
230
1.0
  0
TEXT
  8
11
  6
CONTINUOUS
 62
     7
  5
249
 10
937196.327
 20
7291450.625
 30
0.0
 40
8.0
  1
9
 50
77.561075
  7
ROMANS
 72
     1
 11
937196.829525
 21
7291452.903236
 31
0.0
210
0.0
220
0.0
230
1.0
  0
TEXT
  8
11
  6
CONTINUOUS
 62
     7
  5
24A
 10
937198.268
 20
7291459.421
 30
0.0
 40
8.0
  1
'
 50
77.561075
  7
ROMANS
 72
     1
 11
937198.555127
 21
7291460.722709
 31
0.0
210
0.0
220
0.0
230
1.0
  0
TEXT
  8
11
  6
CONTINUOUS
 62
     7
  5
24B
 10
937199.422
 20
7291464.649
 30
0.0
 40
8.0
  1
 
 50
77.561075
  7
ROMANS
 72
     1
 11
937199.996253
 21
7291467.252419
 31
0.0
210
0.0
220
0.0
230
1.0
  0
TEXT
  8
11
  6
CONTINUOUS
 62
     7
  5
24C
 10
937201.144
 20
7291472.46
 30
0.0
 40
8.0
  1
 
 50
77.561075
  7
ROMANS
 72
     1
 11
937201.718253
 21
7291475.063419
 31
0.0
210
0.0
220
0.0
230
1.0
  0
TEXT
  8
11
  6
CONTINUOUS
 62
     7
  5
24D
 10
937203.18
 20
7291481.688
 30
0.0
 40
8.0
  1
S
 50
77.561075
  7
ROMANS
 72
     1
 11
937203.721513
 21
7291484.142987
 31
0.0
210
0.0
220
0.0
230
1.0
  0
TEXT
  8
11
  6
CONTINUOUS
 62
     7
  5
24E
 10
937205.16
 20
7291490.67
 30
0.0
 40
8.0
  1
1
 50
77.561075
  7
ROMANS
 72
     1
 11
937205.447127
 21
7291491.971709
 31
0.0
210
0.0
220
0.0
230
1.0
  0
TEXT
  8
11
  6
CONTINUOUS
 62
     7
  5
24F
 10
937206.885
 20
7291498.482
 30
0.0
 40
8.0
  1
1
 50
77.561075
  7
ROMANS
 72
     1
 11
937207.172127
 21
7291499.783709
 31
0.0
210
0.0
220
0.0
230
1.0
  0
TEXT
  8
11
  6
CONTINUOUS
 62
     7
  5
250
 10
937208.58
 20
7291506.17
 30
0.0
 40
8.0
  1
%%d
 50
77.561075
  7
ROMANS
 72
     1
 11
937208.889528
 21
7291507.573268
 31
0.0
210
0.0
220
0.0
230
1.0
  0
TEXT
  8
11
  6
CONTINUOUS
 62
     7
  5
251
 10
937210.112
 20
7291513.122
 30
0.0
 40
8.0
  1
5
 50
77.561075
  7
ROMANS
 72
     1
 11
937210.616895
 21
7291515.410977
 31
0.0
210
0.0
220
0.0
230
1.0
  0
TEXT
  8
11
  6
CONTINUOUS
 62
     7
  5
252
 10
937212.053
 20
7291521.918
 30
0.0
 40
8.0
  1
'
 50
77.561075
  7
ROMANS
 72
     1
 11
937212.340127
 21
7291523.219709
 31
0.0
210
0.0
220
0.0
230
1.0
  0
TEXT
  8
11
  6
CONTINUOUS
 62
     7
  5
253
 10
937213.559
 20
7291528.747
 30
0.0
 40
8.0
  1
4
 50
77.561075
  7
ROMANS
 72
     1
 11
937214.061525
 21
7291531.025236
 31
0.0
210
0.0
220
0.0
230
1.0
  0
TEXT
  8
11
  6
CONTINUOUS
 62
     7
  5
254
 10
937215.215
 20
7291536.25
 30
0.0
 40
8.0
  1
0
 50
77.561075
  7
ROMANS
 72
     1
 11
937215.786022
 21
7291538.838771
 31
0.0
210
0.0
220
0.0
230
1.0
  0
TEXT
  8
11
  6
CONTINUOUS
 62
     7
  5
255
 10
937216.952
 20
7291544.125
 30
0.0
 40
8.0
  1
"
 50
77.561075
  7
ROMANS
 72
     1
 11
937217.508375
 21
7291546.647367
 31
0.0
210
0.0
220
0.0
230
1.0
  0
TEXT
  8
11
  6
CONTINUOUS
 62
     7
  5
256
 10
937218.615
 20
7291551.661
 30
0.0
 40
8.0
  1
W
 50
77.561075
  7
ROMANS
 72
     1
 11
937219.231902
 21
7291554.457771
 31
0.0
210
0.0
220
0.0
230
1.0
  0
TEXT
  8
11
  6
CONTINUOUS
 62
     7
  5
257
 10
937248.853
 20
7291588.292
 30
0.0
 40
8.0
  1
7
 50
29.337358
  7
ROMANS
 72
     1
 11
937246.967185
 21
7291596.409056
 31
0.0
210
0.0
220
0.0
230
1.0
 73
     3
  0
TEXT
  8
11
  6
CONTINUOUS
 62
     7
  5
258
 10
937255.827
 20
7291592.212
 30
0.0
 40
8.0
  1
8
 50
29.337358
  7
ROMANS
 72
     1
 11
937253.941185
 21
7291600.329056
 31
0.0
210
0.0
220
0.0
230
1.0
 73
     3
  0
TEXT
  8
11
  6
CONTINUOUS
 62
     7
  5
259
 10
937263.681
 20
7291596.625
 30
0.0
 40
8.0
  1
.
 50
29.337358
  7
ROMANS
 72
     1
 11
937260.913846
 21
7291604.246715
 31
0.0
210
0.0
220
0.0
230
1.0
 73
     3
  0
TEXT
  8
11
  6
CONTINUOUS
 62
     7
  5
25A
 10
937269.612
 20
7291599.958
 30
0.0
 40
8.0
  1
6
 50
29.337358
  7
ROMANS
 72
     1
 11
937267.889202
 21
7291608.166676
 31
0.0
210
0.0
220
0.0
230
1.0
 73
     3
  0
TEXT
  8
11
  6
CONTINUOUS
 62
     7
  5
25B
 10
937276.749
 20
7291603.97
 30
0.0
 40
8.0
  1
8
 50
29.337358
  7
ROMANS
 72
     1
 11
937274.863185
 21
7291612.087056
 31
0.0
210
0.0
220
0.0
230
1.0
 73
     3
  0
TEXT
  8
11
  6
CONTINUOUS
 62
     7
  5
25C
 10
937284.602
 20
7291608.384
 30
0.0
 40
8.0
  1
'
 50
29.337358
  7
ROMANS
 72
     1
 11
937281.844435
 21
7291616.011105
 31
0.0
210
0.0
220
0.0
230
1.0
 73
     3
  0
TEXT
  8
11
  6
CONTINUOUS
 62
     7
  5
25D
 10
937340.602
 20
7291621.09
 30
0.0
 40
8.0
  1
3
 50
4.272683
  7
ROMANS
 72
     1
 11
937342.33249
 21
7291629.241582
 31
0.0
210
0.0
220
0.0
230
1.0
 73
     3
  0
TEXT
  8
11
  6
CONTINUOUS
 62
     7
  5
25E
 10
937348.58
 20
7291621.686
 30
0.0
 40
8.0
  1
5
 50
4.272683
  7
ROMANS
 72
     1
 11
937350.321459
 21
7291629.838402
 31
0.0
210
0.0
220
0.0
230
1.0
 73
     3
  0
TEXT
  8
11
  6
CONTINUOUS
 62
     7
  5
25F
 10
937356.557
 20
7291622.281
 30
0.0
 40
8.0
  1
2
 50
4.272683
  7
ROMANS
 72
     1
 11
937358.28749
 21
7291630.432582
 31
0.0
210
0.0
220
0.0
230
1.0
 73
     3
  0
TEXT
  8
11
  6
CONTINUOUS
 62
     7
  5
260
 10
937365.54
 20
7291622.953
 30
0.0
 40
8.0
  1
.
 50
4.272683
  7
ROMANS
 72
     1
 11
937366.262299
 21
7291631.029259
 31
0.0
210
0.0
220
0.0
230
1.0
 73
     3
  0
TEXT
  8
11
  6
CONTINUOUS
 62
     7
  5
261
 10
937372.512
 20
7291623.473
 30
0.0
 40
8.0
  1
4
 50
4.272683
  7
ROMANS
 72
     1
 11
937374.24249
 21
7291631.624582
 31
0.0
210
0.0
220
0.0
230
1.0
 73
     3
  0
TEXT
  8
11
  6
CONTINUOUS
 62
     7
  5
262
 10
937380.491
 20
7291624.07
 30
0.0
 40
8.0
  1
7
 50
4.272683
  7
ROMANS
 72
     1
 11
937382.22149
 21
7291632.221582
 31
0.0
210
0.0
220
0.0
230
1.0
 73
     3
  0
TEXT
  8
11
  6
CONTINUOUS
 62
     7
  5
263
 10
937389.473
 20
7291624.741
 30
0.0
 40
8.0
  1
'
 50
4.272683
  7
ROMANS
 72
     1
 11
937390.206269
 21
7291632.818079
 31
0.0
210
0.0
220
0.0
230
1.0
 73
     3
  0
TEXT
  8
11
  6
CONTINUOUS
 62
     7
  5
264
 10
937227.426
 20
7291592.309
 30
0.0
 40
8.0
  1
S
 50
29.337358
  7
ROMANS
 72
     1
 11
937229.617579
 21
7291593.540737
 31
0.0
210
0.0
220
0.0
230
1.0
  0
TEXT
  8
11
  6
CONTINUOUS
 62
     7
  5
265
 10
937234.564
 20
7291596.321
 30
0.0
 40
8.0
  1
5
 50
29.337358
  7
ROMANS
 72
     1
 11
937236.607382
 21
7291597.469445
 31
0.0
210
0.0
220
0.0
230
1.0
  0
TEXT
  8
11
  6
CONTINUOUS
 62
     7
  5
266
 10
937241.539
 20
7291600.241
 30
0.0
 40
8.0
  1
9
 50
29.337358
  7
ROMANS
 72
     1
 11
937243.572793
 21
7291601.384056
 31
0.0
210
0.0
220
0.0
230
1.0
  0
TEXT
  8
11
  6
CONTINUOUS
 62
     7
  5
267
 10
937249.282
 20
7291604.592
 30
0.0
 40
8.0
  1
%%d
 50
29.337358
  7
ROMANS
 72
     1
 11
937250.534705
 21
7291605.29606
 31
0.0
210
0.0
220
0.0
230
1.0
  0
TEXT
  8
11
  6
CONTINUOUS
 62
     7
  5
268
 10
937256.366
 20
7291608.574
 30
0.0
 40
8.0
  1
1
 50
29.337358
  7
ROMANS
 72
     1
 11
937257.528043
 21
7291609.227105
 31
0.0
210
0.0
220
0.0
230
1.0
  0
TEXT
  8
11
  6
CONTINUOUS
 62
     7
  5
269
 10
937262.461
 20
7291612.0
 30
0.0
 40
8.0
  1
9
 50
29.337358
  7
ROMANS
 72
     1
 11
937264.494793
 21
7291613.143056
 31
0.0
210
0.0
220
0.0
230
1.0
  0
TEXT
  8
11
  6
CONTINUOUS
 62
     7
  5
26A
 10
937270.313
 20
7291616.414
 30
0.0
 40
8.0
  1
'
 50
29.337358
  7
ROMANS
 72
     1
 11
937271.475043
 21
7291617.067105
 31
0.0
210
0.0
220
0.0
230
1.0
  0
TEXT
  8
11
  6
CONTINUOUS
 62
     7
  5
26B
 10
937276.408
 20
7291619.84
 30
0.0
 40
8.0
  1
7
 50
29.337358
  7
ROMANS
 72
     1
 11
937278.441793
 21
7291620.983056
 31
0.0
210
0.0
220
0.0
230
1.0
  0
TEXT
  8
11
  6
CONTINUOUS
 62
     7
  5
26C
 10
937283.163
 20
7291623.635
 30
0.0
 40
8.0
  1
"
 50
29.337358
  7
ROMANS
 72
     1
 11
937285.41473
 21
7291624.900543
 31
0.0
210
0.0
220
0.0
230
1.0
  0
TEXT
  8
11
  6
CONTINUOUS
 62
     7
  5
26D
 10
937289.89
 20
7291627.416
 30
0.0
 40
8.0
  1
W
 50
29.337358
  7
ROMANS
 72
     1
 11
937292.386692
 21
7291628.81922
 31
0.0
210
0.0
220
0.0
230
1.0
  0
TEXT
  8
11
  6
CONTINUOUS
 62
     7
  5
26E
 10
937319.933
 20
7291633.584
 30
0.0
 40
8.0
  1
S
 50
4.272683
  7
ROMANS
 72
     1
 11
937322.440013
 21
7291633.771301
 31
0.0
210
0.0
220
0.0
230
1.0
  0
TEXT
  8
11
  6
CONTINUOUS
 62
     7
  5
26F
 10
937328.1
 20
7291634.194
 30
0.0
 40
8.0
  1
8
 50
4.272683
  7
ROMANS
 72
     1
 11
937330.426516
 21
7291634.367816
 31
0.0
210
0.0
220
0.0
230
1.0
  0
TEXT
  8
11
  6
CONTINUOUS
 62
     7
  5
270
 10
937336.076
 20
7291634.79
 30
0.0
 40
8.0
  1
4
 50
4.272683
  7
ROMANS
 72
     1
 11
937338.402516
 21
7291634.963816
 31
0.0
210
0.0
220
0.0
230
1.0
  0
TEXT
  8
11
  6
CONTINUOUS
 62
     7
  5
271
 10
937344.935
 20
7291635.451
 30
0.0
 40
8.0
  1
%%d
 50
4.272683
  7
ROMANS
 72
     1
 11
937346.368006
 21
7291635.558061
 31
0.0
210
0.0
220
0.0
230
1.0
  0
TEXT
  8
11
  6
CONTINUOUS
 62
     7
  5
272
 10
937352.032
 20
7291635.984
 30
0.0
 40
8.0
  1
2
 50
4.272683
  7
ROMANS
 72
     1
 11
937354.358516
 21
7291636.157816
 31
0.0
210
0.0
220
0.0
230
1.0
  0
TEXT
  8
11
  6
CONTINUOUS
 62
     7
  5
273
 10
937360.01
 20
7291636.58
 30
0.0
 40
8.0
  1
2
 50
4.272683
  7
ROMANS
 72
     1
 11
937362.336516
 21
7291636.753816
 31
0.0
210
0.0
220
0.0
230
1.0
  0
TEXT
  8
11
  6
CONTINUOUS
 62
     7
  5
274
 10
937368.994
 20
7291637.251
 30
0.0
 40
8.0
  1
'
 50
4.272683
  7
ROMANS
 72
     1
 11
937370.323295
 21
7291637.350313
 31
0.0
210
0.0
220
0.0
230
1.0
  0
TEXT
  8
11
  6
CONTINUOUS
 62
     7
  5
275
 10
937375.966
 20
7291637.771
 30
0.0
 40
8.0
  1
5
 50
4.272683
  7
ROMANS
 72
     1
 11
937378.303485
 21
7291637.945636
 31
0.0
210
0.0
220
0.0
230
1.0
  0
TEXT
  8
11
  6
CONTINUOUS
 62
     7
  5
276
 10
937383.943
 20
7291638.367
 30
0.0
 40
8.0
  1
8
 50
4.272683
  7
ROMANS
 72
     1
 11
937386.269516
 21
7291638.540816
 31
0.0
210
0.0
220
0.0
230
1.0
  0
TEXT
  8
11
  6
CONTINUOUS
 62
     7
  5
277
 10
937391.669
 20
7291638.945
 30
0.0
 40
8.0
  1
"
 50
4.272683
  7
ROMANS
 72
     1
 11
937394.244821
 21
7291639.137442
 31
0.0
210
0.0
220
0.0
230
1.0
  0
TEXT
  8
11
  6
CONTINUOUS
 62
     7
  5
278
 10
937399.366
 20
7291639.519
 30
0.0
 40
8.0
  1
W
 50
4.272683
  7
ROMANS
 72
     1
 11
937402.22204
 21
7291639.732377
 31
0.0
210
0.0
220
0.0
230
1.0
  0
TEXT
  8
11
  6
CONTINUOUS
 62
     7
  5
279
 10
937344.369
 20
7289520.455
 30
0.0
 40
8.0
  1
1
 50
38.458778
  7
ROMANS
 72
     1
 11
937345.412813
 21
7289521.284061
 31
0.0
210
0.0
220
0.0
230
1.0
  0
TEXT
  8
11
  6
CONTINUOUS
 62
     7
  5
27A
 10
937349.843
 20
7289524.804
 30
0.0
 40
8.0
  1
2
 50
38.458778
  7
ROMANS
 72
     1
 11
937351.669869
 21
7289526.255013
 31
0.0
210
0.0
220
0.0
230
1.0
  0
TEXT
  8
11
  6
CONTINUOUS
 62
     7
  5
27B
 10
937356.108
 20
7289529.78
 30
0.0
 40
8.0
  1
7
 50
38.458778
  7
ROMANS
 72
     1
 11
937357.934869
 21
7289531.231013
 31
0.0
210
0.0
220
0.0
230
1.0
  0
TEXT
  8
11
  6
CONTINUOUS
 62
     7
  5
27C
 10
937363.162
 20
7289535.382
 30
0.0
 40
8.0
  1
.
 50
38.458778
  7
ROMANS
 72
     1
 11
937364.1972
 21
7289536.20422
 31
0.0
210
0.0
220
0.0
230
1.0
  0
TEXT
  8
11
  6
CONTINUOUS
 62
     7
  5
27D
 10
937368.636
 20
7289539.73
 30
0.0
 40
8.0
  1
4
 50
38.458778
  7
ROMANS
 72
     1
 11
937370.462869
 21
7289541.181013
 31
0.0
210
0.0
220
0.0
230
1.0
  0
TEXT
  8
11
  6
CONTINUOUS
 62
     7
  5
27E
 10
937374.901
 20
7289544.707
 30
0.0
 40
8.0
  1
2
 50
38.458778
  7
ROMANS
 72
     1
 11
937376.727869
 21
7289546.158013
 31
0.0
210
0.0
220
0.0
230
1.0
  0
ARC
  8
21
  6
DASHDOT
 62
     7
  5
280
 10
933203.774375
 20
7290156.103135
 30
0.0
 40
989.999629
 50
130.709333
 51
150.207781
210
0.0
220
0.0
230
1.0
  0
TEXT
  8
22
  6
CONTINUOUS
 62
     3
  5
282
 10
932374.895
 20
7290671.377
 30
0.0
 40
8.0
  1
2
 50
57.462461
  7
ROMANS
 72
     1
 11
932369.405495
 21
7290677.646627
 31
0.0
210
0.0
220
0.0
230
1.0
 73
     3
  0
TEXT
  8
22
  6
CONTINUOUS
 62
     3
  5
283
 10
932379.028
 20
7290677.856
 30
0.0
 40
8.0
  1
0
 50
57.462461
  7
ROMANS
 72
     1
 11
932373.709532
 21
7290684.393714
 31
0.0
210
0.0
220
0.0
230
1.0
 73
     3
  0
TEXT
  8
22
  6
CONTINUOUS
 62
     3
  5
284
 10
932384.042
 20
7290685.716
 30
0.0
 40
8.0
  1
'
 50
57.462461
  7
ROMANS
 72
     1
 11
932378.014643
 21
7290691.142588
 31
0.0
210
0.0
220
0.0
230
1.0
 73
     3
  0
TEXT
  8
22
  6
CONTINUOUS
 62
     3
  5
285
 10
932386.691
 20
7290689.955
 30
0.0
 40
8.0
  1
 
 50
56.005667
  7
ROMANS
 72
     1
 11
932381.548847
 21
7290696.638249
 31
0.0
210
0.0
220
0.0
230
1.0
 73
     3
  0
TEXT
  8
22
  6
CONTINUOUS
 62
     3
  5
286
 10
932391.165
 20
7290696.588
 30
0.0
 40
8.0
  1
 
 50
56.005667
  7
ROMANS
 72
     1
 11
932386.022847
 21
7290703.271249
 31
0.0
210
0.0
220
0.0
230
1.0
 73
     3
  0
TEXT
  8
22
  6
CONTINUOUS
 62
     3
  5
287
 10
932396.447
 20
7290704.423
 30
0.0
 40
8.0
  1
C
 50
56.005667
  7
ROMANS
 72
     1
 11
932391.223216
 21
7290710.985201
 31
0.0
210
0.0
220
0.0
230
1.0
 73
     3
  0
TEXT
  8
22
  6
CONTINUOUS
 62
     3
  5
288
 10
932400.598
 20
7290710.653
 30
0.0
 40
8.0
  1
A
 50
54.548872
  7
ROMANS
 72
     1
 11
932395.627418
 21
7290717.464818
 31
0.0
210
0.0
220
0.0
230
1.0
 73
     3
  0
TEXT
  8
22
  6
CONTINUOUS
 62
     3
  5
289
 10
932405.33
 20
7290717.299
 30
0.0
 40
8.0
  1
N
 50
54.548872
  7
ROMANS
 72
     1
 11
932400.274737
 21
7290723.991885
 31
0.0
210
0.0
220
0.0
230
1.0
 73
     3
  0
TEXT
  8
22
  6
CONTINUOUS
 62
     3
  5
28A
 10
932409.879
 20
7290723.688
 30
0.0
 40
8.0
  1
A
 50
54.548872
  7
ROMANS
 72
     1
 11
932404.908418
 21
7290730.499818
 31
0.0
210
0.0
220
0.0
230
1.0
 73
     3
  0
TEXT
  8
22
  6
CONTINUOUS
 62
     3
  5
28B
 10
932414.592
 20
7290730.307
 30
0.0
 40
8.0
  1
D
 50
54.548872
  7
ROMANS
 72
     1
 11
932409.551817
 21
7290737.021065
 31
0.0
210
0.0
220
0.0
230
1.0
 73
     3
  0
TEXT
  8
22
  6
CONTINUOUS
 62
     3
  5
28C
 10
932419.568
 20
7290737.034
 30
0.0
 40
8.0
  1
I
 50
53.092078
  7
ROMANS
 72
     1
 11
932414.27196
 21
7290743.303916
 31
0.0
210
0.0
220
0.0
230
1.0
 73
     3
  0
TEXT
  8
22
  6
CONTINUOUS
 62
     3
  5
28D
 10
932423.862
 20
7290742.752
 30
0.0
 40
8.0
  1
A
 50
53.092078
  7
ROMANS
 72
     1
 11
932419.066202
 21
7290749.687984
 31
0.0
210
0.0
220
0.0
230
1.0
 73
     3
  0
TEXT
  8
22
  6
CONTINUOUS
 62
     3
  5
28E
 10
932428.76
 20
7290749.274
 30
0.0
 40
8.0
  1
N
 50
53.092078
  7
ROMANS
 72
     1
 11
932423.876525
 21
7290756.093242
 31
0.0
210
0.0
220
0.0
230
1.0
 73
     3
  0
TEXT
  8
22
  6
CONTINUOUS
 62
     3
  5
28F
 10
932432.535
 20
7290754.185
 30
0.0
 40
8.0
  1
 
 50
51.635286
  7
ROMANS
 72
     1
 11
932427.917086
 21
7290761.240666
 31
0.0
210
0.0
220
0.0
230
1.0
 73
     3
  0
TEXT
  8
22
  6
CONTINUOUS
 62
     3
  5
290
 10
932438.398
 20
7290761.595
 30
0.0
 40
8.0
  1
R
 50
51.635286
  7
ROMANS
 72
     1
 11
932433.689469
 21
7290768.536191
 31
0.0
210
0.0
220
0.0
230
1.0
 73
     3
  0
TEXT
  8
22
  6
CONTINUOUS
 62
     3
  5
291
 10
932443.794
 20
7290768.41
 30
0.0
 40
8.0
  1
I
 50
51.635286
  7
ROMANS
 72
     1
 11
932438.659072
 21
7290774.812531
 31
0.0
210
0.0
220
0.0
230
1.0
 73
     3
  0
TEXT
  8
22
  6
CONTINUOUS
 62
     3
  5
292
 10
932448.066
 20
7290773.693
 30
0.0
 40
8.0
  1
V
 50
50.178492
  7
ROMANS
 72
     1
 11
932443.628956
 21
7290780.863788
 31
0.0
210
0.0
220
0.0
230
1.0
 73
     3
  0
TEXT
  8
22
  6
CONTINUOUS
 62
     3
  5
293
 10
932453.311
 20
7290779.982
 30
0.0
 40
8.0
  1
E
 50
50.178492
  7
ROMANS
 72
     1
 11
932448.76765
 21
7290787.025292
 31
0.0
210
0.0
220
0.0
230
1.0
 73
     3
  0
TEXT
  8
22
  6
CONTINUOUS
 62
     3
  5
294
 10
932458.413
 20
7290786.102
 30
0.0
 40
8.0
  1
R
 50
50.178492
  7
ROMANS
 72
     1
 11
932453.882458
 21
7290793.160653
 31
0.0
210
0.0
220
0.0
230
1.0
 73
     3
  0
TEXT
  8
22
  6
CONTINUOUS
 62
     3
  5
295
 10
932462.387
 20
7290790.854
 30
0.0
 40
8.0
  1
 
 50
48.721697
  7
ROMANS
 72
     1
 11
932458.133694
 21
7290798.135273
 31
0.0
210
0.0
220
0.0
230
1.0
 73
     3
  0
TEXT
  8
22
  6
CONTINUOUS
 62
     3
  5
296
 10
932468.517
 20
7290797.838
 30
0.0
 40
8.0
  1
A
 50
48.721697
  7
ROMANS
 72
     1
 11
932464.263694
 21
7290805.119273
 31
0.0
210
0.0
220
0.0
230
1.0
 73
     3
  0
TEXT
  8
22
  6
CONTINUOUS
 62
     3
  5
297
 10
932473.795
 20
7290803.849
 30
0.0
 40
8.0
  1
Q
 50
48.721697
  7
ROMANS
 72
     1
 11
932469.556208
 21
7290811.146807
 31
0.0
210
0.0
220
0.0
230
1.0
 73
     3
  0
TEXT
  8
22
  6
CONTINUOUS
 62
     3
  5
298
 10
932478.974
 20
7290809.726
 30
0.0
 40
8.0
  1
U
 50
47.264906
  7
ROMANS
 72
     1
 11
932474.794532
 21
7290816.991125
 31
0.0
210
0.0
220
0.0
230
1.0
 73
     3
  0
TEXT
  8
22
  6
CONTINUOUS
 62
     3
  5
299
 10
932484.275
 20
7290815.463
 30
0.0
 40
8.0
  1
A
 50
47.264906
  7
ROMANS
 72
     1
 11
932480.208181
 21
7290822.850052
 31
0.0
210
0.0
220
0.0
230
1.0
 73
     3
  0
TEXT
  8
22
  6
CONTINUOUS
 62
     3
  5
29A
 10
932489.789
 20
7290821.431
 30
0.0
 40
8.0
  1
D
 50
47.264906
  7
ROMANS
 72
     1
 11
932485.640748
 21
7290828.729912
 31
0.0
210
0.0
220
0.0
230
1.0
 73
     3
  0
TEXT
  8
22
  6
CONTINUOUS
 62
     3
  5
29B
 10
932495.01
 20
7290827.102
 30
0.0
 40
8.0
  1
U
 50
45.808111
  7
ROMANS
 72
     1
 11
932491.016585
 21
7290834.471032
 31
0.0
210
0.0
220
0.0
230
1.0
 73
     3
  0
TEXT
  8
22
  6
CONTINUOUS
 62
     3
  5
29C
 10
932500.563
 20
7290832.814
 30
0.0
 40
8.0
  1
C
 50
45.808111
  7
ROMANS
 72
     1
 11
932496.583526
 21
7290840.197372
 31
0.0
210
0.0
220
0.0
230
1.0
 73
     3
  0
TEXT
  8
22
  6
CONTINUOUS
 62
     3
  5
29D
 10
932506.03
 20
7290838.438
 30
0.0
 40
8.0
  1
T
 50
45.808111
  7
ROMANS
 72
     1
 11
932502.152297
 21
7290845.926056
 31
0.0
210
0.0
220
0.0
230
1.0
 73
     3
  0
TEXT
  8
22
  6
CONTINUOUS
 62
     3
  5
29E
 10
932510.4
 20
7290843.05
 30
0.0
 40
8.0
  1
 
 50
44.351317
  7
ROMANS
 72
     1
 11
932506.71392
 21
7290850.634219
 31
0.0
210
0.0
220
0.0
230
1.0
 73
     3
  0
TEXT
  8
22
  6
CONTINUOUS
 62
     3
  5
29F
 10
932516.121
 20
7290848.643
 30
0.0
 40
8.0
  1
 
 50
44.351317
  7
ROMANS
 72
     1
 11
932512.43492
 21
7290856.227219
 31
0.0
210
0.0
220
0.0
230
1.0
 73
     3
  0
TEXT
  8
22
  6
CONTINUOUS
 62
     3
  5
2A0
 10
932522.902
 20
7290855.271
 30
0.0
 40
8.0
  1
E
 50
44.351317
  7
ROMANS
 72
     1
 11
932519.097219
 21
7290862.739175
 31
0.0
210
0.0
220
0.0
230
1.0
 73
     3
  0
TEXT
  8
22
  6
CONTINUOUS
 62
     3
  5
2A1
 10
932528.599
 20
7290860.839
 30
0.0
 40
8.0
  1
S
 50
44.351317
  7
ROMANS
 72
     1
 11
932524.80423
 21
7290868.316962
 31
0.0
210
0.0
220
0.0
230
1.0
 73
     3
  0
TEXT
  8
22
  6
CONTINUOUS
 62
     3
  5
2A2
 10
932533.901
 20
7290865.855
 30
0.0
 40
8.0
  1
M
 50
42.894525
  7
ROMANS
 72
     1
 11
932530.552517
 21
7290873.663886
 31
0.0
210
0.0
220
0.0
230
1.0
 73
     3
  0
TEXT
  8
22
  6
CONTINUOUS
 62
     3
  5
2A3
 10
932539.899
 20
7290871.429
 30
0.0
 40
8.0
  1
T
 50
42.894525
  7
ROMANS
 72
     1
 11
932536.406926
 21
7290879.104479
 31
0.0
210
0.0
220
0.0
230
1.0
 73
     3
  0
TEXT
  8
22
  6
CONTINUOUS
 62
     3
  5
2A4
 10
932546.752
 20
7290877.795
 30
0.0
 40
8.0
  1
.
 50
42.894525
  7
ROMANS
 72
     1
 11
932542.275301
 21
7290884.555684
 31
0.0
210
0.0
220
0.0
230
1.0
 73
     3
  0
POLYLINE
  8
21
  6
DASHDOT
 62
     7
  5
2A5
 66
     1
 10
0.0
 20
0.0
 30
0.0
  0
VERTEX
  8
21
  6
DASHDOT
 62
     7
  5
2A6
 10
937365.438
 20
7294783.91
 30
0.0
  0
VERTEX
  8
21
  6
DASHDOT
 62
     7
  5
2A7
 10
937273.325
 20
7290858.991
 30
0.0
  0
VERTEX
  8
21
  6
DASHDOT
 62
     7
  5
2A8
 10
937293.32
 20
7290858.521
 30
0.0
  0
VERTEX
  8
21
  6
DASHDOT
 62
     7
  5
2A9
 10
937385.432
 20
7294783.441
 30
0.0
  0
SEQEND
  8
21
  6
DASHDOT
 62
     7
  5
2AA
  0
TEXT
  8
22
  6
CONTINUOUS
 62
     3
  5
2AB
 10
937275.199
 20
7291535.501
 30
0.0
 40
8.0
  1
2
 50
268.6556
  7
ROMANS
 72
     1
 11
937283.142061
 21
7291532.980946
 31
0.0
210
0.0
220
0.0
230
1.0
 73
     3
  0
TEXT
  8
22
  6
CONTINUOUS
 62
     3
  5
2AC
 10
937275.018
 20
7291527.817
 30
0.0
 40
8.0
  1
0
 50
268.6556
  7
ROMANS
 72
     1
 11
937282.9536
 21
7291524.979033
 31
0.0
210
0.0
220
0.0
230
1.0
 73
     3
  0
TEXT
  8
22
  6
CONTINUOUS
 62
     3
  5
2AD
 10
937274.8
 20
7291518.498
 30
0.0
 40
8.0
  1
'
 50
268.6556
  7
ROMANS
 72
     1
 11
937282.766523
 21
7291516.977671
 31
0.0
210
0.0
220
0.0
230
1.0
 73
     3
  0
TEXT
  8
22
  6
CONTINUOUS
 62
     3
  5
2AE
 10
937274.674
 20
7291513.145
 30
0.0
 40
8.0
  1
 
 50
268.6556
  7
ROMANS
 72
     1
 11
937282.609248
 21
7291510.292037
 31
0.0
210
0.0
220
0.0
230
1.0
 73
     3
  0
TEXT
  8
22
  6
CONTINUOUS
 62
     3
  5
2AF
 10
937274.486
 20
7291505.147
 30
0.0
 40
8.0
  1
 
 50
268.6556
  7
ROMANS
 72
     1
 11
937282.421248
 21
7291502.294037
 31
0.0
210
0.0
220
0.0
230
1.0
 73
     3
  0
TEXT
  8
22
  6
CONTINUOUS
 62
     3
  5
2B0
 10
937274.265
 20
7291495.701
 30
0.0
 40
8.0
  1
P
 50
268.6556
  7
ROMANS
 72
     1
 11
937282.203673
 21
7291492.993997
 31
0.0
210
0.0
220
0.0
230
1.0
 73
     3
  0
TEXT
  8
22
  6
CONTINUOUS
 62
     3
  5
2B1
 10
937274.06
 20
7291487.01
 30
0.0
 40
8.0
  1
I
 50
268.6556
  7
ROMANS
 72
     1
 11
937282.014792
 21
7291484.989808
 31
0.0
210
0.0
220
0.0
230
1.0
 73
     3
  0
TEXT
  8
22
  6
CONTINUOUS
 62
     3
  5
2B2
 10
937273.893
 20
7291479.862
 30
0.0
 40
8.0
  1
O
 50
268.6556
  7
ROMANS
 72
     1
 11
937281.827849
 21
7291476.992042
 31
0.0
210
0.0
220
0.0
230
1.0
 73
     3
  0
TEXT
  8
22
  6
CONTINUOUS
 62
     3
  5
2B3
 10
937273.701
 20
7291471.708
 30
0.0
 40
8.0
  1
N
 50
268.6556
  7
ROMANS
 72
     1
 11
937281.639673
 21
7291469.000997
 31
0.0
210
0.0
220
0.0
230
1.0
 73
     3
  0
TEXT
  8
22
  6
CONTINUOUS
 62
     3
  5
2B4
 10
937273.513
 20
7291463.678
 30
0.0
 40
8.0
  1
E
 50
268.6556
  7
ROMANS
 72
     1
 11
937281.452143
 21
7291460.990992
 31
0.0
210
0.0
220
0.0
230
1.0
 73
     3
  0
TEXT
  8
22
  6
CONTINUOUS
 62
     3
  5
2B5
 10
937273.325
 20
7291455.679
 30
0.0
 40
8.0
  1
E
 50
268.6556
  7
ROMANS
 72
     1
 11
937281.264143
 21
7291452.991992
 31
0.0
210
0.0
220
0.0
230
1.0
 73
     3
  0
TEXT
  8
22
  6
CONTINUOUS
 62
     3
  5
2B6
 10
937273.138
 20
7291447.714
 30
0.0
 40
8.0
  1
R
 50
268.6556
  7
ROMANS
 72
     1
 11
937281.076673
 21
7291445.006997
 31
0.0
210
0.0
220
0.0
230
1.0
 73
     3
  0
TEXT
  8
22
  6
CONTINUOUS
 62
     3
  5
2B7
 10
937272.985
 20
7291441.164
 30
0.0
 40
8.0
  1
 
 50
268.6556
  7
ROMANS
 72
     1
 11
937280.920248
 21
7291438.311037
 31
0.0
210
0.0
220
0.0
230
1.0
 73
     3
  0
TEXT
  8
22
  6
CONTINUOUS
 62
     3
  5
2B8
 10
937272.797
 20
7291433.167
 30
0.0
 40
8.0
  1
 
 50
268.6556
  7
ROMANS
 72
     1
 11
937280.732248
 21
7291430.314037
 31
0.0
210
0.0
220
0.0
230
1.0
 73
     3
  0
TEXT
  8
22
  6
CONTINUOUS
 62
     3
  5
2B9
 10
937272.575
 20
7291423.721
 30
0.0
 40
8.0
  1
N
 50
268.6556
  7
ROMANS
 72
     1
 11
937280.513673
 21
7291421.013997
 31
0.0
210
0.0
220
0.0
230
1.0
 73
     3
  0
TEXT
  8
22
  6
CONTINUOUS
 62
     3
  5
2BA
 10
937272.391
 20
7291415.88
 30
0.0
 40
8.0
  1
A
 50
268.6556
  7
ROMANS
 72
     1
 11
937280.326248
 21
7291413.027037
 31
0.0
210
0.0
220
0.0
230
1.0
 73
     3
  0
TEXT
  8
22
  6
CONTINUOUS
 62
     3
  5
2BB
 10
937272.204
 20
7291407.882
 30
0.0
 40
8.0
  1
T
 50
268.6556
  7
ROMANS
 72
     1
 11
937280.139248
 21
7291405.029037
 31
0.0
210
0.0
220
0.0
230
1.0
 73
     3
  0
TEXT
  8
22
  6
CONTINUOUS
 62
     3
  5
2BC
 10
937272.011
 20
7291399.696
 30
0.0
 40
8.0
  1
U
 50
268.6556
  7
ROMANS
 72
     1
 11
937279.950143
 21
7291397.008992
 31
0.0
210
0.0
220
0.0
230
1.0
 73
     3
  0
TEXT
  8
22
  6
CONTINUOUS
 62
     3
  5
2BD
 10
937271.824
 20
7291391.729
 30
0.0
 40
8.0
  1
R
 50
268.6556
  7
ROMANS
 72
     1
 11
937279.762673
 21
7291389.021997
 31
0.0
210
0.0
220
0.0
230
1.0
 73
     3
  0
TEXT
  8
22
  6
CONTINUOUS
 62
     3
  5
2BE
 10
937271.641
 20
7291383.888
 30
0.0
 40
8.0
  1
A
 50
268.6556
  7
ROMANS
 72
     1
 11
937279.576248
 21
7291381.035037
 31
0.0
210
0.0
220
0.0
230
1.0
 73
     3
  0
TEXT
  8
22
  6
CONTINUOUS
 62
     3
  5
2BF
 10
937271.445
 20
7291375.545
 30
0.0
 40
8.0
  1
L
 50
268.6556
  7
ROMANS
 72
     1
 11
937279.388061
 21
7291373.024946
 31
0.0
210
0.0
220
0.0
230
1.0
 73
     3
  0
TEXT
  8
22
  6
CONTINUOUS
 62
     3
  5
2C0
 10
937271.295
 20
7291369.184
 30
0.0
 40
8.0
  1
 
 50
268.6556
  7
ROMANS
 72
     1
 11
937279.230248
 21
7291366.331037
 31
0.0
210
0.0
220
0.0
230
1.0
 73
     3
  0
TEXT
  8
22
  6
CONTINUOUS
 62
     3
  5
2C1
 10
937271.108
 20
7291361.187
 30
0.0
 40
8.0
  1
 
 50
268.6556
  7
ROMANS
 72
     1
 11
937279.043248
 21
7291358.334037
 31
0.0
210
0.0
220
0.0
230
1.0
 73
     3
  0
TEXT
  8
22
  6
CONTINUOUS
 62
     3
  5
2C2
 10
937270.886
 20
7291351.741
 30
0.0
 40
8.0
  1
G
 50
268.6556
  7
ROMANS
 72
     1
 11
937278.824415
 21
7291349.023
 31
0.0
210
0.0
220
0.0
230
1.0
 73
     3
  0
TEXT
  8
22
  6
CONTINUOUS
 62
     3
  5
2C3
 10
937270.702
 20
7291343.9
 30
0.0
 40
8.0
  1
A
 50
268.6556
  7
ROMANS
 72
     1
 11
937278.637248
 21
7291341.047037
 31
0.0
210
0.0
220
0.0
230
1.0
 73
     3
  0
TEXT
  8
22
  6
CONTINUOUS
 62
     3
  5
2C4
 10
937270.511
 20
7291335.745
 30
0.0
 40
8.0
  1
S
 50
268.6556
  7
ROMANS
 72
     1
 11
937278.449814
 21
7291333.043996
 31
0.0
210
0.0
220
0.0
230
1.0
 73
     3
  0
TEXT
  8
22
  6
CONTINUOUS
 62
     3
  5
2C5
 10
937270.357
 20
7291329.196
 30
0.0
 40
8.0
  1
 
 50
268.6556
  7
ROMANS
 72
     1
 11
937278.292248
 21
7291326.343037
 31
0.0
210
0.0
220
0.0
230
1.0
 73
     3
  0
TEXT
  8
22
  6
CONTINUOUS
 62
     3
  5
2C6
 10
937270.169
 20
7291321.198
 30
0.0
 40
8.0
  1
 
 50
268.6556
  7
ROMANS
 72
     1
 11
937278.104248
 21
7291318.345037
 31
0.0
210
0.0
220
0.0
230
1.0
 73
     3
  0
TEXT
  8
22
  6
CONTINUOUS
 62
     3
  5
2C7
 10
937269.947
 20
7291311.719
 30
0.0
 40
8.0
  1
E
 50
268.6556
  7
ROMANS
 72
     1
 11
937277.886143
 21
7291309.031992
 31
0.0
210
0.0
220
0.0
230
1.0
 73
     3
  0
TEXT
  8
22
  6
CONTINUOUS
 62
     3
  5
2C8
 10
937269.76
 20
7291303.754
 30
0.0
 40
8.0
  1
S
 50
268.6556
  7
ROMANS
 72
     1
 11
937277.698814
 21
7291301.052996
 31
0.0
210
0.0
220
0.0
230
1.0
 73
     3
  0
TEXT
  8
22
  6
CONTINUOUS
 62
     3
  5
2C9
 10
937269.58
 20
7291296.102
 30
0.0
 40
8.0
  1
M
 50
268.6556
  7
ROMANS
 72
     1
 11
937277.510649
 21
7291293.053091
 31
0.0
210
0.0
220
0.0
230
1.0
 73
     3
  0
TEXT
  8
22
  6
CONTINUOUS
 62
     3
  5
2CA
 10
937269.388
 20
7291287.915
 30
0.0
 40
8.0
  1
T
 50
268.6556
  7
ROMANS
 72
     1
 11
937277.323248
 21
7291285.062037
 31
0.0
210
0.0
220
0.0
230
1.0
 73
     3
  0
TEXT
  8
22
  6
CONTINUOUS
 62
     3
  5
2CB
 10
937269.169
 20
7291278.563
 30
0.0
 40
8.0
  1
.
 50
268.6556
  7
ROMANS
 72
     1
 11
937277.135781
 21
7291277.053667
 31
0.0
210
0.0
220
0.0
230
1.0
 73
     3
  0
TEXT
  8
22
  6
CONTINUOUS
 62
     3
  5
2CC
 10
937318.935
 20
7292707.804
 30
0.0
 40
8.0
  1
2
 50
268.2164
  7
ROMANS
 72
     1
 11
937326.85851
 21
7292705.223133
 31
0.0
210
0.0
220
0.0
230
1.0
 73
     3
  0
TEXT
  8
22
  6
CONTINUOUS
 62
     3
  5
2CD
 10
937318.696
 20
7292700.123
 30
0.0
 40
8.0
  1
0
 50
268.2164
  7
ROMANS
 72
     1
 11
937326.609613
 21
7292697.224287
 31
0.0
210
0.0
220
0.0
230
1.0
 73
     3
  0
TEXT
  8
22
  6
CONTINUOUS
 62
     3
  5
2CE
 10
937318.406
 20
7292690.805
 30
0.0
 40
8.0
  1
'
 50
268.2164
  7
ROMANS
 72
     1
 11
937326.360635
 21
7292689.223649
 31
0.0
210
0.0
220
0.0
230
1.0
 73
     3
  0
TEXT
  8
22
  6
CONTINUOUS
 62
     3
  5
2CF
 10
937318.239
 20
7292685.453
 30
0.0
 40
8.0
  1
 
 50
268.2164
  7
ROMANS
 72
     1
 11
937326.152146
 21
7292682.539294
 31
0.0
210
0.0
220
0.0
230
1.0
 73
     3
  0
TEXT
  8
22
  6
CONTINUOUS
 62
     3
  5
2D0
 10
937317.99
 20
7292677.457
 30
0.0
 40
8.0
  1
 
 50
268.2164
  7
ROMANS
 72
     1
 11
937325.903146
 21
7292674.543294
 31
0.0
210
0.0
220
0.0
230
1.0
 73
     3
  0
TEXT
  8
22
  6
CONTINUOUS
 62
     3
  5
2D1
 10
937317.696
 20
7292668.013
 30
0.0
 40
8.0
  1
P
 50
268.2164
  7
ROMANS
 72
     1
 11
937325.61369
 21
7292665.245224
 31
0.0
210
0.0
220
0.0
230
1.0
 73
     3
  0
TEXT
  8
22
  6
CONTINUOUS
 62
     3
  5
2D2
 10
937317.425
 20
7292659.324
 30
0.0
 40
8.0
  1
I
 50
268.2164
  7
ROMANS
 72
     1
 11
937325.364073
 21
7292657.242891
 31
0.0
210
0.0
220
0.0
230
1.0
 73
     3
  0
TEXT
  8
22
  6
CONTINUOUS
 62
     3
  5
2D3
 10
937317.203
 20
7292652.177
 30
0.0
 40
8.0
  1
O
 50
268.2164
  7
ROMANS
 72
     1
 11
937325.115617
 21
7292649.246303
 31
0.0
210
0.0
220
0.0
230
1.0
 73
     3
  0
TEXT
  8
22
  6
CONTINUOUS
 62
     3
  5
2D4
 10
937316.949
 20
7292644.024
 30
0.0
 40
8.0
  1
N
 50
268.2164
  7
ROMANS
 72
     1
 11
937324.86669
 21
7292641.256224
 31
0.0
210
0.0
220
0.0
230
1.0
 73
     3
  0
TEXT
  8
22
  6
CONTINUOUS
 62
     3
  5
2D5
 10
937316.699
 20
7292635.996
 30
0.0
 40
8.0
  1
E
 50
268.2164
  7
ROMANS
 72
     1
 11
937324.617312
 21
7292633.248214
 31
0.0
210
0.0
220
0.0
230
1.0
 73
     3
  0
TEXT
  8
22
  6
CONTINUOUS
 62
     3
  5
2D6
 10
937316.45
 20
7292628.0
 30
0.0
 40
8.0
  1
E
 50
268.2164
  7
ROMANS
 72
     1
 11
937324.368312
 21
7292625.252214
 31
0.0
210
0.0
220
0.0
230
1.0
 73
     3
  0
TEXT
  8
22
  6
CONTINUOUS
 62
     3
  5
2D7
 10
937316.202
 20
7292620.036
 30
0.0
 40
8.0
  1
R
 50
268.2164
  7
ROMANS
 72
     1
 11
937324.11969
 21
7292617.268224
 31
0.0
210
0.0
220
0.0
230
1.0
 73
     3
  0
TEXT
  8
22
  6
CONTINUOUS
 62
     3
  5
2D8
 10
937315.998
 20
7292613.488
 30
0.0
 40
8.0
  1
 
 50
268.2164
  7
ROMANS
 72
     1
 11
937323.911146
 21
7292610.574294
 31
0.0
210
0.0
220
0.0
230
1.0
 73
     3
  0
TEXT
  8
22
  6
CONTINUOUS
 62
     3
  5
2D9
 10
937315.749
 20
7292605.492
 30
0.0
 40
8.0
  1
 
 50
268.2164
  7
ROMANS
 72
     1
 11
937323.662146
 21
7292602.578294
 31
0.0
210
0.0
220
0.0
230
1.0
 73
     3
  0
TEXT
  8
22
  6
CONTINUOUS
 62
     3
  5
2DA
 10
937315.455
 20
7292596.048
 30
0.0
 40
8.0
  1
N
 50
268.2164
  7
ROMANS
 72
     1
 11
937323.37269
 21
7292593.280224
 31
0.0
210
0.0
220
0.0
230
1.0
 73
     3
  0
TEXT
  8
22
  6
CONTINUOUS
 62
     3
  5
2DB
 10
937315.211
 20
7292588.208
 30
0.0
 40
8.0
  1
A
 50
268.2164
  7
ROMANS
 72
     1
 11
937323.124146
 21
7292585.294294
 31
0.0
210
0.0
220
0.0
230
1.0
 73
     3
  0
TEXT
  8
22
  6
CONTINUOUS
 62
     3
  5
2DC
 10
937314.962
 20
7292580.212
 30
0.0
 40
8.0
  1
T
 50
268.2164
  7
ROMANS
 72
     1
 11
937322.875146
 21
7292577.298294
 31
0.0
210
0.0
220
0.0
230
1.0
 73
     3
  0
TEXT
  8
22
  6
CONTINUOUS
 62
     3
  5
2DD
 10
937314.707
 20
7292572.027
 30
0.0
 40
8.0
  1
U
 50
268.2164
  7
ROMANS
 72
     1
 11
937322.625312
 21
7292569.279214
 31
0.0
210
0.0
220
0.0
230
1.0
 73
     3
  0
TEXT
  8
22
  6
CONTINUOUS
 62
     3
  5
2DE
 10
937314.459
 20
7292564.063
 30
0.0
 40
8.0
  1
R
 50
268.2164
  7
ROMANS
 72
     1
 11
937322.37669
 21
7292561.295224
 31
0.0
210
0.0
220
0.0
230
1.0
 73
     3
  0
TEXT
  8
22
  6
CONTINUOUS
 62
     3
  5
2DF
 10
937314.215
 20
7292556.224
 30
0.0
 40
8.0
  1
A
 50
268.2164
  7
ROMANS
 72
     1
 11
937322.128146
 21
7292553.310294
 31
0.0
210
0.0
220
0.0
230
1.0
 73
     3
  0
TEXT
  8
22
  6
CONTINUOUS
 62
     3
  5
2E0
 10
937313.955
 20
7292547.882
 30
0.0
 40
8.0
  1
L
 50
268.2164
  7
ROMANS
 72
     1
 11
937321.87851
 21
7292545.301133
 31
0.0
210
0.0
220
0.0
230
1.0
 73
     3
  0
TEXT
  8
22
  6
CONTINUOUS
 62
     3
  5
2E1
 10
937313.757
 20
7292541.523
 30
0.0
 40
8.0
  1
 
 50
268.2164
  7
ROMANS
 72
     1
 11
937321.670146
 21
7292538.609294
 31
0.0
210
0.0
220
0.0
230
1.0
 73
     3
  0
TEXT
  8
22
  6
CONTINUOUS
 62
     3
  5
2E2
 10
937313.508
 20
7292533.527
 30
0.0
 40
8.0
  1
 
 50
268.2164
  7
ROMANS
 72
     1
 11
937321.421146
 21
7292530.613294
 31
0.0
210
0.0
220
0.0
230
1.0
 73
     3
  0
TEXT
  8
22
  6
CONTINUOUS
 62
     3
  5
2E3
 10
937313.214
 20
7292524.082
 30
0.0
 40
8.0
  1
G
 50
268.2164
  7
ROMANS
 72
     1
 11
937321.131348
 21
7292521.303229
 31
0.0
210
0.0
220
0.0
230
1.0
 73
     3
  0
TEXT
  8
22
  6
CONTINUOUS
 62
     3
  5
2E4
 10
937312.97
 20
7292516.243
 30
0.0
 40
8.0
  1
A
 50
268.2164
  7
ROMANS
 72
     1
 11
937320.883146
 21
7292513.329294
 31
0.0
210
0.0
220
0.0
230
1.0
 73
     3
  0
TEXT
  8
22
  6
CONTINUOUS
 62
     3
  5
2E5
 10
937312.716
 20
7292508.09
 30
0.0
 40
8.0
  1
S
 50
268.2164
  7
ROMANS
 72
     1
 11
937320.633877
 21
7292505.328221
 31
0.0
210
0.0
220
0.0
230
1.0
 73
     3
  0
TEXT
  8
22
  6
CONTINUOUS
 62
     3
  5
2E6
 10
937312.512
 20
7292501.542
 30
0.0
 40
8.0
  1
 
 50
268.2164
  7
ROMANS
 72
     1
 11
937320.425146
 21
7292498.628294
 31
0.0
210
0.0
220
0.0
230
1.0
 73
     3
  0
TEXT
  8
22
  6
CONTINUOUS
 62
     3
  5
2E7
 10
937312.263
 20
7292493.546
 30
0.0
 40
8.0
  1
 
 50
268.2164
  7
ROMANS
 72
     1
 11
937320.176146
 21
7292490.632294
 31
0.0
210
0.0
220
0.0
230
1.0
 73
     3
  0
TEXT
  8
22
  6
CONTINUOUS
 62
     3
  5
2E8
 10
937311.968
 20
7292484.07
 30
0.0
 40
8.0
  1
E
 50
268.2164
  7
ROMANS
 72
     1
 11
937319.886312
 21
7292481.322214
 31
0.0
210
0.0
220
0.0
230
1.0
 73
     3
  0
TEXT
  8
22
  6
CONTINUOUS
 62
     3
  5
2E9
 10
937311.72
 20
7292476.106
 30
0.0
 40
8.0
  1
S
 50
268.2164
  7
ROMANS
 72
     1
 11
937319.637877
 21
7292473.344221
 31
0.0
210
0.0
220
0.0
230
1.0
 73
     3
  0
TEXT
  8
22
  6
CONTINUOUS
 62
     3
  5
2EA
 10
937311.482
 20
7292468.455
 30
0.0
 40
8.0
  1
M
 50
268.2164
  7
ROMANS
 72
     1
 11
937319.389045
 21
7292465.345389
 31
0.0
210
0.0
220
0.0
230
1.0
 73
     3
  0
TEXT
  8
22
  6
CONTINUOUS
 62
     3
  5
2EB
 10
937311.227
 20
7292460.27
 30
0.0
 40
8.0
  1
T
 50
268.2164
  7
ROMANS
 72
     1
 11
937319.140146
 21
7292457.356294
 31
0.0
210
0.0
220
0.0
230
1.0
 73
     3
  0
TEXT
  8
22
  6
CONTINUOUS
 62
     3
  5
2EC
 10
937310.936
 20
7292450.921
 30
0.0
 40
8.0
  1
.
 50
268.2164
  7
ROMANS
 72
     1
 11
937318.890977
 21
7292449.350643
 31
0.0
210
0.0
220
0.0
230
1.0
 73
     3
  0
TEXT
  8
22
  6
CONTINUOUS
 62
     3
  5
2ED
 10
937368.202
 20
7294289.93
 30
0.0
 40
8.0
  1
2
 50
268.2164
  7
ROMANS
 72
     1
 11
937376.12551
 21
7294287.349133
 31
0.0
210
0.0
220
0.0
230
1.0
 73
     3
  0
TEXT
  8
22
  6
CONTINUOUS
 62
     3
  5
2EE
 10
937367.963
 20
7294282.248
 30
0.0
 40
8.0
  1
0
 50
268.2164
  7
ROMANS
 72
     1
 11
937375.876613
 21
7294279.349287
 31
0.0
210
0.0
220
0.0
230
1.0
 73
     3
  0
TEXT
  8
22
  6
CONTINUOUS
 62
     3
  5
2EF
 10
937367.673
 20
7294272.93
 30
0.0
 40
8.0
  1
'
 50
268.2164
  7
ROMANS
 72
     1
 11
937375.627635
 21
7294271.348649
 31
0.0
210
0.0
220
0.0
230
1.0
 73
     3
  0
TEXT
  8
22
  6
CONTINUOUS
 62
     3
  5
2F0
 10
937367.506
 20
7294267.578
 30
0.0
 40
8.0
  1
 
 50
268.2164
  7
ROMANS
 72
     1
 11
937375.419146
 21
7294264.664294
 31
0.0
210
0.0
220
0.0
230
1.0
 73
     3
  0
TEXT
  8
22
  6
CONTINUOUS
 62
     3
  5
2F1
 10
937367.257
 20
7294259.582
 30
0.0
 40
8.0
  1
 
 50
268.2164
  7
ROMANS
 72
     1
 11
937375.170146
 21
7294256.668294
 31
0.0
210
0.0
220
0.0
230
1.0
 73
     3
  0
TEXT
  8
22
  6
CONTINUOUS
 62
     3
  5
2F2
 10
937366.963
 20
7294250.138
 30
0.0
 40
8.0
  1
P
 50
268.2164
  7
ROMANS
 72
     1
 11
937374.88069
 21
7294247.370224
 31
0.0
210
0.0
220
0.0
230
1.0
 73
     3
  0
TEXT
  8
22
  6
CONTINUOUS
 62
     3
  5
2F3
 10
937366.692
 20
7294241.449
 30
0.0
 40
8.0
  1
I
 50
268.2164
  7
ROMANS
 72
     1
 11
937374.631073
 21
7294239.367891
 31
0.0
210
0.0
220
0.0
230
1.0
 73
     3
  0
TEXT
  8
22
  6
CONTINUOUS
 62
     3
  5
2F4
 10
937366.47
 20
7294234.302
 30
0.0
 40
8.0
  1
O
 50
268.2164
  7
ROMANS
 72
     1
 11
937374.382617
 21
7294231.371303
 31
0.0
210
0.0
220
0.0
230
1.0
 73
     3
  0
TEXT
  8
22
  6
CONTINUOUS
 62
     3
  5
2F5
 10
937366.216
 20
7294226.149
 30
0.0
 40
8.0
  1
N
 50
268.2164
  7
ROMANS
 72
     1
 11
937374.13369
 21
7294223.381224
 31
0.0
210
0.0
220
0.0
230
1.0
 73
     3
  0
TEXT
  8
22
  6
CONTINUOUS
 62
     3
  5
2F6
 10
937365.966
 20
7294218.121
 30
0.0
 40
8.0
  1
E
 50
268.2164
  7
ROMANS
 72
     1
 11
937373.884312
 21
7294215.373214
 31
0.0
210
0.0
220
0.0
230
1.0
 73
     3
  0
TEXT
  8
22
  6
CONTINUOUS
 62
     3
  5
2F7
 10
937365.717
 20
7294210.125
 30
0.0
 40
8.0
  1
E
 50
268.2164
  7
ROMANS
 72
     1
 11
937373.635312
 21
7294207.377214
 31
0.0
210
0.0
220
0.0
230
1.0
 73
     3
  0
TEXT
  8
22
  6
CONTINUOUS
 62
     3
  5
2F8
 10
937365.469
 20
7294202.161
 30
0.0
 40
8.0
  1
R
 50
268.2164
  7
ROMANS
 72
     1
 11
937373.38669
 21
7294199.393224
 31
0.0
210
0.0
220
0.0
230
1.0
 73
     3
  0
TEXT
  8
22
  6
CONTINUOUS
 62
     3
  5
2F9
 10
937365.265
 20
7294195.613
 30
0.0
 40
8.0
  1
 
 50
268.2164
  7
ROMANS
 72
     1
 11
937373.178146
 21
7294192.699294
 31
0.0
210
0.0
220
0.0
230
1.0
 73
     3
  0
TEXT
  8
22
  6
CONTINUOUS
 62
     3
  5
2FA
 10
937365.016
 20
7294187.617
 30
0.0
 40
8.0
  1
 
 50
268.2164
  7
ROMANS
 72
     1
 11
937372.929146
 21
7294184.703294
 31
0.0
210
0.0
220
0.0
230
1.0
 73
     3
  0
TEXT
  8
22
  6
CONTINUOUS
 62
     3
  5
2FB
 10
937364.722
 20
7294178.173
 30
0.0
 40
8.0
  1
N
 50
268.2164
  7
ROMANS
 72
     1
 11
937372.63969
 21
7294175.405224
 31
0.0
210
0.0
220
0.0
230
1.0
 73
     3
  0
TEXT
  8
22
  6
CONTINUOUS
 62
     3
  5
2FC
 10
937364.478
 20
7294170.333
 30
0.0
 40
8.0
  1
A
 50
268.2164
  7
ROMANS
 72
     1
 11
937372.391146
 21
7294167.419294
 31
0.0
210
0.0
220
0.0
230
1.0
 73
     3
  0
TEXT
  8
22
  6
CONTINUOUS
 62
     3
  5
2FD
 10
937364.229
 20
7294162.337
 30
0.0
 40
8.0
  1
T
 50
268.2164
  7
ROMANS
 72
     1
 11
937372.142146
 21
7294159.423294
 31
0.0
210
0.0
220
0.0
230
1.0
 73
     3
  0
TEXT
  8
22
  6
CONTINUOUS
 62
     3
  5
2FE
 10
937363.974
 20
7294154.152
 30
0.0
 40
8.0
  1
U
 50
268.2164
  7
ROMANS
 72
     1
 11
937371.892312
 21
7294151.404214
 31
0.0
210
0.0
220
0.0
230
1.0
 73
     3
  0
TEXT
  8
22
  6
CONTINUOUS
 62
     3
  5
2FF
 10
937363.726
 20
7294146.188
 30
0.0
 40
8.0
  1
R
 50
268.2164
  7
ROMANS
 72
     1
 11
937371.64369
 21
7294143.420224
 31
0.0
210
0.0
220
0.0
230
1.0
 73
     3
  0
TEXT
  8
22
  6
CONTINUOUS
 62
     3
  5
300
 10
937363.482
 20
7294138.349
 30
0.0
 40
8.0
  1
A
 50
268.2164
  7
ROMANS
 72
     1
 11
937371.395146
 21
7294135.435294
 31
0.0
210
0.0
220
0.0
230
1.0
 73
     3
  0
TEXT
  8
22
  6
CONTINUOUS
 62
     3
  5
301
 10
937363.222
 20
7294130.007
 30
0.0
 40
8.0
  1
L
 50
268.2164
  7
ROMANS
 72
     1
 11
937371.14551
 21
7294127.426133
 31
0.0
210
0.0
220
0.0
230
1.0
 73
     3
  0
TEXT
  8
22
  6
CONTINUOUS
 62
     3
  5
302
 10
937363.024
 20
7294123.648
 30
0.0
 40
8.0
  1
 
 50
268.2164
  7
ROMANS
 72
     1
 11
937370.937146
 21
7294120.734294
 31
0.0
210
0.0
220
0.0
230
1.0
 73
     3
  0
TEXT
  8
22
  6
CONTINUOUS
 62
     3
  5
303
 10
937362.775
 20
7294115.652
 30
0.0
 40
8.0
  1
 
 50
268.2164
  7
ROMANS
 72
     1
 11
937370.688146
 21
7294112.738294
 31
0.0
210
0.0
220
0.0
230
1.0
 73
     3
  0
TEXT
  8
22
  6
CONTINUOUS
 62
     3
  5
304
 10
937362.481
 20
7294106.208
 30
0.0
 40
8.0
  1
G
 50
268.2164
  7
ROMANS
 72
     1
 11
937370.398348
 21
7294103.429229
 31
0.0
210
0.0
220
0.0
230
1.0
 73
     3
  0
TEXT
  8
22
  6
CONTINUOUS
 62
     3
  5
305
 10
937362.237
 20
7294098.368
 30
0.0
 40
8.0
  1
A
 50
268.2164
  7
ROMANS
 72
     1
 11
937370.150146
 21
7294095.454294
 31
0.0
210
0.0
220
0.0
230
1.0
 73
     3
  0
TEXT
  8
22
  6
CONTINUOUS
 62
     3
  5
306
 10
937361.983
 20
7294090.215
 30
0.0
 40
8.0
  1
S
 50
268.2164
  7
ROMANS
 72
     1
 11
937369.900877
 21
7294087.453221
 31
0.0
210
0.0
220
0.0
230
1.0
 73
     3
  0
TEXT
  8
22
  6
CONTINUOUS
 62
     3
  5
307
 10
937361.779
 20
7294083.667
 30
0.0
 40
8.0
  1
 
 50
268.2164
  7
ROMANS
 72
     1
 11
937369.692146
 21
7294080.753294
 31
0.0
210
0.0
220
0.0
230
1.0
 73
     3
  0
TEXT
  8
22
  6
CONTINUOUS
 62
     3
  5
308
 10
937361.53
 20
7294075.671
 30
0.0
 40
8.0
  1
 
 50
268.2164
  7
ROMANS
 72
     1
 11
937369.443146
 21
7294072.757294
 31
0.0
210
0.0
220
0.0
230
1.0
 73
     3
  0
TEXT
  8
22
  6
CONTINUOUS
 62
     3
  5
309
 10
937361.235
 20
7294066.195
 30
0.0
 40
8.0
  1
E
 50
268.2164
  7
ROMANS
 72
     1
 11
937369.153312
 21
7294063.447214
 31
0.0
210
0.0
220
0.0
230
1.0
 73
     3
  0
TEXT
  8
22
  6
CONTINUOUS
 62
     3
  5
30A
 10
937360.987
 20
7294058.231
 30
0.0
 40
8.0
  1
S
 50
268.2164
  7
ROMANS
 72
     1
 11
937368.904877
 21
7294055.469221
 31
0.0
210
0.0
220
0.0
230
1.0
 73
     3
  0
TEXT
  8
22
  6
CONTINUOUS
 62
     3
  5
30B
 10
937360.749
 20
7294050.581
 30
0.0
 40
8.0
  1
M
 50
268.2164
  7
ROMANS
 72
     1
 11
937368.656045
 21
7294047.471389
 31
0.0
210
0.0
220
0.0
230
1.0
 73
     3
  0
TEXT
  8
22
  6
CONTINUOUS
 62
     3
  5
30C
 10
937360.494
 20
7294042.396
 30
0.0
 40
8.0
  1
T
 50
268.2164
  7
ROMANS
 72
     1
 11
937368.407146
 21
7294039.482294
 31
0.0
210
0.0
220
0.0
230
1.0
 73
     3
  0
TEXT
  8
22
  6
CONTINUOUS
 62
     3
  5
30D
 10
937360.203
 20
7294033.046
 30
0.0
 40
8.0
  1
.
 50
268.2164
  7
ROMANS
 72
     1
 11
937368.157977
 21
7294031.475643
 31
0.0
210
0.0
220
0.0
230
1.0
 73
     3
  0
POLYLINE
  8
1
  6
HIDDEN
 62
   253
  5
30F
 66
     1
 10
0.0
 20
0.0
 30
0.0
 70
     1
  0
VERTEX
  8
1
  6
HIDDEN
 62
   253
  5
310
 10
932109.885
 20
7289652.235
 30
0.0
  0
VERTEX
  8
1
  6
HIDDEN
 62
   253
  5
311
 10
937365.87
 20
7289494.315
 30
0.0
  0
VERTEX
  8
1
  6
HIDDEN
 62
   253
  5
312
 10
937528.847
 20
7294765.819
 30
0.0
  0
VERTEX
  8
1
  6
HIDDEN
 62
   253
  5
313
 10
932274.582
 20
7294911.837
 30
0.0
  0
SEQEND
  8
1
  6
HIDDEN
 62
   253
  5
314
  0
LINE
  8
7
  6
CONTINUOUS
 62
     7
  5
315
 10
932242.75
 20
7292292.944
 30
0.0
 11
933341.631
 21
7292258.725
 31
0.0
  0
LINE
  8
7
  6
CONTINUOUS
 62
     7
  5
316
 10
933341.631
 20
7292258.725
 30
0.0
 11
933349.412
 21
7292508.604
 31
0.0
  0
LINE
  8
7
  6
CONTINUOUS
 62
     7
  5
317
 10
933349.412
 20
7292508.604
 30
0.0
 11
935192.518
 21
7292451.21
 31
0.0
  0
LINE
  8
7
  6
CONTINUOUS
 62
     7
  5
318
 10
935192.518
 20
7292451.21
 30
0.0
 11
935168.165
 21
7291669.149
 31
0.0
  0
LINE
  8
7
  6
CONTINUOUS
 62
     7
  5
319
 10
935168.165
 20
7291669.149
 30
0.0
 11
932226.115
 21
7291760.764
 31
0.0
  0
LINE
  8
7
  6
CONTINUOUS
 62
     7
  5
31A
 10
934393.471
 20
7291728.29
 30
0.0
 11
934392.381
 21
7291693.307
 31
0.0
  0
LINE
  8
7
  6
CONTINUOUS
 62
     7
  5
31B
 10
934000.971
 20
7291740.512
 30
0.0
 11
933999.881
 21
7291705.529
 31
0.0
  0
LINE
  8
7
  6
CONTINUOUS
 62
     7
  5
31C
 10
935169.255
 20
7291704.132
 30
0.0
 11
934393.471
 21
7291728.29
 31
0.0
  0
LINE
  8
7
  6
CONTINUOUS
 62
     7
  5
31D
 10
934000.971
 20
7291740.512
 30
0.0
 11
932242.073
 21
7291795.284
 31
0.0
  0
LINE
  8
7
  6
CONTINUOUS
 62
     7
  5
31E
 10
932241.63
 20
7292262.964
 30
0.0
 11
932227.548
 21
7291810.744
 31
0.0
  0
ARC
  8
7
  6
CONTINUOUS
 62
     7
  5
31F
 10
932242.540264
 20
7291810.276654
 30
0.0
 40
15.0
 50
178.2164
 51
268.2164
210
0.0
220
0.0
230
1.0
  0
LINE
  8
7
  6
CONTINUOUS
 62
     7
  5
320
 10
932241.63
 20
7292262.964
 30
0.0
 11
932256.622
 21
7292262.497
 31
0.0
  0
LINE
  8
7
  6
CONTINUOUS
 62
     7
  5
321
 10
932257.556
 20
7292292.483
 30
0.0
 11
932256.622
 21
7292262.497
 31
0.0
  0
TEXT
  8
11
  6
CONTINUOUS
 62
     7
  5
322
 10
932769.253
 20
7292286.093
 30
0.0
 40
8.0
  1
1154.60'
 50
358.2164
  7
ROMANS
 72
     4
 11
932798.696287
 21
7292289.178082
 31
0.0
210
0.0
220
0.0
230
1.0
  0
TEXT
  8
11
  6
CONTINUOUS
 62
     7
  5
323
 10
932768.398
 20
7292258.631
 30
0.0
 40
8.0
  1
1084.60'
 50
358.2164
  7
ROMANS
 72
     4
 11
932797.841287
 21
7292261.716082
 31
0.0
210
0.0
220
0.0
230
1.0
  0
TEXT
  8
11
  6
CONTINUOUS
 62
     7
  5
324
 10
932212.175
 20
7292278.15
 30
0.0
 40
8.0
  1
70'
 50
358.2164
  7
ROMANS
 72
     4
 11
932221.627977
 21
7292281.857576
 31
0.0
210
0.0
220
0.0
230
1.0
  0
TEXT
  8
11
  6
CONTINUOUS
 62
     7
  5
325
 10
932207.718
 20
7292240.903
 30
0.0
 40
8.0
  1
55'
 50
358.2164
  7
ROMANS
 72
     4
 11
932217.170977
 21
7292244.610576
 31
0.0
210
0.0
220
0.0
230
1.0
  0
TEXT
  8
11
  6
CONTINUOUS
 62
     7
  5
326
 10
932245.319
 20
7292248.528
 30
0.0
 40
8.0
  1
15'
 50
358.2164
  7
ROMANS
 72
     4
 11
932254.771977
 21
7292252.235576
 31
0.0
210
0.0
220
0.0
230
1.0
  0
TEXT
  8
11
  6
CONTINUOUS
 62
     7
  5
327
 10
932274.565
 20
7292267.645
 30
0.0
 40
8.0
  1
30'
 50
88.2164
  7
ROMANS
 72
     4
 11
932270.857424
 21
7292277.097977
 31
0.0
210
0.0
220
0.0
230
1.0
  0
TEXT
  8
11
  6
CONTINUOUS
 62
     7
  5
328
 10
932267.749
 20
7291766.452
 30
0.0
 40
8.0
  1
35'
 50
88.2164
  7
ROMANS
 72
     4
 11
932264.041424
 21
7291775.904977
 31
0.0
210
0.0
220
0.0
230
1.0
  0
TEXT
  8
11
  6
CONTINUOUS
 62
     7
  5
329
 10
934015.604
 20
7291714.205
 30
0.0
 40
8.0
  1
35'
 50
88.2164
  7
ROMANS
 72
     4
 11
934011.896424
 21
7291723.657977
 31
0.0
210
0.0
220
0.0
230
1.0
  0
TEXT
  8
11
  6
CONTINUOUS
 62
     7
  5
32A
 10
934385.579
 20
7291702.684
 30
0.0
 40
8.0
  1
35'
 50
88.2164
  7
ROMANS
 72
     4
 11
934381.871424
 21
7291712.136977
 31
0.0
210
0.0
220
0.0
230
1.0
  0
TEXT
  8
11
  6
CONTINUOUS
 62
     7
  5
32B
 10
935155.452
 20
7291678.732
 30
0.0
 40
8.0
  1
35'
 50
88.2164
  7
ROMANS
 72
     4
 11
935151.744424
 21
7291688.184977
 31
0.0
210
0.0
220
0.0
230
1.0
  0
TEXT
  8
11
  6
CONTINUOUS
 62
     7
  5
32C
 10
935193.9
 20
7292030.982
 30
0.0
 40
8.0
  1
782.44'
 50
88.2164
  7
ROMANS
 72
     4
 11
935190.690419
 21
7292056.427225
 31
0.0
210
0.0
220
0.0
230
1.0
  0
TEXT
  8
11
  6
CONTINUOUS
 62
     7
  5
32D
 10
935169.781
 20
7292032.832
 30
0.0
 40
8.0
  1
747.44'
 50
88.2164
  7
ROMANS
 72
     4
 11
935166.571419
 21
7292058.277225
 31
0.0
210
0.0
220
0.0
230
1.0
  0
TEXT
  8
11
  6
CONTINUOUS
 62
     7
  5
32E
 10
934189.637
 20
7292490.183
 30
0.0
 40
8.0
  1
1844'
 50
358.2164
  7
ROMANS
 72
     4
 11
934207.086101
 21
7292493.641578
 31
0.0
210
0.0
220
0.0
230
1.0
  0
TEXT
  8
11
  6
CONTINUOUS
 62
     7
  5
32F
 10
933362.155
 20
7292409.649
 30
0.0
 40
8.0
  1
250'
 50
88.2164
  7
ROMANS
 72
     4
 11
933358.571923
 21
7292423.100039
 31
0.0
210
0.0
220
0.0
230
1.0
  0
TEXT
  8
11
  6
CONTINUOUS
 62
     7
  5
330
 10
932250.086
 20
7292005.119
 30
0.0
 40
8.0
  1
458.17'
 50
88.2164
  7
ROMANS
 72
     4
 11
932246.876419
 21
7292030.564225
 31
0.0
210
0.0
220
0.0
230
1.0
  0
TEXT
  8
11
  6
CONTINUOUS
 62
     7
  5
331
 10
934170.348
 20
7291706.129
 30
0.0
 40
8.0
  1
392.69'
 50
358.2164
  7
ROMANS
 72
     4
 11
934195.793225
 21
7291709.338581
 31
0.0
210
0.0
220
0.0
230
1.0
  0
TEXT
  8
11
  6
CONTINUOUS
 62
     7
  5
332
 10
934717.216
 20
7291724.652
 30
0.0
 40
8.0
  1
776.16'
 50
358.2164
  7
ROMANS
 72
     4
 11
934742.661225
 21
7291727.861581
 31
0.0
210
0.0
220
0.0
230
1.0
  0
LINE
  8
21
  6
DASHDOT
 62
     7
  5
333
 10
933327.637
 20
7292259.161
 30
0.0
 11
933315.018
 21
7291853.917
 31
0.0
  0
LINE
  8
21
  6
DASHDOT
 62
     7
  5
334
 10
933315.018
 20
7291853.917
 30
0.0
 11
934267.027
 21
7291824.272
 31
0.0
  0
LINE
  8
21
  6
DASHDOT
 62
     7
  5
335
 10
934267.027
 20
7291824.272
 30
0.0
 11
934264.162
 21
7291732.317
 31
0.0
  0
LINE
  8
21
  6
DASHDOT
 62
     7
  5
336
 10
934000.971
 20
7291740.512
 30
0.0
 11
934393.471
 21
7291728.29
 31
0.0
  0
LINE
  8
21
  6
DASHDOT
 62
     7
  5
337
 10
933381.085
 20
7292369.111
 30
0.0
 11
933366.55
 21
7291902.337
 31
0.0
  0
LINE
  8
21
  6
DASHDOT
 62
     7
  5
338
 10
933366.55
 20
7291902.337
 30
0.0
 11
934306.325
 21
7291873.072
 31
0.0
  0
LINE
  8
21
  6
DASHDOT
 62
     7
  5
339
 10
934324.134
 20
7291730.449
 30
0.0
 11
934355.005
 21
7291832.878
 31
0.0
  0
LINE
  8
21
  6
DASHDOT
 62
     7
  5
33A
 10
934355.005
 20
7291832.878
 30
0.0
 11
934371.055
 21
7292348.298
 31
0.0
  0
LINE
  8
21
  6
DASHDOT
 62
     7
  5
33B
 10
934319.615
 20
7292299.866
 30
0.0
 11
934306.325
 21
7291873.072
 31
0.0
  0
LINE
  8
21
  6
DASHDOT
 62
     7
  5
33C
 10
934295.866
 20
7292300.605
 30
0.0
 11
934319.615
 21
7292299.866
 31
0.0
  0
LINE
  8
21
  6
DASHDOT
 62
     7
  5
33D
 10
934297.111
 20
7292340.586
 30
0.0
 11
934295.866
 21
7292300.605
 31
0.0
  0
LINE
  8
21
  6
DASHDOT
 62
     7
  5
33E
 10
934297.111
 20
7292340.586
 30
0.0
 11
934328.514
 21
7292444.777
 31
0.0
  0
LINE
  8
21
  6
DASHDOT
 62
     7
  5
33F
 10
934328.514
 20
7292444.777
 30
0.0
 11
934329.551
 21
7292478.083
 31
0.0
  0
LINE
  8
21
  6
DASHDOT
 62
     7
  5
340
 10
934380.228
 20
7292443.166
 30
0.0
 11
934381.266
 21
7292476.472
 31
0.0
  0
LINE
  8
21
  6
DASHDOT
 62
     7
  5
341
 10
934371.055
 20
7292348.298
 30
0.0
 11
934351.755
 21
7292348.899
 31
0.0
  0
LINE
  8
21
  6
DASHDOT
 62
     7
  5
342
 10
934351.755
 20
7292348.899
 30
0.0
 11
934380.228
 21
7292443.166
 31
0.0
  0
LINE
  8
21
  6
DASHDOT
 62
     7
  5
343
 10
934350.028
 20
7291833.688
 30
0.0
 11
934357.165
 21
7292062.884
 31
0.0
  0
LINE
  8
21
  6
DASHDOT
 62
     7
  5
344
 10
934318.962
 20
7291730.61
 30
0.0
 11
934350.028
 21
7291833.688
 31
0.0
  0
LINE
  8
21
  6
DASHDOT
 62
     7
  5
345
 10
934357.165
 20
7292062.884
 30
0.0
 11
934362.164
 21
7292062.779
 31
0.0
  0
LINE
  8
21
  6
DASHDOT
 62
     7
  5
346
 10
934355.549
 20
7291858.832
 30
0.0
 11
934804.963
 21
7292081.745
 31
0.0
  0
LINE
  8
21
  6
DASHDOT
 62
     7
  5
347
 10
934804.963
 20
7292081.745
 30
0.0
 11
934845.783
 21
7292080.473
 31
0.0
  0
LINE
  8
21
  6
DASHDOT
 62
     7
  5
348
 10
934845.783
 20
7292080.473
 30
0.0
 11
934845.939
 21
7292085.471
 31
0.0
  0
LINE
  8
21
  6
DASHDOT
 62
     7
  5
349
 10
934845.939
 20
7292085.471
 30
0.0
 11
934793.694
 21
7292087.098
 31
0.0
  0
LINE
  8
21
  6
DASHDOT
 62
     7
  5
34A
 10
934793.694
 20
7292087.098
 30
0.0
 11
934800.168
 21
7292294.997
 31
0.0
  0
LINE
  8
21
  6
DASHDOT
 62
     7
  5
34B
 10
934800.168
 20
7292294.997
 30
0.0
 11
934795.171
 21
7292295.153
 31
0.0
  0
LINE
  8
21
  6
DASHDOT
 62
     7
  5
34C
 10
934795.171
 20
7292295.153
 30
0.0
 11
934788.541
 21
7292082.256
 31
0.0
  0
LINE
  8
21
  6
DASHDOT
 62
     7
  5
34D
 10
934788.541
 20
7292082.256
 30
0.0
 11
934794.368
 21
7292082.075
 31
0.0
  0
LINE
  8
21
  6
DASHDOT
 62
     7
  5
34E
 10
933768.659
 20
7291573.313
 30
0.0
 11
935398.684
 21
7292381.816
 31
0.0
  0
LINE
  8
21
  6
DASHDOT
 62
     7
  5
34F
 10
933761.027
 20
7291591.851
 30
0.0
 11
935401.662
 21
7292405.617
 31
0.0
  0
LINE
  8
21
  6
DASHDOT
 62
     7
  5
350
 10
933345.103
 20
7292370.231
 30
0.0
 11
933381.085
 21
7292369.111
 31
0.0
  0
LINE
  8
21
  6
DASHDOT
 62
     7
  5
351
 10
932658.728
 20
7291782.83
 30
0.0
 11
932661.759
 21
7291884.264
 31
0.0
  0
LINE
  8
21
  6
DASHDOT
 62
     7
  5
352
 10
932663.725
 20
7291782.681
 30
0.0
 11
932666.757
 21
7291884.116
 31
0.0
  0
LINE
  8
21
  6
DASHDOT
 62
     7
  5
353
 10
932661.759
 20
7291884.264
 30
0.0
 11
932666.757
 21
7291884.116
 31
0.0
  0
LINE
  8
21
  6
DASHDOT
 62
     7
  5
354
 10
933629.276
 20
7292499.889
 30
0.0
 11
933610.026
 21
7291881.719
 31
0.0
  0
LINE
  8
21
  6
DASHDOT
 62
     7
  5
355
 10
933610.026
 20
7291881.719
 30
0.0
 11
933612.325
 21
7291881.647
 31
0.0
  0
LINE
  8
21
  6
DASHDOT
 62
     7
  5
356
 10
933612.325
 20
7291881.647
 30
0.0
 11
933607.222
 21
7291717.757
 31
0.0
  0
TEXT
  8
11
  6
CONTINUOUS
 62
     7
  5
357
 10
933465.818
 20
7292488.348
 30
0.0
 40
8.0
  1
280.20'
 50
358.2164
  7
ROMANS
 72
     4
 11
933491.263225
 21
7292491.557581
 31
0.0
210
0.0
220
0.0
230
1.0
  0
TEXT
  8
11
  6
CONTINUOUS
 62
     7
  5
358
 10
933356.741
 20
7292375.053
 30
0.0
 40
8.0
  1
36'
 50
358.2164
  7
ROMANS
 72
     4
 11
933366.193977
 21
7292378.760576
 31
0.0
210
0.0
220
0.0
230
1.0
  0
TEXT
  8
11
  6
CONTINUOUS
 62
     7
  5
359
 10
933333.444
 20
7292244.65
 30
0.0
 40
8.0
  1
14'
 50
358.2164
  7
ROMANS
 72
     4
 11
933342.896977
 21
7292248.357576
 31
0.0
210
0.0
220
0.0
230
1.0
  0
TEXT
  8
11
  6
CONTINUOUS
 62
     7
  5
35A
 10
933964.138
 20
7292474.072
 30
0.0
 40
8.0
  1
701.36'
 50
358.2164
  7
ROMANS
 72
     4
 11
933989.583225
 21
7292477.281581
 31
0.0
210
0.0
220
0.0
230
1.0
  0
TEXT
  8
11
  6
CONTINUOUS
 62
     7
  5
35B
 10
933793.444
 20
7291895.926
 30
0.0
 40
8.0
  1
940.23'
 50
358.2164
  7
ROMANS
 72
     4
 11
933818.889225
 21
7291899.135581
 31
0.0
210
0.0
220
0.0
230
1.0
  0
TEXT
  8
11
  6
CONTINUOUS
 62
     7
  5
35C
 10
933793.563
 20
7291822.539
 30
0.0
 40
8.0
  1
952.47'
 50
358.2164
  7
ROMANS
 72
     4
 11
933819.008225
 21
7291825.748581
 31
0.0
210
0.0
220
0.0
230
1.0
  0
TEXT
  8
11
  6
CONTINUOUS
 62
     7
  5
35D
 10
934265.174
 20
7292284.246
 30
0.0
 40
8.0
  1
23.76'
 50
358.2164
  7
ROMANS
 72
     4
 11
934286.621163
 21
7292287.58008
 31
0.0
210
0.0
220
0.0
230
1.0
  0
TEXT
  8
11
  6
CONTINUOUS
 62
     7
  5
35E
 10
934363.584
 20
7292355.768
 30
0.0
 40
8.0
  1
19.31'
 50
358.2164
  7
ROMANS
 72
     4
 11
934385.031163
 21
7292359.10208
 31
0.0
210
0.0
220
0.0
230
1.0
  0
TEXT
  8
11
  6
CONTINUOUS
 62
     7
  5
35F
 10
934284.067
 20
7291736.287
 30
0.0
 40
8.0
  1
60'
 50
358.2164
  7
ROMANS
 72
     4
 11
934293.519977
 21
7291739.994576
 31
0.0
210
0.0
220
0.0
230
1.0
  0
TEXT
  8
11
  6
CONTINUOUS
 62
     7
  5
360
 10
933574.905
 20
7291869.224
 30
0.0
 40
8.0
  1
2.30'
 50
358.2164
  7
ROMANS
 72
     4
 11
933592.354101
 21
7291872.682578
 31
0.0
210
0.0
220
0.0
230
1.0
  0
TEXT
  8
11
  6
CONTINUOUS
 62
     7
  5
361
 10
932422.996
 20
7291794.396
 30
0.0
 40
8.0
  1
416.84'
 50
358.2164
  7
ROMANS
 72
     4
 11
932448.441225
 21
7291797.605581
 31
0.0
210
0.0
220
0.0
230
1.0
  0
TEXT
  8
11
  6
CONTINUOUS
 62
     7
  5
362
 10
933315.239
 20
7292049.866
 30
0.0
 40
8.0
  1
409.04'
 50
88.2164
  7
ROMANS
 72
     4
 11
933312.029419
 21
7292075.311225
 31
0.0
210
0.0
220
0.0
230
1.0
  0
TEXT
  8
11
  6
CONTINUOUS
 62
     7
  5
363
 10
933386.476
 20
7292098.175
 30
0.0
 40
8.0
  1
467.00'
 50
88.2164
  7
ROMANS
 72
     4
 11
933383.266419
 21
7292123.620225
 31
0.0
210
0.0
220
0.0
230
1.0
  0
TEXT
  8
11
  6
CONTINUOUS
 62
     7
  5
364
 10
933610.817
 20
7292159.761
 30
0.0
 40
8.0
  1
618.47'
 50
88.2164
  7
ROMANS
 72
     4
 11
933607.607419
 21
7292185.206225
 31
0.0
210
0.0
220
0.0
230
1.0
  0
TEXT
  8
11
  6
CONTINUOUS
 62
     7
  5
365
 10
933603.039
 20
7291794.169
 30
0.0
 40
8.0
  1
167'
 50
88.2164
  7
ROMANS
 72
     4
 11
933599.455923
 21
7291807.620039
 31
0.0
210
0.0
220
0.0
230
1.0
  0
TEXT
  8
11
  6
CONTINUOUS
 62
     7
  5
366
 10
934260.026
 20
7291772.868
 30
0.0
 40
8.0
  1
92'
 50
88.2164
  7
ROMANS
 72
     4
 11
934256.318424
 21
7291782.320977
 31
0.0
210
0.0
220
0.0
230
1.0
  0
TEXT
  8
11
  6
CONTINUOUS
 62
     7
  5
367
 10
934308.107
 20
7292081.387
 30
0.0
 40
8.0
  1
427'
 50
88.2164
  7
ROMANS
 72
     4
 11
934304.523923
 21
7292094.838039
 31
0.0
210
0.0
220
0.0
230
1.0
  0
TEXT
  8
11
  6
CONTINUOUS
 62
     7
  5
368
 10
934381.903
 20
7292096.05
 30
0.0
 40
8.0
  1
515.67'
 50
88.2164
  7
ROMANS
 72
     4
 11
934378.693419
 21
7292121.495225
 31
0.0
210
0.0
220
0.0
230
1.0
  0
TEXT
  8
11
  6
CONTINUOUS
 62
     7
  5
369
 10
934319.72
 20
7292454.321
 30
0.0
 40
8.0
  1
35'
 50
88.2164
  7
ROMANS
 72
     4
 11
934316.012424
 21
7292463.773977
 31
0.0
210
0.0
220
0.0
230
1.0
  0
TEXT
  8
11
  6
CONTINUOUS
 62
     7
  5
36A
 10
934397.756
 20
7292450.688
 30
0.0
 40
8.0
  1
35'
 50
88.2164
  7
ROMANS
 72
     4
 11
934394.048424
 21
7292460.140977
 31
0.0
210
0.0
220
0.0
230
1.0
  0
TEXT
  8
11
  6
CONTINUOUS
 62
     7
  5
36B
 10
934812.865
 20
7292185.591
 30
0.0
 40
8.0
  1
208'
 50
88.2164
  7
ROMANS
 72
     4
 11
934809.281923
 21
7292199.042039
 31
0.0
210
0.0
220
0.0
230
1.0
  0
TEXT
  8
11
  6
CONTINUOUS
 62
     7
  5
36C
 10
934787.275
 20
7292187.198
 30
0.0
 40
8.0
  1
213'
 50
88.2164
  7
ROMANS
 72
     4
 11
934783.691923
 21
7292200.649039
 31
0.0
210
0.0
220
0.0
230
1.0
  0
TEXT
  8
11
  6
CONTINUOUS
 62
     7
  5
36D
 10
934304.081
 20
7292374.107
 30
0.0
 40
8.0
  1
1
 50
73.227733
  7
ROMANS
 72
     1
 11
934304.46595
 21
7292375.384251
 31
0.0
210
0.0
220
0.0
230
1.0
  0
TEXT
  8
11
  6
CONTINUOUS
 62
     7
  5
36E
 10
934306.372
 20
7292381.706
 30
0.0
 40
8.0
  1
0
 50
73.227733
  7
ROMANS
 72
     1
 11
934307.136995
 21
7292384.244225
 31
0.0
210
0.0
220
0.0
230
1.0
  0
TEXT
  8
11
  6
CONTINUOUS
 62
     7
  5
36F
 10
934308.661
 20
7292389.306
 30
0.0
 40
8.0
  1
8
 50
73.227733
  7
ROMANS
 72
     1
 11
934309.33423
 21
7292391.539753
 31
0.0
210
0.0
220
0.0
230
1.0
  0
TEXT
  8
11
  6
CONTINUOUS
 62
     7
  5
370
 10
934310.952
 20
7292396.906
 30
0.0
 40
8.0
  1
.
 50
73.227733
  7
ROMANS
 72
     1
 11
934311.333487
 21
7292398.171761
 31
0.0
210
0.0
220
0.0
230
1.0
  0
TEXT
  8
11
  6
CONTINUOUS
 62
     7
  5
371
 10
934313.243
 20
7292404.505
 30
0.0
 40
8.0
  1
8
 50
73.227733
  7
ROMANS
 72
     1
 11
934313.91623
 21
7292406.738753
 31
0.0
210
0.0
220
0.0
230
1.0
  0
TEXT
  8
11
  6
CONTINUOUS
 62
     7
  5
372
 10
934315.533
 20
7292412.104
 30
0.0
 40
8.0
  1
2
 50
73.227733
  7
ROMANS
 72
     1
 11
934316.20623
 21
7292414.337753
 31
0.0
210
0.0
220
0.0
230
1.0
  0
TEXT
  8
11
  6
CONTINUOUS
 62
     7
  5
373
 10
934317.824
 20
7292419.703
 30
0.0
 40
8.0
  1
'
 50
73.227733
  7
ROMANS
 72
     1
 11
934318.20895
 21
7292420.980251
 31
0.0
210
0.0
220
0.0
230
1.0
  0
TEXT
  8
11
  6
CONTINUOUS
 62
     7
  5
374
 10
934371.575
 20
7292376.475
 30
0.0
 40
8.0
  1
9
 50
73.192858
  7
ROMANS
 72
     1
 11
934364.591322
 21
7292381.021551
 31
0.0
210
0.0
220
0.0
230
1.0
 73
     3
  0
TEXT
  8
11
  6
CONTINUOUS
 62
     7
  5
375
 10
934373.87
 20
7292384.074
 30
0.0
 40
8.0
  1
8
 50
73.192858
  7
ROMANS
 72
     1
 11
934366.886322
 21
7292388.620551
 31
0.0
210
0.0
220
0.0
230
1.0
 73
     3
  0
TEXT
  8
11
  6
CONTINUOUS
 62
     7
  5
376
 10
934376.165
 20
7292391.671
 30
0.0
 40
8.0
  1
.
 50
73.192858
  7
ROMANS
 72
     1
 11
934368.88899
 21
7292395.249738
 31
0.0
210
0.0
220
0.0
230
1.0
 73
     3
  0
TEXT
  8
11
  6
CONTINUOUS
 62
     7
  5
377
 10
934378.459
 20
7292399.269
 30
0.0
 40
8.0
  1
3
 50
73.192858
  7
ROMANS
 72
     1
 11
934371.475322
 21
7292403.815551
 31
0.0
210
0.0
220
0.0
230
1.0
 73
     3
  0
TEXT
  8
11
  6
CONTINUOUS
 62
     7
  5
378
 10
934380.755
 20
7292406.866
 30
0.0
 40
8.0
  1
6
 50
73.192858
  7
ROMANS
 72
     1
 11
934373.825393
 21
7292411.591563
 31
0.0
210
0.0
220
0.0
230
1.0
 73
     3
  0
TEXT
  8
11
  6
CONTINUOUS
 62
     7
  5
379
 10
934383.05
 20
7292414.465
 30
0.0
 40
8.0
  1
'
 50
73.192858
  7
ROMANS
 72
     1
 11
934375.777171
 21
7292418.054268
 31
0.0
210
0.0
220
0.0
230
1.0
 73
     3
  0
TEXT
  8
11
  6
CONTINUOUS
 62
     7
  5
37A
 10
934342.901
 20
7291754.595
 30
0.0
 40
8.0
  1
1
 50
73.227714
  7
ROMANS
 72
     1
 11
934335.625989
 21
7291758.179843
 31
0.0
210
0.0
220
0.0
230
1.0
 73
     3
  0
TEXT
  8
11
  6
CONTINUOUS
 62
     7
  5
37B
 10
934345.19
 20
7291762.194
 30
0.0
 40
8.0
  1
0
 50
73.227714
  7
ROMANS
 72
     1
 11
934338.295322
 21
7291767.040774
 31
0.0
210
0.0
220
0.0
230
1.0
 73
     3
  0
TEXT
  8
11
  6
CONTINUOUS
 62
     7
  5
37C
 10
934347.481
 20
7291769.793
 30
0.0
 40
8.0
  1
6
 50
73.227714
  7
ROMANS
 72
     1
 11
934340.54852
 21
7291774.514347
 31
0.0
210
0.0
220
0.0
230
1.0
 73
     3
  0
TEXT
  8
11
  6
CONTINUOUS
 62
     7
  5
37D
 10
934349.772
 20
7291777.393
 30
0.0
 40
8.0
  1
.
 50
73.227714
  7
ROMANS
 72
     1
 11
934342.493814
 21
7291780.967311
 31
0.0
210
0.0
220
0.0
230
1.0
 73
     3
  0
TEXT
  8
11
  6
CONTINUOUS
 62
     7
  5
37E
 10
934352.061
 20
7291784.991
 30
0.0
 40
8.0
  1
9
 50
73.227714
  7
ROMANS
 72
     1
 11
934345.074557
 21
7291789.533302
 31
0.0
210
0.0
220
0.0
230
1.0
 73
     3
  0
TEXT
  8
11
  6
CONTINUOUS
 62
     7
  5
37F
 10
934354.352
 20
7291792.591
 30
0.0
 40
8.0
  1
8
 50
73.227714
  7
ROMANS
 72
     1
 11
934347.365557
 21
7291797.133302
 31
0.0
210
0.0
220
0.0
230
1.0
 73
     3
  0
TEXT
  8
11
  6
CONTINUOUS
 62
     7
  5
380
 10
934356.643
 20
7291800.191
 30
0.0
 40
8.0
  1
'
 50
73.227714
  7
ROMANS
 72
     1
 11
934349.367989
 21
7291803.775843
 31
0.0
210
0.0
220
0.0
230
1.0
 73
     3
  0
TEXT
  8
11
  6
CONTINUOUS
 62
     7
  5
381
 10
932657.215
 20
7291826.085
 30
0.0
 40
8.0
  1
102'
 50
88.2164
  7
ROMANS
 72
     4
 11
932653.631923
 21
7291839.536039
 31
0.0
210
0.0
220
0.0
230
1.0
  0
TEXT
  8
11
  6
CONTINUOUS
 62
     7
  5
382
 10
934336.277
 20
7292461.556
 30
0.0
 40
8.0
  1
51.47'
 50
358.2164
  7
ROMANS
 72
     4
 11
934357.724163
 21
7292464.89008
 31
0.0
210
0.0
220
0.0
230
1.0
  0
TEXT
  8
11
  6
CONTINUOUS
 62
     7
  5
383
 10
934803.282
 20
7292092.124
 30
0.0
 40
8.0
  1
52.27'
 50
358.2164
  7
ROMANS
 72
     4
 11
934824.729163
 21
7292095.45808
 31
0.0
210
0.0
220
0.0
230
1.0
  0
TEXT
  8
11
  6
CONTINUOUS
 62
     7
  5
384
 10
934802.496
 20
7292066.885
 30
0.0
 40
8.0
  1
40.84'
 50
358.2164
  7
ROMANS
 72
     4
 11
934823.943163
 21
7292070.21908
 31
0.0
210
0.0
220
0.0
230
1.0
  0
TEXT
  8
11
  6
CONTINUOUS
 62
     7
  5
385
 10
934853.608
 20
7292078.527
 30
0.0
 40
8.0
  1
5'
 50
358.2164
  7
ROMANS
 72
     4
 11
934859.062915
 21
7292082.359074
 31
0.0
210
0.0
220
0.0
230
1.0
  0
TEXT
  8
11
  6
CONTINUOUS
 62
     7
  5
386
 10
934794.394
 20
7292300.523
 30
0.0
 40
8.0
  1
5'
 50
358.2164
  7
ROMANS
 72
     4
 11
934799.848915
 21
7292304.355074
 31
0.0
210
0.0
220
0.0
230
1.0
  0
LINE
  8
21
  6
DASHDOT
 62
     7
  5
387
 10
933366.56
 20
7292095.43
 30
0.0
 11
933356.133
 21
7291760.592
 31
0.0
  0
LINE
  8
21
  6
DASHDOT
 62
     7
  5
388
 10
933371.558
 20
7292095.274
 30
0.0
 11
933361.131
 21
7291760.437
 31
0.0
  0
LINE
  8
21
  6
DASHDOT
 62
     7
  5
389
 10
933366.56
 20
7292095.43
 30
0.0
 11
933371.558
 21
7292095.274
 31
0.0
  0
TEXT
  8
11
  6
CONTINUOUS
 62
     7
  5
38A
 10
933358.633
 20
7291937.439
 30
0.0
 40
8.0
  1
335'
 50
88.2164
  7
ROMANS
 72
     4
 11
933355.049923
 21
7291950.890039
 31
0.0
210
0.0
220
0.0
230
1.0
  0
TEXT
  8
22
  6
CONTINUOUS
 62
     3
  5
38B
 10
933767.224
 20
7291862.143
 30
0.0
 40
8.0
  1
50' DRAINAGE EASEMENT
 50
358.2164
  7
ROMANS
 72
     4
 11
933849.974448
 21
7291863.56811
 31
0.0
210
0.0
220
0.0
230
1.0
  0
TEXT
  8
22
  6
CONTINUOUS
 62
     3
  5
38C
 10
934338.269
 20
7292016.568
 30
0.0
 40
8.0
  1
50' DRAINAGE EASEMENT
 50
88.2164
  7
ROMANS
 72
     4
 11
934336.84389
 21
7292099.318448
 31
0.0
210
0.0
220
0.0
230
1.0
  0
TEXT
  8
22
  6
CONTINUOUS
 62
     3
  5
38D
 10
933349.586
 20
7292014.902
 30
0.0
 40
8.0
  1
50' DRAINAGE EASEMENT
 50
88.2164
  7
ROMANS
 72
     4
 11
933348.16089
 21
7292097.652448
 31
0.0
210
0.0
220
0.0
230
1.0
  0
TEXT
  8
22
  6
CONTINUOUS
 62
     3
  5
38E
 10
933342.332
 20
7291781.981
 30
0.0
 40
8.0
  1
5' FIRE PROTECTION EASEMENT
 50
88.2164
  7
ROMANS
 72
     4
 11
933341.653881
 21
7291888.71982
 31
0.0
210
0.0
220
0.0
230
1.0
  0
TEXT
  8
22
  6
CONTINUOUS
 62
     3
  5
38F
 10
934345.899
 20
7291867.423
 30
0.0
 40
8.0
  1
5' FIRE PROTECTION EASEMENT
 50
88.2164
  7
ROMANS
 72
     4
 11
934345.220881
 21
7291974.16182
 31
0.0
210
0.0
220
0.0
230
1.0
  0
TEXT
  8
22
  6
CONTINUOUS
 62
     3
  5
390
 10
934769.809
 20
7292105.58
 30
0.0
 40
8.0
  1
5' FIRE PROTECTION EASEMENT
 50
88.2164
  7
ROMANS
 72
     4
 11
934769.130881
 21
7292212.31882
 31
0.0
210
0.0
220
0.0
230
1.0
  0
TEXT
  8
22
  6
CONTINUOUS
 62
     3
  5
391
 10
932682.723
 20
7291807.086
 30
0.0
 40
8.0
  1
5' FIRE 
 50
88.2164
  7
ROMANS
 72
     4
 11
932679.679407
 21
7291837.861641
 31
0.0
210
0.0
220
0.0
230
1.0
  0
TEXT
  8
22
  6
CONTINUOUS
 62
     3
  5
392
 10
932696.346
 20
7291794.75
 30
0.0
 40
8.0
  1
PROTECTION 
 50
88.2164
  7
ROMANS
 72
     4
 11
932693.675903
 21
7291837.519827
 31
0.0
210
0.0
220
0.0
230
1.0
  0
TEXT
  8
22
  6
CONTINUOUS
 62
     3
  5
393
 10
932710.751
 20
7291807.536
 30
0.0
 40
8.0
  1
EASEMENT
 50
88.2164
  7
ROMANS
 72
     4
 11
932707.707407
 21
7291838.311641
 31
0.0
210
0.0
220
0.0
230
1.0
  0
TEXT
  8
22
  6
CONTINUOUS
 62
     3
  5
394
 10
934425.996
 20
7291906.054
 30
0.0
 40
8.0
  1
2
 50
26.381722
  7
ROMANS
 72
     1
 11
934424.531231
 21
7291914.257496
 31
0.0
210
0.0
220
0.0
230
1.0
 73
     3
  0
TEXT
  8
22
  6
CONTINUOUS
 62
     3
  5
395
 10
934433.106
 20
7291909.58
 30
0.0
 40
8.0
  1
0
 50
26.381722
  7
ROMANS
 72
     1
 11
934431.926112
 21
7291917.924799
 31
0.0
210
0.0
220
0.0
230
1.0
 73
     3
  0
TEXT
  8
22
  6
CONTINUOUS
 62
     3
  5
396
 10
934440.218
 20
7291913.108
 30
0.0
 40
8.0
  1
'
 50
26.381722
  7
ROMANS
 72
     1
 11
934437.857377
 21
7291920.867146
 31
0.0
210
0.0
220
0.0
230
1.0
 73
     3
  0
TEXT
  8
22
  6
CONTINUOUS
 62
     3
  5
397
 10
934447.328
 20
7291916.634
 30
0.0
 40
8.0
  1
 
 50
26.381722
  7
ROMANS
 72
     1
 11
934446.16155
 21
7291924.985464
 31
0.0
210
0.0
220
0.0
230
1.0
 73
     3
  0
TEXT
  8
22
  6
CONTINUOUS
 62
     3
  5
398
 10
934454.439
 20
7291920.161
 30
0.0
 40
8.0
  1
C
 50
26.381722
  7
ROMANS
 72
     1
 11
934453.141756
 21
7291928.447589
 31
0.0
210
0.0
220
0.0
230
1.0
 73
     3
  0
TEXT
  8
22
  6
CONTINUOUS
 62
     3
  5
399
 10
934461.548
 20
7291923.688
 30
0.0
 40
8.0
  1
A
 50
26.381722
  7
ROMANS
 72
     1
 11
934460.38155
 21
7291932.039464
 31
0.0
210
0.0
220
0.0
230
1.0
 73
     3
  0
TEXT
  8
22
  6
CONTINUOUS
 62
     3
  5
39A
 10
934468.659
 20
7291927.214
 30
0.0
 40
8.0
  1
N
 50
26.381722
  7
ROMANS
 72
     1
 11
934467.361756
 21
7291935.500589
 31
0.0
210
0.0
220
0.0
230
1.0
 73
     3
  0
TEXT
  8
22
  6
CONTINUOUS
 62
     3
  5
39B
 10
934475.769
 20
7291930.741
 30
0.0
 40
8.0
  1
A
 50
26.381722
  7
ROMANS
 72
     1
 11
934474.60255
 21
7291939.092464
 31
0.0
210
0.0
220
0.0
230
1.0
 73
     3
  0
TEXT
  8
22
  6
CONTINUOUS
 62
     3
  5
39C
 10
934482.88
 20
7291934.268
 30
0.0
 40
8.0
  1
D
 50
26.381722
  7
ROMANS
 72
     1
 11
934481.606048
 21
7291942.566142
 31
0.0
210
0.0
220
0.0
230
1.0
 73
     3
  0
TEXT
  8
22
  6
CONTINUOUS
 62
     3
  5
39D
 10
934489.99
 20
7291937.795
 30
0.0
 40
8.0
  1
I
 50
26.381722
  7
ROMANS
 72
     1
 11
934488.077304
 21
7291945.776321
 31
0.0
210
0.0
220
0.0
230
1.0
 73
     3
  0
TEXT
  8
22
  6
CONTINUOUS
 62
     3
  5
39E
 10
934497.1
 20
7291941.322
 30
0.0
 40
8.0
  1
A
 50
26.381722
  7
ROMANS
 72
     1
 11
934495.93355
 21
7291949.673464
 31
0.0
210
0.0
220
0.0
230
1.0
 73
     3
  0
TEXT
  8
22
  6
CONTINUOUS
 62
     3
  5
39F
 10
934504.212
 20
7291944.848
 30
0.0
 40
8.0
  1
N
 50
26.381722
  7
ROMANS
 72
     1
 11
934502.914756
 21
7291953.134589
 31
0.0
210
0.0
220
0.0
230
1.0
 73
     3
  0
TEXT
  8
22
  6
CONTINUOUS
 62
     3
  5
3A0
 10
934511.322
 20
7291948.375
 30
0.0
 40
8.0
  1
 
 50
26.381722
  7
ROMANS
 72
     1
 11
934510.15555
 21
7291956.726464
 31
0.0
210
0.0
220
0.0
230
1.0
 73
     3
  0
TEXT
  8
22
  6
CONTINUOUS
 62
     3
  5
3A1
 10
934518.432
 20
7291951.902
 30
0.0
 40
8.0
  1
R
 50
26.381722
  7
ROMANS
 72
     1
 11
934517.134756
 21
7291960.188589
 31
0.0
210
0.0
220
0.0
230
1.0
 73
     3
  0
TEXT
  8
22
  6
CONTINUOUS
 62
     3
  5
3A2
 10
934525.542
 20
7291955.429
 30
0.0
 40
8.0
  1
I
 50
26.381722
  7
ROMANS
 72
     1
 11
934523.629304
 21
7291963.410321
 31
0.0
210
0.0
220
0.0
230
1.0
 73
     3
  0
TEXT
  8
22
  6
CONTINUOUS
 62
     3
  5
3A3
 10
934532.652
 20
7291958.956
 30
0.0
 40
8.0
  1
V
 50
26.381722
  7
ROMANS
 72
     1
 11
934531.48555
 21
7291967.307464
 31
0.0
210
0.0
220
0.0
230
1.0
 73
     3
  0
TEXT
  8
22
  6
CONTINUOUS
 62
     3
  5
3A4
 10
934539.764
 20
7291962.483
 30
0.0
 40
8.0
  1
E
 50
26.381722
  7
ROMANS
 72
     1
 11
934538.448839
 21
7291970.760702
 31
0.0
210
0.0
220
0.0
230
1.0
 73
     3
  0
TEXT
  8
22
  6
CONTINUOUS
 62
     3
  5
3A5
 10
934546.874
 20
7291966.009
 30
0.0
 40
8.0
  1
R
 50
26.381722
  7
ROMANS
 72
     1
 11
934545.576756
 21
7291974.295589
 31
0.0
210
0.0
220
0.0
230
1.0
 73
     3
  0
TEXT
  8
22
  6
CONTINUOUS
 62
     3
  5
3A6
 10
934553.984
 20
7291969.536
 30
0.0
 40
8.0
  1
 
 50
26.381722
  7
ROMANS
 72
     1
 11
934552.81755
 21
7291977.887464
 31
0.0
210
0.0
220
0.0
230
1.0
 73
     3
  0
TEXT
  8
22
  6
CONTINUOUS
 62
     3
  5
3A7
 10
934561.093
 20
7291973.062
 30
0.0
 40
8.0
  1
A
 50
26.381722
  7
ROMANS
 72
     1
 11
934559.92655
 21
7291981.413464
 31
0.0
210
0.0
220
0.0
230
1.0
 73
     3
  0
TEXT
  8
22
  6
CONTINUOUS
 62
     3
  5
3A8
 10
934568.205
 20
7291976.59
 30
0.0
 40
8.0
  1
U
 50
26.381722
  7
ROMANS
 72
     1
 11
934566.889839
 21
7291984.867702
 31
0.0
210
0.0
220
0.0
230
1.0
 73
     3
  0
TEXT
  8
22
  6
CONTINUOUS
 62
     3
  5
3A9
 10
934575.315
 20
7291980.116
 30
0.0
 40
8.0
  1
T
 50
26.381722
  7
ROMANS
 72
     1
 11
934574.14855
 21
7291988.467464
 31
0.0
210
0.0
220
0.0
230
1.0
 73
     3
  0
TEXT
  8
22
  6
CONTINUOUS
 62
     3
  5
3AA
 10
934582.425
 20
7291983.644
 30
0.0
 40
8.0
  1
H
 50
26.381722
  7
ROMANS
 72
     1
 11
934580.960231
 21
7291991.847496
 31
0.0
210
0.0
220
0.0
230
1.0
 73
     3
  0
TEXT
  8
22
  6
CONTINUOUS
 62
     3
  5
3AB
 10
934589.536
 20
7291987.171
 30
0.0
 40
8.0
  1
O
 50
26.381722
  7
ROMANS
 72
     1
 11
934588.38478
 21
7291995.530018
 31
0.0
210
0.0
220
0.0
230
1.0
 73
     3
  0
TEXT
  8
22
  6
CONTINUOUS
 62
     3
  5
3AC
 10
934596.646
 20
7291990.697
 30
0.0
 40
8.0
  1
R
 50
26.381722
  7
ROMANS
 72
     1
 11
934595.348756
 21
7291998.983589
 31
0.0
210
0.0
220
0.0
230
1.0
 73
     3
  0
TEXT
  8
22
  6
CONTINUOUS
 62
     3
  5
3AD
 10
934603.756
 20
7291994.224
 30
0.0
 40
8.0
  1
I
 50
26.381722
  7
ROMANS
 72
     1
 11
934601.843304
 21
7292002.205321
 31
0.0
210
0.0
220
0.0
230
1.0
 73
     3
  0
TEXT
  8
22
  6
CONTINUOUS
 62
     3
  5
3AE
 10
934610.867
 20
7291997.75
 30
0.0
 40
8.0
  1
T
 50
26.381722
  7
ROMANS
 72
     1
 11
934609.70055
 21
7292006.101464
 31
0.0
210
0.0
220
0.0
230
1.0
 73
     3
  0
TEXT
  8
22
  6
CONTINUOUS
 62
     3
  5
3AF
 10
934617.977
 20
7292001.278
 30
0.0
 40
8.0
  1
Y
 50
26.381722
  7
ROMANS
 72
     1
 11
934616.736194
 21
7292009.592583
 31
0.0
210
0.0
220
0.0
230
1.0
 73
     3
  0
TEXT
  8
22
  6
CONTINUOUS
 62
     3
  5
3B0
 10
934625.087
 20
7292004.804
 30
0.0
 40
8.0
  1
 
 50
26.381722
  7
ROMANS
 72
     1
 11
934623.92055
 21
7292013.155464
 31
0.0
210
0.0
220
0.0
230
1.0
 73
     3
  0
TEXT
  8
22
  6
CONTINUOUS
 62
     3
  5
3B1
 10
934632.197
 20
7292008.33
 30
0.0
 40
8.0
  1
A
 50
26.381722
  7
ROMANS
 72
     1
 11
934631.03055
 21
7292016.681464
 31
0.0
210
0.0
220
0.0
230
1.0
 73
     3
  0
TEXT
  8
22
  6
CONTINUOUS
 62
     3
  5
3B2
 10
934639.309
 20
7292011.858
 30
0.0
 40
8.0
  1
Q
 50
26.381722
  7
ROMANS
 72
     1
 11
934638.162259
 21
7292020.21924
 31
0.0
210
0.0
220
0.0
230
1.0
 73
     3
  0
TEXT
  8
22
  6
CONTINUOUS
 62
     3
  5
3B3
 10
934646.42
 20
7292015.385
 30
0.0
 40
8.0
  1
U
 50
26.381722
  7
ROMANS
 72
     1
 11
934645.104839
 21
7292023.662702
 31
0.0
210
0.0
220
0.0
230
1.0
 73
     3
  0
TEXT
  8
22
  6
CONTINUOUS
 62
     3
  5
3B4
 10
934653.53
 20
7292018.911
 30
0.0
 40
8.0
  1
E
 50
26.381722
  7
ROMANS
 72
     1
 11
934652.214839
 21
7292027.188702
 31
0.0
210
0.0
220
0.0
230
1.0
 73
     3
  0
TEXT
  8
22
  6
CONTINUOUS
 62
     3
  5
3B5
 10
934660.64
 20
7292022.438
 30
0.0
 40
8.0
  1
D
 50
26.381722
  7
ROMANS
 72
     1
 11
934659.366048
 21
7292030.736142
 31
0.0
210
0.0
220
0.0
230
1.0
 73
     3
  0
TEXT
  8
22
  6
CONTINUOUS
 62
     3
  5
3B6
 10
934667.75
 20
7292025.965
 30
0.0
 40
8.0
  1
U
 50
26.381722
  7
ROMANS
 72
     1
 11
934666.434839
 21
7292034.242702
 31
0.0
210
0.0
220
0.0
230
1.0
 73
     3
  0
TEXT
  8
22
  6
CONTINUOUS
 62
     3
  5
3B7
 10
934674.861
 20
7292029.492
 30
0.0
 40
8.0
  1
C
 50
26.381722
  7
ROMANS
 72
     1
 11
934673.563756
 21
7292037.778589
 31
0.0
210
0.0
220
0.0
230
1.0
 73
     3
  0
TEXT
  8
22
  6
CONTINUOUS
 62
     3
  5
3B8
 10
934681.97
 20
7292033.018
 30
0.0
 40
8.0
  1
T
 50
26.381722
  7
ROMANS
 72
     1
 11
934680.80355
 21
7292041.369464
 31
0.0
210
0.0
220
0.0
230
1.0
 73
     3
  0
TEXT
  8
22
  6
CONTINUOUS
 62
     3
  5
3B9
 10
934689.081
 20
7292036.546
 30
0.0
 40
8.0
  1
 
 50
26.381722
  7
ROMANS
 72
     1
 11
934687.91455
 21
7292044.897464
 31
0.0
210
0.0
220
0.0
230
1.0
 73
     3
  0
TEXT
  8
22
  6
CONTINUOUS
 62
     3
  5
3BA
 10
934696.192
 20
7292040.072
 30
0.0
 40
8.0
  1
E
 50
26.381722
  7
ROMANS
 72
     1
 11
934694.876839
 21
7292048.349702
 31
0.0
210
0.0
220
0.0
230
1.0
 73
     3
  0
TEXT
  8
22
  6
CONTINUOUS
 62
     3
  5
3BB
 10
934703.302
 20
7292043.598
 30
0.0
 40
8.0
  1
A
 50
26.381722
  7
ROMANS
 72
     1
 11
934702.13555
 21
7292051.949464
 31
0.0
210
0.0
220
0.0
230
1.0
 73
     3
  0
TEXT
  8
22
  6
CONTINUOUS
 62
     3
  5
3BC
 10
934710.413
 20
7292047.126
 30
0.0
 40
8.0
  1
S
 50
26.381722
  7
ROMANS
 72
     1
 11
934709.11038
 21
7292055.409923
 31
0.0
210
0.0
220
0.0
230
1.0
 73
     3
  0
TEXT
  8
22
  6
CONTINUOUS
 62
     3
  5
3BD
 10
934717.523
 20
7292050.653
 30
0.0
 40
8.0
  1
E
 50
26.381722
  7
ROMANS
 72
     1
 11
934716.207839
 21
7292058.930702
 31
0.0
210
0.0
220
0.0
230
1.0
 73
     3
  0
TEXT
  8
22
  6
CONTINUOUS
 62
     3
  5
3BE
 10
934724.633
 20
7292054.18
 30
0.0
 40
8.0
  1
M
 50
26.381722
  7
ROMANS
 72
     1
 11
934723.642138
 21
7292062.618556
 31
0.0
210
0.0
220
0.0
230
1.0
 73
     3
  0
TEXT
  8
22
  6
CONTINUOUS
 62
     3
  5
3BF
 10
934731.744
 20
7292057.706
 30
0.0
 40
8.0
  1
E
 50
26.381722
  7
ROMANS
 72
     1
 11
934730.428839
 21
7292065.983702
 31
0.0
210
0.0
220
0.0
230
1.0
 73
     3
  0
TEXT
  8
22
  6
CONTINUOUS
 62
     3
  5
3C0
 10
934738.855
 20
7292061.233
 30
0.0
 40
8.0
  1
N
 50
26.381722
  7
ROMANS
 72
     1
 11
934737.557756
 21
7292069.519589
 31
0.0
210
0.0
220
0.0
230
1.0
 73
     3
  0
TEXT
  8
22
  6
CONTINUOUS
 62
     3
  5
3C1
 10
934745.964
 20
7292064.76
 30
0.0
 40
8.0
  1
T
 50
26.381722
  7
ROMANS
 72
     1
 11
934744.79755
 21
7292073.111464
 31
0.0
210
0.0
220
0.0
230
1.0
 73
     3
  0
TEXT
  8
22
  6
CONTINUOUS
 62
     3
  5
3C2
 10
934836.055
 20
7292109.445
 30
0.0
 40
8.0
  1
(
 50
26.381722
  7
ROMANS
 72
     1
 11
934833.694377
 21
7292117.204146
 31
0.0
210
0.0
220
0.0
230
1.0
 73
     3
  0
TEXT
  8
22
  6
CONTINUOUS
 62
     3
  5
3C3
 10
934843.165
 20
7292112.972
 30
0.0
 40
8.0
  1
V
 50
26.381722
  7
ROMANS
 72
     1
 11
934841.99855
 21
7292121.323464
 31
0.0
210
0.0
220
0.0
230
1.0
 73
     3
  0
TEXT
  8
22
  6
CONTINUOUS
 62
     3
  5
3C4
 10
934850.276
 20
7292116.499
 30
0.0
 40
8.0
  1
O
 50
26.381722
  7
ROMANS
 72
     1
 11
934849.12478
 21
7292124.858018
 31
0.0
210
0.0
220
0.0
230
1.0
 73
     3
  0
TEXT
  8
22
  6
CONTINUOUS
 62
     3
  5
3C5
 10
934857.386
 20
7292120.026
 30
0.0
 40
8.0
  1
L
 50
26.381722
  7
ROMANS
 72
     1
 11
934855.921231
 21
7292128.229496
 31
0.0
210
0.0
220
0.0
230
1.0
 73
     3
  0
TEXT
  8
22
  6
CONTINUOUS
 62
     3
  5
3C6
 10
934864.496
 20
7292123.553
 30
0.0
 40
8.0
  1
.
 50
26.381722
  7
ROMANS
 72
     1
 11
934862.125523
 21
7292131.307258
 31
0.0
210
0.0
220
0.0
230
1.0
 73
     3
  0
TEXT
  8
22
  6
CONTINUOUS
 62
     3
  5
3C7
 10
934871.606
 20
7292127.079
 30
0.0
 40
8.0
  1
9
 50
26.381722
  7
ROMANS
 72
     1
 11
934870.141231
 21
7292135.282496
 31
0.0
210
0.0
220
0.0
230
1.0
 73
     3
  0
TEXT
  8
22
  6
CONTINUOUS
 62
     3
  5
3C8
 10
934878.717
 20
7292130.606
 30
0.0
 40
8.0
  1
8
 50
26.381722
  7
ROMANS
 72
     1
 11
934877.252231
 21
7292138.809496
 31
0.0
210
0.0
220
0.0
230
1.0
 73
     3
  0
TEXT
  8
22
  6
CONTINUOUS
 62
     3
  5
3C9
 10
934885.827
 20
7292134.133
 30
0.0
 40
8.0
  1
8
 50
26.381722
  7
ROMANS
 72
     1
 11
934884.362231
 21
7292142.336496
 31
0.0
210
0.0
220
0.0
230
1.0
 73
     3
  0
TEXT
  8
22
  6
CONTINUOUS
 62
     3
  5
3CA
 10
934892.938
 20
7292137.66
 30
0.0
 40
8.0
  1
 
 50
26.381722
  7
ROMANS
 72
     1
 11
934891.77155
 21
7292146.011464
 31
0.0
210
0.0
220
0.0
230
1.0
 73
     3
  0
TEXT
  8
22
  6
CONTINUOUS
 62
     3
  5
3CB
 10
934900.048
 20
7292141.187
 30
0.0
 40
8.0
  1
P
 50
26.381722
  7
ROMANS
 72
     1
 11
934898.750756
 21
7292149.473589
 31
0.0
210
0.0
220
0.0
230
1.0
 73
     3
  0
TEXT
  8
22
  6
CONTINUOUS
 62
     3
  5
3CC
 10
934907.159
 20
7292144.713
 30
0.0
 40
8.0
  1
G
 50
26.381722
  7
ROMANS
 72
     1
 11
934905.87161
 21
7292153.004477
 31
0.0
210
0.0
220
0.0
230
1.0
 73
     3
  0
TEXT
  8
22
  6
CONTINUOUS
 62
     3
  5
3CD
 10
934914.27
 20
7292148.24
 30
0.0
 40
8.0
  1
.
 50
26.381722
  7
ROMANS
 72
     1
 11
934911.899523
 21
7292155.994258
 31
0.0
210
0.0
220
0.0
230
1.0
 73
     3
  0
TEXT
  8
22
  6
CONTINUOUS
 62
     3
  5
3CE
 10
934921.379
 20
7292151.767
 30
0.0
 40
8.0
  1
4
 50
26.381722
  7
ROMANS
 72
     1
 11
934919.914231
 21
7292159.970496
 31
0.0
210
0.0
220
0.0
230
1.0
 73
     3
  0
TEXT
  8
22
  6
CONTINUOUS
 62
     3
  5
3CF
 10
934928.49
 20
7292155.294
 30
0.0
 40
8.0
  1
6
 50
26.381722
  7
ROMANS
 72
     1
 11
934927.192756
 21
7292163.580589
 31
0.0
210
0.0
220
0.0
230
1.0
 73
     3
  0
TEXT
  8
22
  6
CONTINUOUS
 62
     3
  5
3D0
 10
934935.6
 20
7292158.82
 30
0.0
 40
8.0
  1
4
 50
26.381722
  7
ROMANS
 72
     1
 11
934934.135231
 21
7292167.023496
 31
0.0
210
0.0
220
0.0
230
1.0
 73
     3
  0
TEXT
  8
22
  6
CONTINUOUS
 62
     3
  5
3D1
 10
934942.711
 20
7292162.347
 30
0.0
 40
8.0
  1
.
 50
26.381722
  7
ROMANS
 72
     1
 11
934940.340523
 21
7292170.101258
 31
0.0
210
0.0
220
0.0
230
1.0
 73
     3
  0
TEXT
  8
22
  6
CONTINUOUS
 62
     3
  5
3D2
 10
934949.822
 20
7292165.875
 30
0.0
 40
8.0
  1
)
 50
26.381722
  7
ROMANS
 72
     1
 11
934948.058912
 21
7292173.930527
 31
0.0
210
0.0
220
0.0
230
1.0
 73
     3
  0
TEXT
  8
22
  6
CONTINUOUS
 62
     3
  5
3D3
 10
934088.183
 20
7291719.855
 30
0.0
 40
8.0
  1
35' DRAINAGE AND UTILITY EASEMENT
 50
358.2164
  7
ROMANS
 72
     4
 11
934218.910192
 21
7291719.786127
 31
0.0
210
0.0
220
0.0
230
1.0
  0
TEXT
  8
22
  6
CONTINUOUS
 62
     3
  5
3D4
 10
933632.205
 20
7292111.391
 30
0.0
 40
8.0
  1
LIMITS OF UUE-SWBT
 50
88.2164
  7
ROMANS
 72
     4
 11
933630.406394
 21
7292182.147262
 31
0.0
210
0.0
220
0.0
230
1.0
  0
TEXT
  8
22
  6
CONTINUOUS
 62
     3
  5
3D5
 10
932661.038
 20
7292056.23
 30
0.0
 40
8.0
  1
BLANKET UUE-SWBT
 50
358.2164
  7
ROMANS
 72
     4
 11
932723.798138
 21
7292058.277604
 31
0.0
210
0.0
220
0.0
230
1.0
  0
TEXT
  8
22
  6
CONTINUOUS
 62
     3
  5
3D6
 10
932653.33
 20
7292042.463
 30
0.0
 40
8.0
  1
(VOL.1987 PG.687.)
 50
358.2164
  7
ROMANS
 72
     4
 11
932723.420584
 21
7292044.282335
 31
0.0
210
0.0
220
0.0
230
1.0
  0
TEXT
  8
11
  6
CONTINUOUS
 62
     7
  5
3D7
 10
932997.595
 20
7291775.996
 30
0.0
 40
8.0
  1
1336.63'
 50
358.2164
  7
ROMANS
 72
     4
 11
933027.038287
 21
7291779.081082
 31
0.0
210
0.0
220
0.0
230
1.0
  0
TEXT
  8
15
  6
CONTINUOUS
 62
    30
  5
3D8
 10
933687.669
 20
7292189.836
 30
0.0
 40
50.0
  1
WESTFORK
 50
28.2164
  7
ROMANC
 72
     4
 11
933867.857228
 21
7292314.889924
 31
0.0
210
0.0
220
0.0
230
1.0
  0
TEXT
  8
15
  6
CONTINUOUS
 62
    30
  5
3D9
 10
934650.28
 20
7291819.969
 30
0.0
 40
50.0
  1
ADDITION
 50
28.2164
  7
ROMANC
 72
     4
 11
934810.173163
 21
7291934.133325
 31
0.0
210
0.0
220
0.0
230
1.0
  0
TEXT
  8
19
  6
CONTINUOUS
 62
     1
  5
3DA
 10
932213.328
 20
7291862.68
 30
0.0
 40
24.0
  1
N. QUAKER AVE
 50
88.2164
  7
ROMANC
 72
     4
 11
932206.37131
 21
7292024.824082
 31
0.0
210
0.0
220
0.0
230
1.0
  0
TEXT
  8
19
  6
CONTINUOUS
 62
     1
  5
3DB
 10
934623.745
 20
7291694.656
 30
0.0
 40
24.0
  1
BRADLEY ST
 50
358.2164
  7
ROMANC
 72
     4
 11
934754.441325
 21
7291702.591966
 31
0.0
210
0.0
220
0.0
230
1.0
  0
TEXT
  8
19
  6
CONTINUOUS
 62
     1
  5
3DC
 10
932554.552
 20
7291756.684
 30
0.0
 40
24.0
  1
BRADLEY ST
 50
358.2164
  7
ROMANC
 72
     4
 11
932685.248325
 21
7291764.619966
 31
0.0
210
0.0
220
0.0
230
1.0
  0
TEXT
  8
19
  6
CONTINUOUS
 62
     1
  5
3DD
 10
932235.79
 20
7291222.495
 30
0.0
 40
24.0
  1
ADRIAN ST
 50
358.2164
  7
ROMANC
 72
     4
 11
932349.486566
 21
7291230.960334
 31
0.0
210
0.0
220
0.0
230
1.0
  0
TEXT
  8
19
  6
CONTINUOUS
 62
     1
  5
3DE
 10
933679.89
 20
7291172.227
 30
0.0
 40
24.0
  1
ADRIAN ST
 50
358.2164
  7
ROMANC
 72
     4
 11
933793.586566
 21
7291180.692334
 31
0.0
210
0.0
220
0.0
230
1.0
  0
TEXT
  8
19
  6
CONTINUOUS
 62
     1
  5
3DF
 10
932595.986
 20
7290203.37
 30
0.0
 40
24.0
  1
U.S. 84 (CLOVIS RD)
 50
324.206358
  7
ROMANC
 72
     4
 11
932768.312447
 21
7290093.907515
 31
0.0
210
0.0
220
0.0
230
1.0
  0
TEXT
  8
19
  6
CONTINUOUS
 62
     1
  5
3E0
 10
932159.447
 20
7289890.515
 30
0.0
 40
24.0
  1
N QUAKER AVE
 50
88.6556
  7
ROMANC
 72
     4
 11
932151.30967
 21
7290055.245264
 31
0.0
210
0.0
220
0.0
230
1.0
  0
TEXT
  8
11
  6
CONTINUOUS
 62
     7
  5
3E1
 10
932558.628
 20
7291186.048
 30
0.0
 40
8.0
  1
8'
 50
358.2164
  7
ROMANS
 11
932558.752499
 21
7291190.046062
 31
0.0
210
0.0
220
0.0
230
1.0
 73
     2
  0
TEXT
  8
10
  6
CONTINUOUS
 62
   134
  5
3E3
 10
933263.682
 20
7293611.837
 30
0.0
 40
13.999
  1
UNSUBDIVIDED
 50
358.2164
  7
ROMANS
 11
933264.117714
 21
7293625.829218
 31
0.0
210
0.0
220
0.0
230
1.0
 73
     3
  0
TEXT
  8
10
  6
CONTINUOUS
 62
   134
  5
3E4
 10
933943.111
 20
7292074.438
 30
0.0
 40
13.999
  1
LOT  1
 50
358.2164
  7
ROMANS
 72
     4
 11
933980.640787
 21
7292080.272725
 31
0.0
210
0.0
220
0.0
230
1.0
  0
TEXT
  8
10
  6
CONTINUOUS
 62
   134
  5
3E5
 10
937025.804
 20
7292177.857
 30
0.0
 40
13.999
  1
STATE OF TEXAS
 50
358.2164
  7
ROMANS
 11
937026.239714
 21
7292191.849218
 31
0.0
210
0.0
220
0.0
230
1.0
 73
     3
  0
TEXT
  8
10
  6
CONTINUOUS
 62
   134
  5
3E6
 10
934431.21
 20
7290658.636
 30
0.0
 40
13.999
  1
UNSUBDIVIDED
 50
358.2164
  7
ROMANS
 11
934431.645714
 21
7290672.628218
 31
0.0
210
0.0
220
0.0
230
1.0
 73
     3
  0
TEXT
  8
10
  6
CONTINUOUS
 62
   134
  5
3E7
 10
932388.816
 20
7289839.373
 30
0.0
 40
13.999
  1
UNSUBDIVIDED
 50
358.6556
  7
ROMANS
 11
932389.144445
 21
7289853.368146
 31
0.0
210
0.0
220
0.0
230
1.0
 73
     3
  0
TEXT
  8
10
  6
CONTINUOUS
 62
   134
  5
3E8
 10
932167.02
 20
7290782.464
 30
0.0
 40
13.999
  1
CITY PROPERTY
 50
358.2164
  7
ROMANS
 11
932167.455714
 21
7290796.456218
 31
0.0
210
0.0
220
0.0
230
1.0
 73
     3
  0
TEXT
  8
10
  6
CONTINUOUS
 62
   134
  5
3E9
 10
932244.062
 20
7291048.004
 30
0.0
 40
13.999
  1
CITY PROPERTY
 50
358.2164
  7
ROMANS
 11
932244.497714
 21
7291061.996218
 31
0.0
210
0.0
220
0.0
230
1.0
 73
     3
  0
TEXT
  8
10
  6
CONTINUOUS
 62
   134
  5
3EA
 10
937320.291
 20
7290666.421
 30
0.0
 40
13.999
  1
CITY OF LUBBOCK
 50
88.6556
  7
ROMANS
 11
937306.295854
 21
7290666.749445
 31
0.0
210
0.0
220
0.0
230
1.0
 73
     3
  0
LINE
  8
58
  6
DIVIDE
 62
   216
  5
3EC
 10
932187.59
 20
7292294.662
 30
0.0
 11
933341.631
 21
7292258.725
 31
0.0
  0
LINE
  8
58
  6
DIVIDE
 62
   216
  5
3ED
 10
933341.631
 20
7292258.725
 30
0.0
 11
933349.412
 21
7292508.604
 31
0.0
  0
LINE
  8
58
  6
DIVIDE
 62
   216
  5
3EE
 10
933349.412
 20
7292508.604
 30
0.0
 11
937322.886
 21
7292384.87
 31
0.0
  0
LINE
  8
58
  6
DIVIDE
 62
   216
  5
3EF
 10
937396.34
 20
7294743.728
 30
0.0
 11
937322.886
 21
7292384.87
 31
0.0
  0
LINE
  8
6
  6
CONTINUOUS
 62
     7
  5
3F0
 10
932213.916
 20
7291372.976
 30
0.0
 11
932211.145
 21
7291284.019
 31
0.0
  0
LINE
  8
6
  6
CONTINUOUS
 62
     7
  5
3F1
 10
932226.115
 20
7291760.764
 30
0.0
 11
932213.995
 21
7291372.974
 31
0.0
  0
LINE
  8
6
  6
CONTINUOUS
 62
     7
  5
3F2
 10
932208.653
 20
7291202.056
 30
0.0
 11
932194.661
 21
7290754.373
 31
0.0
  0
LINE
  8
6
  6
CONTINUOUS
 62
     7
  5
3F3
 10
932324.417
 20
7294905.792
 30
0.0
 11
932242.75
 21
7292292.944
 31
0.0
  0
TEXT
  8
28
  6
CONTINUOUS
 62
    32
  5
3F6
 10
932485.747
 20
7290500.887
 30
0.0
 40
24.0
  1
PANHANDLE & SANTA FE RR
 50
325.0
  7
txt
 72
     4
 11
932710.03287
 21
7290358.489638
 31
0.0
210
0.0
220
0.0
230
1.0
  0
TEXT
  8
11
  6
CONTINUOUS
 62
     7
  5
3F7
 10
932988.179
 20
7290125.837
 30
0.0
 40
8.0
  1
100'
 50
53.408139
  7
txt
 72
     4
 11
932992.213715
 21
7290137.981522
 31
0.0
210
0.0
220
0.0
230
1.0
  0
ENDSEC
  0
EOF
