  0
SECTION
  2
HEADER
  9
$ACADVER
  1
AC1009
  9
$INSBASE
 10
0.0
 20
0.0
 30
0.0
  9
$EXTMIN
 10
952886.71
 20
7278252.208
 30
0.0
  9
$EXTMAX
 10
958331.646
 20
7283773.894
 30
0.0
  9
$LIMMIN
 10
0.0
 20
0.0
  9
$LIMMAX
 10
12.0
 20
9.0
  9
$ORTHOMODE
 70
     0
  9
$REGENMODE
 70
     1
  9
$FILLMODE
 70
     1
  9
$QTEXTMODE
 70
     0
  9
$MIRRTEXT
 70
     1
  9
$DRAGMODE
 70
     2
  9
$LTSCALE
 40
1.0
  9
$OSMODE
 70
     0
  9
$ATTMODE
 70
     1
  9
$TEXTSIZE
 40
0.2
  9
$TRACEWID
 40
0.05
  9
$TEXTSTYLE
  7
STANDARD
  9
$CLAYER
  8
0
  9
$CELTYPE
  6
CONTINUOUS
  9
$CECOLOR
 62
   256
  9
$DIMSCALE
 40
1.0
  9
$DIMASZ
 40
0.18
  9
$DIMEXO
 40
0.0625
  9
$DIMDLI
 40
0.38
  9
$DIMRND
 40
0.0
  9
$DIMDLE
 40
0.0
  9
$DIMEXE
 40
0.18
  9
$DIMTP
 40
0.0
  9
$DIMTM
 40
0.0
  9
$DIMTXT
 40
0.18
  9
$DIMCEN
 40
0.09
  9
$DIMTSZ
 40
0.0
  9
$DIMTOL
 70
     0
  9
$DIMLIM
 70
     0
  9
$DIMTIH
 70
     1
  9
$DIMTOH
 70
     1
  9
$DIMSE1
 70
     0
  9
$DIMSE2
 70
     0
  9
$DIMTAD
 70
     0
  9
$DIMZIN
 70
     0
  9
$DIMBLK
  1

  9
$DIMASO
 70
     1
  9
$DIMSHO
 70
     1
  9
$DIMPOST
  1

  9
$DIMAPOST
  1

  9
$DIMALT
 70
     0
  9
$DIMALTD
 70
     2
  9
$DIMALTF
 40
25.4
  9
$DIMLFAC
 40
1.0
  9
$DIMTOFL
 70
     0
  9
$DIMTVP
 40
0.0
  9
$DIMTIX
 70
     0
  9
$DIMSOXD
 70
     0
  9
$DIMSAH
 70
     0
  9
$DIMBLK1
  1

  9
$DIMBLK2
  1

  9
$DIMSTYLE
  2
STANDARD
  9
$DIMCLRD
 70
     0
  9
$DIMCLRE
 70
     0
  9
$DIMCLRT
 70
     0
  9
$DIMTFAC
 40
1.0
  9
$DIMGAP
 40
0.09
  9
$LUNITS
 70
     2
  9
$LUPREC
 70
     4
  9
$AXISMODE
 70
     0
  9
$AXISUNIT
 10
0.0
 20
0.0
  9
$SKETCHINC
 40
0.1
  9
$FILLETRAD
 40
0.0
  9
$AUNITS
 70
     0
  9
$AUPREC
 70
     0
  9
$MENU
  1
acad
  9
$ELEVATION
 40
0.0
  9
$PELEVATION
 40
0.0
  9
$THICKNESS
 40
0.0
  9
$LIMCHECK
 70
     0
  9
$BLIPMODE
 70
     1
  9
$CHAMFERA
 40
0.0
  9
$CHAMFERB
 40
0.0
  9
$SKPOLY
 70
     0
  9
$TDCREATE
 40
2453013.899085648
  9
$TDUPDATE
 40
2453013.899085648
  9
$TDINDWG
 40
0.0000000000
  9
$TDUSRTIMER
 40
0.0000000000
  9
$USRTIMER
 70
     1
  9
$ANGBASE
 50
0.0
  9
$ANGDIR
 70
     0
  9
$PDMODE
 70
     0
  9
$PDSIZE
 40
0.0
  9
$PLINEWID
 40
0.0
  9
$COORDS
 70
     0
  9
$SPLFRAME
 70
     0
  9
$SPLINETYPE
 70
     6
  9
$SPLINESEGS
 70
    10
  9
$ATTDIA
 70
     0
  9
$ATTREQ
 70
     1
  9
$HANDLING
 70
     1
  9
$HANDSEED
  5
3AF
  9
$SURFTAB1
 70
     6
  9
$SURFTAB2
 70
     6
  9
$SURFTYPE
 70
     6
  9
$SURFU
 70
     6
  9
$SURFV
 70
     6
  9
$UCSNAME
  2

  9
$UCSORG
 10
0.0
 20
0.0
 30
0.0
  9
$UCSXDIR
 10
1.0
 20
0.0
 30
0.0
  9
$UCSYDIR
 10
0.0
 20
1.0
 30
0.0
  9
$PUCSNAME
  2

  9
$PUCSORG
 10
0.0
 20
0.0
 30
0.0
  9
$PUCSXDIR
 10
1.0
 20
0.0
 30
0.0
  9
$PUCSYDIR
 10
0.0
 20
1.0
 30
0.0
  9
$USERI1
 70
     0
  9
$USERI2
 70
     0
  9
$USERI3
 70
     0
  9
$USERI4
 70
     0
  9
$USERI5
 70
     0
  9
$USERR1
 40
0.0
  9
$USERR2
 40
0.0
  9
$USERR3
 40
0.0
  9
$USERR4
 40
0.0
  9
$USERR5
 40
0.0
  9
$WORLDVIEW
 70
     1
  9
$SHADEDGE
 70
     3
  9
$SHADEDIF
 70
    70
  9
$TILEMODE
 70
     1
  9
$MAXACTVP
 70
    16
  9
$PINSBASE
 10
0.0
 20
0.0
 30
0.0
  9
$PLIMCHECK
 70
     0
  9
$PEXTMIN
 10
-1.000000E+20
 20
-1.000000E+20
 30
-1.000000E+20
  9
$PEXTMAX
 10
-1.000000E+20
 20
-1.000000E+20
 30
-1.000000E+20
  9
$PLIMMIN
 10
0.0
 20
0.0
  9
$PLIMMAX
 10
12.0
 20
9.0
  9
$UNITMODE
 70
     0
  9
$VISRETAIN
 70
     0
  9
$PLINEGEN
 70
     1
  9
$PSLTSCALE
 70
     0
  9
$TREEDEPTH
 70
  3020
  9
$DWGCODEPAGE
  3
ansi_1252
  0
ENDSEC
  0
SECTION
  2
TABLES
  0
TABLE
  2
VPORT
 70
     1
  0
VPORT
  2
*ACTIVE
 70
     0
 10
0.0
 20
0.0
 11
1.0
 21
1.0
 12
0.0
 22
0.0
 13
0.0
 23
0.0
 14
0.0
 24
0.0
 15
0.0
 25
0.0
 16
0.0
 26
0.0
 36
1.0
 17
955292.240984
 27
7280960.345444
 37
0.0
 40
5523.391
 41
1.23736
 42
50.0
 43
0.004
 44
0.0
 50
1.738384
 51
0.0
 71
     0
 72
   100
 73
     1
 74
     0
 75
     0
 76
     0
 77
     0
 78
     0
  0
ENDTAB
  0
TABLE
  2
LTYPE
 70
     7
  0
LTYPE
  2
CONTINUOUS
 70
     0
  3
Solid line
 72
    65
 73
     0
 40
0.0
  0
LTYPE
  2
DOT
 70
    64
  3
. . . . . . . . . . . . . . . . . . . . . . . . . . . . . . . . .
 72
    65
 73
     2
 40
0.25
 49
0.0
 49
-0.25
  0
LTYPE
  2
HIDDEN
 70
    64
  3
__ __ __ __ __ __ __ __ __ __ __ __ __ __ __ __ __ __ __ __ __ 
 72
    65
 73
     2
 40
0.375
 49
0.25
 49
-0.125
  0
LTYPE
  2
DASHED
 70
    64
  3
__ __ __ __ __ __ __ __ __ __ __ __ __ __ __ __ __ __ __ __ __
 72
    65
 73
     2
 40
0.75
 49
0.5
 49
-0.25
  0
LTYPE
  2
DASHDOT
 70
    64
  3
__ . __ . __ . __ . __ . __ . __ . __ . __ . __ . __ . __ . _
 72
    65
 73
     4
 40
1.0
 49
0.5
 49
-0.25
 49
0.0
 49
-0.25
  0
LTYPE
  2
DIVIDE
 70
    64
  3
____ . . ____ . . ____ . . ____ . . ____ . . ____ . . ____ . .
 72
    65
 73
     6
 40
1.25
 49
0.5
 49
-0.25
 49
0.0
 49
-0.25
 49
0.0
 49
-0.25
  0
LTYPE
  2
CENTER
 70
    64
  3
____ _ ____ _ ____ _ ____ _ ____ _ ____ _ ____ _ ____ _ ____ _
 72
    65
 73
     4
 40
2.0
 49
1.25
 49
-0.25
 49
0.25
 49
-0.25
  0
ENDTAB
  0
TABLE
  2
LAYER
 70
    12
  0
LAYER
  2
0
 70
     0
 62
     7
  6
CONTINUOUS
  0
LAYER
  2
CONSTRUCTION_CLASS
 70
     1
 62
     7
  6
CONTINUOUS
  0
LAYER
  2
PATTERN_CLASS
 70
     0
 62
     7
  6
CONTINUOUS
  0
LAYER
  2
7
 70
    64
 62
     7
  6
CONTINUOUS
  0
LAYER
  2
6
 70
    64
 62
     7
  6
CONTINUOUS
  0
LAYER
  2
10
 70
    64
 62
     7
  6
CONTINUOUS
  0
LAYER
  2
11
 70
    64
 62
     7
  6
CONTINUOUS
  0
LAYER
  2
15
 70
    64
 62
     7
  6
CONTINUOUS
  0
LAYER
  2
19
 70
    64
 62
     7
  6
CONTINUOUS
  0
LAYER
  2
21
 70
    64
 62
     7
  6
CONTINUOUS
  0
LAYER
  2
22
 70
    64
 62
     7
  6
CONTINUOUS
  0
LAYER
  2
1
 70
    64
 62
     7
  6
CONTINUOUS
  0
ENDTAB
  0
TABLE
  2
STYLE
 70
     4
  0
STYLE
  2
STANDARD
 70
     0
 40
0.0
 41
1.0
 50
0.0
 71
     0
 42
0.0
  3
txt
  4

  0
STYLE
  2
txt
 70
     0
 40
0.2
 41
1.0
 50
0.0
 71
     0
 42
0.2
  3
TXT
  4

  0
STYLE
  2
ROMANS
 70
     0
 40
0.2
 41
1.0
 50
0.0
 71
     0
 42
0.2
  3
ROMANS
  4

  0
STYLE
  2
ROMANC
 70
     0
 40
0.2
 41
1.0
 50
0.0
 71
     0
 42
0.2
  3
ROMANC
  4

  0
ENDTAB
  0
TABLE
  2
VIEW
 70
     0
  0
ENDTAB
  0
TABLE
  2
UCS
 70
     0
  0
ENDTAB
  0
TABLE
  2
APPID
 70
     1
  0
APPID
  2
ACAD
 70
     0
  0
ENDTAB
  0
TABLE
  2
DIMSTYLE
 70
     1
  0
DIMSTYLE
  2
STANDARD
 70
     0
  3

  4

  5

  6

  7

 40
1.0
 41
0.18
 42
0.0625
 43
0.38
 44
0.18
 45
0.0
 46
0.0
 47
0.0
 48
0.0
140
0.18
141
0.09
142
0.0
143
25.4
144
1.0
145
0.0
146
1.0
147
0.09
 71
     0
 72
     0
 73
     1
 74
     1
 75
     0
 76
     0
 77
     0
 78
     0
170
     0
171
     2
172
     0
173
     0
174
     0
175
     0
176
     0
177
     0
178
     0
  0
ENDTAB
  0
ENDSEC
  0
SECTION
  2
BLOCKS
  0
ENDSEC
  0
SECTION
  2
ENTITIES
  0
LINE
  8
7
  6
CONTINUOUS
 62
     7
  5
29
 10
957346.226
 20
7279152.011
 30
0.0
 11
956875.734
 21
7279160.58
 31
0.0
  0
ARC
  8
7
  6
CONTINUOUS
 62
     7
  5
2A
 10
956893.233762
 20
7280121.510376
 30
0.0
 40
961.09
 50
261.341781
 51
268.956694
210
0.0
220
0.0
230
1.0
  0
ARC
  8
7
  6
CONTINUOUS
 62
     7
  5
2B
 10
956893.233762
 20
7280121.510376
 30
0.0
 40
961.09
 50
226.785339
 51
261.093964
210
0.0
220
0.0
230
1.0
  0
POLYLINE
  8
6
  6
CONTINUOUS
 62
     7
  5
2D
 66
     1
 10
0.0
 20
0.0
 30
0.0
  0
VERTEX
  8
6
  6
CONTINUOUS
 62
     7
  5
2E
 10
956748.551
 20
7279171.373
 30
0.0
  0
VERTEX
  8
6
  6
CONTINUOUS
 62
     7
  5
2F
 10
956747.497
 20
7279170.513
 30
0.0
  0
VERTEX
  8
6
  6
CONTINUOUS
 62
     7
  5
30
 10
956744.443
 20
7279172.007
 30
0.0
  0
SEQEND
  8
6
  6
CONTINUOUS
 62
     7
  5
31
  0
POLYLINE
  8
7
  6
CONTINUOUS
 62
     7
  5
32
 66
     1
 10
0.0
 20
0.0
 30
0.0
  0
VERTEX
  8
7
  6
CONTINUOUS
 62
     7
  5
33
 10
956235.143
 20
7279421.074
 30
0.0
  0
VERTEX
  8
7
  6
CONTINUOUS
 62
     7
  5
34
 10
956121.046
 20
7279476.873
 30
0.0
  0
VERTEX
  8
7
  6
CONTINUOUS
 62
     7
  5
35
 10
956022.228
 20
7279664.377
 30
0.0
  0
VERTEX
  8
7
  6
CONTINUOUS
 62
     7
  5
36
 10
955773.034
 20
7279871.337
 30
0.0
  0
VERTEX
  8
7
  6
CONTINUOUS
 62
     7
  5
37
 10
955652.323
 20
7280099.255
 30
0.0
  0
VERTEX
  8
7
  6
CONTINUOUS
 62
     7
  5
38
 10
955589.597
 20
7280173.363
 30
0.0
  0
SEQEND
  8
7
  6
CONTINUOUS
 62
     7
  5
39
  0
ARC
  8
7
  6
CONTINUOUS
 62
     7
  5
3A
 10
956039.890043
 20
7280554.499566
 30
0.0
 40
589.94
 50
201.466364
 51
220.2452
210
0.0
220
0.0
230
1.0
  0
LINE
  8
7
  6
CONTINUOUS
 62
     7
  5
3B
 10
955490.873
 20
7280338.609
 30
0.0
 11
955387.407
 21
7280601.715
 31
0.0
  0
ARC
  8
7
  6
CONTINUOUS
 62
     7
  5
3C
 10
956453.39691
 20
7281020.908946
 30
0.0
 40
1145.450065
 50
179.909283
 51
201.466908
210
0.0
220
0.0
230
1.0
  0
POLYLINE
  8
7
  6
CONTINUOUS
 62
     7
  5
3D
 66
     1
 10
0.0
 20
0.0
 30
0.0
  0
VERTEX
  8
7
  6
CONTINUOUS
 62
     7
  5
3E
 10
955307.948
 20
7281022.722
 30
0.0
  0
VERTEX
  8
7
  6
CONTINUOUS
 62
     7
  5
3F
 10
955246.721
 20
7281329.35
 30
0.0
  0
VERTEX
  8
7
  6
CONTINUOUS
 62
     7
  5
40
 10
955387.013
 20
7281482.576
 30
0.0
  0
VERTEX
  8
7
  6
CONTINUOUS
 62
     7
  5
41
 10
955402.291
 20
7281545.128
 30
0.0
  0
SEQEND
  8
7
  6
CONTINUOUS
 62
     7
  5
42
  0
ARC
  8
7
  6
CONTINUOUS
 62
     7
  5
43
 10
954932.153041
 20
7281659.963469
 30
0.0
 40
483.96
 50
346.273689
 51
25.204819
210
0.0
220
0.0
230
1.0
  0
POLYLINE
  8
7
  6
CONTINUOUS
 62
     7
  5
44
 66
     1
 10
0.0
 20
0.0
 30
0.0
  0
VERTEX
  8
7
  6
CONTINUOUS
 62
     7
  5
45
 10
955370.035
 20
7281866.061
 30
0.0
  0
VERTEX
  8
7
  6
CONTINUOUS
 62
     7
  5
46
 10
955151.012
 20
7281666.017
 30
0.0
  0
VERTEX
  8
7
  6
CONTINUOUS
 62
     7
  5
47
 10
955108.512
 20
7282104.05
 30
0.0
  0
VERTEX
  8
7
  6
CONTINUOUS
 62
     7
  5
48
 10
955126.997
 20
7282384.541
 30
0.0
  0
SEQEND
  8
7
  6
CONTINUOUS
 62
     7
  5
49
  0
LINE
  8
7
  6
CONTINUOUS
 62
     7
  5
4A
 10
955166.002
 20
7283584.5
 30
0.0
 11
955106.609
 21
7282683.297
 31
0.0
  0
ARC
  8
7
  6
CONTINUOUS
 62
     7
  5
4B
 10
956225.362611
 20
7282609.567053
 30
0.0
 40
1121.18
 50
176.229478
 51
191.57815
210
0.0
220
0.0
230
1.0
  0
POLYLINE
  8
7
  6
CONTINUOUS
 62
     7
  5
4C
 66
     1
 10
0.0
 20
0.0
 30
0.0
  0
VERTEX
  8
7
  6
CONTINUOUS
 62
     7
  5
4D
 10
956774.37
 20
7278255.023
 30
0.0
  0
VERTEX
  8
7
  6
CONTINUOUS
 62
     7
  5
4E
 10
956778.192
 20
7278378.237
 30
0.0
  0
VERTEX
  8
7
  6
CONTINUOUS
 62
     7
  5
4F
 10
957346.226
 20
7279152.011
 30
0.0
  0
SEQEND
  8
7
  6
CONTINUOUS
 62
     7
  5
50
  0
LINE
  8
6
  6
CONTINUOUS
 62
     7
  5
51
 10
956870.274
 20
7278252.208
 30
0.0
 11
957049.032
 21
7278324.468
 31
0.0
  0
LINE
  8
6
  6
CONTINUOUS
 62
     7
  5
52
 10
957475.604
 20
7278338.759
 30
0.0
 11
957049.032
 21
7278324.468
 31
0.0
  0
POLYLINE
  8
6
  6
CONTINUOUS
 62
     7
  5
53
 66
     1
 10
0.0
 20
0.0
 30
0.0
  0
VERTEX
  8
6
  6
CONTINUOUS
 62
     7
  5
54
 10
958131.427
 20
7278615.366
 30
0.0
  0
VERTEX
  8
6
  6
CONTINUOUS
 62
     7
  5
55
 10
958111.435
 20
7278615.953
 30
0.0
  0
VERTEX
  8
6
  6
CONTINUOUS
 62
     7
  5
56
 10
958108.575
 20
7278518.495
 30
0.0
  0
VERTEX
  8
6
  6
CONTINUOUS
 62
     7
  5
57
 10
957475.604
 20
7278338.759
 30
0.0
  0
SEQEND
  8
6
  6
CONTINUOUS
 62
     7
  5
58
  0
LINE
  8
7
  6
CONTINUOUS
 62
     7
  5
59
 10
957584.799
 20
7279692.776
 30
0.0
 11
957581.425
 21
7279577.826
 31
0.0
  0
LINE
  8
7
  6
CONTINUOUS
 62
     7
  5
5A
 10
957523.97
 20
7279695.783
 30
0.0
 11
957514.454
 21
7279579.791
 31
0.0
  0
LINE
  8
7
  6
CONTINUOUS
 62
     7
  5
5B
 10
957439.486
 20
7279581.991
 30
0.0
 11
957463.205
 21
7279704.449
 31
0.0
  0
LINE
  8
7
  6
CONTINUOUS
 62
     7
  5
5C
 10
957362.63
 20
7279584.247
 30
0.0
 11
957403.087
 21
7279719.235
 31
0.0
  0
LINE
  8
7
  6
CONTINUOUS
 62
     7
  5
5D
 10
957297.028
 20
7279624.353
 30
0.0
 11
957344.743
 21
7279739.945
 31
0.0
  0
LINE
  8
7
  6
CONTINUOUS
 62
     7
  5
5E
 10
957233.039
 20
7279663.473
 30
0.0
 11
957289.225
 21
7279766.122
 31
0.0
  0
ARC
  8
6
  6
CONTINUOUS
 62
     7
  5
5F
 10
957580.991546
 20
7280312.964814
 30
0.0
 40
619.81
 50
238.319625
 51
268.3189
210
0.0
220
0.0
230
1.0
  0
LINE
  8
6
  6
CONTINUOUS
 62
     7
  5
60
 10
957255.48
 20
7279785.512
 30
0.0
 11
957110.437
 21
7279874.183
 31
0.0
  0
POLYLINE
  8
6
  6
CONTINUOUS
 62
     7
  5
61
 66
     1
 10
0.0
 20
0.0
 30
0.0
  0
VERTEX
  8
6
  6
CONTINUOUS
 62
     7
  5
62
 10
958159.177
 20
7279560.869
 30
0.0
  0
VERTEX
  8
6
  6
CONTINUOUS
 62
     7
  5
63
 10
957362.584
 20
7279584.248
 30
0.0
  0
VERTEX
  8
6
  6
CONTINUOUS
 62
     7
  5
64
 10
957049.517
 20
7279775.642
 30
0.0
  0
SEQEND
  8
6
  6
CONTINUOUS
 62
     7
  5
65
  0
LINE
  8
6
  6
CONTINUOUS
 62
     7
  5
66
 10
957162.126
 20
7279911.91
 30
0.0
 11
957230.381
 21
7279870.182
 31
0.0
  0
ARC
  8
6
  6
CONTINUOUS
 62
     7
  5
67
 10
957580.991546
 20
7280312.964814
 30
0.0
 40
559.81
 50
239.890575
 51
268.3189
210
0.0
220
0.0
230
1.0
  0
LINE
  8
6
  6
CONTINUOUS
 62
     7
  5
68
 10
958164.75
 20
7279750.787
 30
0.0
 11
958167.684
 21
7279850.744
 31
0.0
  0
LINE
  8
6
  6
CONTINUOUS
 62
     7
  5
69
 10
958149.317
 20
7279736.234
 30
0.0
 11
957564.569
 21
7279753.396
 31
0.0
  0
LINE
  8
6
  6
CONTINUOUS
 62
     7
  5
6A
 10
958167.684
 20
7279850.744
 30
0.0
 11
957567.942
 21
7279868.346
 31
0.0
  0
LINE
  8
6
  6
CONTINUOUS
 62
     7
  5
6B
 10
958168.271
 20
7279870.736
 30
0.0
 11
957568.529
 21
7279888.338
 31
0.0
  0
LINE
  8
6
  6
CONTINUOUS
 62
     7
  5
6C
 10
958053.394
 20
7279989.157
 30
0.0
 11
957571.903
 21
7280003.288
 31
0.0
  0
LINE
  8
6
  6
CONTINUOUS
 62
     7
  5
6D
 10
958054.861
 20
7280039.135
 30
0.0
 11
957544.511
 21
7280054.114
 31
0.0
  0
LINE
  8
6
  6
CONTINUOUS
 62
     7
  5
6E
 10
958176.485
 20
7280150.615
 30
0.0
 11
958168.271
 21
7279870.736
 31
0.0
  0
LINE
  8
6
  6
CONTINUOUS
 62
     7
  5
6F
 10
958172.378
 20
7280010.675
 30
0.0
 11
958147.389
 21
7280011.409
 31
0.0
  0
ARC
  8
6
  6
CONTINUOUS
 62
     7
  5
70
 10
958097.410247
 20
7280012.875725
 30
0.0
 40
50.0
 50
208.3189
 51
148.3189
210
0.0
220
0.0
230
1.0
  0
LINE
  8
6
  6
CONTINUOUS
 62
     7
  5
71
 10
957428.812
 20
7279872.43
 30
0.0
 11
957567.942
 21
7279868.346
 31
0.0
  0
LINE
  8
6
  6
CONTINUOUS
 62
     7
  5
72
 10
957428.812
 20
7279872.43
 30
0.0
 11
957346.476
 21
7279922.765
 31
0.0
  0
LINE
  8
6
  6
CONTINUOUS
 62
     7
  5
73
 10
957216.893
 20
7280001.495
 30
0.0
 11
957232.551
 21
7279991.923
 31
0.0
  0
LINE
  8
6
  6
CONTINUOUS
 62
     7
  5
74
 10
957234.735
 20
7279990.588
 30
0.0
 11
957302.001
 21
7279949.465
 31
0.0
  0
LINE
  8
6
  6
CONTINUOUS
 62
     7
  5
75
 10
957434.712
 20
7279892.265
 30
0.0
 11
957361.22
 21
7279937.193
 31
0.0
  0
LINE
  8
6
  6
CONTINUOUS
 62
     7
  5
76
 10
957434.712
 20
7279892.265
 30
0.0
 11
957568.529
 21
7279888.338
 31
0.0
  0
LINE
  8
6
  6
CONTINUOUS
 62
     7
  5
77
 10
957543.044
 20
7280004.135
 30
0.0
 11
957571.903
 21
7280003.288
 31
0.0
  0
LINE
  8
6
  6
CONTINUOUS
 62
     7
  5
78
 10
957251.003
 20
7279875.156
 30
0.0
 11
957270.338
 21
7279906.783
 31
0.0
  0
LINE
  8
6
  6
CONTINUOUS
 62
     7
  5
79
 10
957294.888
 20
7279849.491
 30
0.0
 11
957314.149
 21
7279880.997
 31
0.0
  0
ARC
  8
6
  6
CONTINUOUS
 62
     7
  5
7A
 10
957535.422304
 20
7279744.436958
 30
0.0
 40
259.81
 50
136.655947
 51
148.3189
210
0.0
220
0.0
230
1.0
  0
ARC
  8
6
  6
CONTINUOUS
 62
     7
  5
7B
 10
957535.422304
 20
7279744.436958
 30
0.0
 40
259.81
 50
88.3189
 51
132.105467
210
0.0
220
0.0
230
1.0
  0
ARC
  8
6
  6
CONTINUOUS
 62
     7
  5
7C
 10
957535.422304
 20
7279744.436958
 30
0.0
 40
310.68
 50
138.705233
 51
148.3189
210
0.0
220
0.0
230
1.0
  0
ARC
  8
6
  6
CONTINUOUS
 62
     7
  5
7D
 10
957535.422304
 20
7279744.436958
 30
0.0
 40
309.81
 50
88.3189
 51
134.981836
210
0.0
220
0.0
230
1.0
  0
LINE
  8
6
  6
CONTINUOUS
 62
     7
  5
7E
 10
957224.673
 20
7280020.196
 30
0.0
 11
957223.202
 21
7280036.169
 31
0.0
  0
LINE
  8
6
  6
CONTINUOUS
 62
     7
  5
7F
 10
957316.423
 20
7279963.575
 30
0.0
 11
957224.673
 21
7280020.196
 31
0.0
  0
LINE
  8
7
  6
CONTINUOUS
 62
     7
  5
80
 10
957646.772
 20
7279690.957
 30
0.0
 11
957643.399
 21
7279576.007
 31
0.0
  0
LINE
  8
7
  6
CONTINUOUS
 62
     7
  5
81
 10
957709.745
 20
7279689.109
 30
0.0
 11
957706.372
 21
7279574.159
 31
0.0
  0
LINE
  8
7
  6
CONTINUOUS
 62
     7
  5
82
 10
957772.718
 20
7279687.261
 30
0.0
 11
957769.344
 21
7279572.31
 31
0.0
  0
LINE
  8
7
  6
CONTINUOUS
 62
     7
  5
83
 10
957835.691
 20
7279685.413
 30
0.0
 11
957832.317
 21
7279570.462
 31
0.0
  0
LINE
  8
7
  6
CONTINUOUS
 62
     7
  5
84
 10
957898.664
 20
7279683.565
 30
0.0
 11
957895.29
 21
7279568.614
 31
0.0
  0
LINE
  8
7
  6
CONTINUOUS
 62
     7
  5
85
 10
957961.637
 20
7279681.716
 30
0.0
 11
957958.263
 21
7279566.766
 31
0.0
  0
LINE
  8
7
  6
CONTINUOUS
 62
     7
  5
86
 10
958024.61
 20
7279679.868
 30
0.0
 11
958021.236
 21
7279564.918
 31
0.0
  0
LINE
  8
7
  6
CONTINUOUS
 62
     7
  5
87
 10
958087.583
 20
7279678.02
 30
0.0
 11
958084.209
 21
7279563.069
 31
0.0
  0
LINE
  8
7
  6
CONTINUOUS
 62
     7
  5
88
 10
957169.037
 20
7279702.573
 30
0.0
 11
957229.021
 21
7279800.691
 31
0.0
  0
LINE
  8
7
  6
CONTINUOUS
 62
     7
  5
89
 10
957109.314
 20
7279739.085
 30
0.0
 11
957169.297
 21
7279837.203
 31
0.0
  0
LINE
  8
7
  6
CONTINUOUS
 62
     7
  5
8A
 10
958092.716
 20
7279852.945
 30
0.0
 11
958089.343
 21
7279737.994
 31
0.0
  0
LINE
  8
7
  6
CONTINUOUS
 62
     7
  5
8B
 10
958028.744
 20
7279854.822
 30
0.0
 11
958025.37
 21
7279739.872
 31
0.0
  0
LINE
  8
7
  6
CONTINUOUS
 62
     7
  5
8C
 10
957964.771
 20
7279856.7
 30
0.0
 11
957961.398
 21
7279741.749
 31
0.0
  0
LINE
  8
7
  6
CONTINUOUS
 62
     7
  5
8D
 10
957900.799
 20
7279858.577
 30
0.0
 11
957897.425
 21
7279743.627
 31
0.0
  0
LINE
  8
7
  6
CONTINUOUS
 62
     7
  5
8E
 10
957836.827
 20
7279860.455
 30
0.0
 11
957833.453
 21
7279745.504
 31
0.0
  0
LINE
  8
7
  6
CONTINUOUS
 62
     7
  5
8F
 10
957772.854
 20
7279862.332
 30
0.0
 11
957769.48
 21
7279747.382
 31
0.0
  0
LINE
  8
7
  6
CONTINUOUS
 62
     7
  5
90
 10
957710.881
 20
7279864.151
 30
0.0
 11
957707.507
 21
7279749.201
 31
0.0
  0
LINE
  8
7
  6
CONTINUOUS
 62
     7
  5
91
 10
957648.908
 20
7279865.97
 30
0.0
 11
957645.534
 21
7279751.02
 31
0.0
  0
LINE
  8
7
  6
CONTINUOUS
 62
     7
  5
92
 10
957586.934
 20
7279867.789
 30
0.0
 11
957583.56
 21
7279752.838
 31
0.0
  0
LINE
  8
7
  6
CONTINUOUS
 62
     7
  5
93
 10
957513.612
 20
7279757.224
 30
0.0
 11
957528.769
 21
7279869.496
 31
0.0
  0
LINE
  8
7
  6
CONTINUOUS
 62
     7
  5
94
 10
957435.133
 20
7279772.49
 30
0.0
 11
957478.791
 21
7279870.963
 31
0.0
  0
LINE
  8
7
  6
CONTINUOUS
 62
     7
  5
95
 10
957359.629
 20
7279798.781
 30
0.0
 11
957428.812
 21
7279872.43
 31
0.0
  0
LINE
  8
7
  6
CONTINUOUS
 62
     7
  5
96
 10
958093.303
 20
7279872.936
 30
0.0
 11
958095.943
 21
7279962.897
 31
0.0
  0
LINE
  8
7
  6
CONTINUOUS
 62
     7
  5
97
 10
958023.333
 20
7279874.99
 30
0.0
 11
958026.707
 21
7279989.94
 31
0.0
  0
LINE
  8
7
  6
CONTINUOUS
 62
     7
  5
98
 10
957958.361
 20
7279876.896
 30
0.0
 11
957961.735
 21
7279991.847
 31
0.0
  0
LINE
  8
7
  6
CONTINUOUS
 62
     7
  5
99
 10
957893.389
 20
7279878.803
 30
0.0
 11
957896.763
 21
7279993.754
 31
0.0
  0
LINE
  8
7
  6
CONTINUOUS
 62
     7
  5
9A
 10
957828.417
 20
7279880.71
 30
0.0
 11
957831.791
 21
7279995.661
 31
0.0
  0
LINE
  8
7
  6
CONTINUOUS
 62
     7
  5
9B
 10
957763.445
 20
7279882.617
 30
0.0
 11
957766.819
 21
7279997.568
 31
0.0
  0
LINE
  8
7
  6
CONTINUOUS
 62
     7
  5
9C
 10
957698.473
 20
7279884.524
 30
0.0
 11
957701.847
 21
7279999.474
 31
0.0
  0
LINE
  8
7
  6
CONTINUOUS
 62
     7
  5
9D
 10
957633.501
 20
7279886.431
 30
0.0
 11
957636.875
 21
7280001.381
 31
0.0
  0
LINE
  8
7
  6
CONTINUOUS
 62
     7
  5
9E
 10
957568.529
 20
7279888.338
 30
0.0
 11
957571.903
 21
7280003.288
 31
0.0
  0
LINE
  8
7
  6
CONTINUOUS
 62
     7
  5
9F
 10
957498.559
 20
7279890.391
 30
0.0
 11
957501.837
 21
7280002.067
 31
0.0
  0
LINE
  8
6
  6
CONTINUOUS
 62
     7
  5
A0
 10
958176.485
 20
7280150.615
 30
0.0
 11
957547.885
 21
7280169.064
 31
0.0
  0
LINE
  8
6
  6
CONTINUOUS
 62
     7
  5
A1
 10
958058.822
 20
7280174.077
 30
0.0
 11
957548.471
 21
7280189.056
 31
0.0
  0
POLYLINE
  8
6
  6
CONTINUOUS
 62
     7
  5
A2
 66
     1
 10
0.0
 20
0.0
 30
0.0
  0
VERTEX
  8
6
  6
CONTINUOUS
 62
     7
  5
A3
 10
957223.202
 20
7280036.169
 30
0.0
  0
VERTEX
  8
6
  6
CONTINUOUS
 62
     7
  5
A4
 10
957290.456
 20
7280096.656
 30
0.0
  0
VERTEX
  8
6
  6
CONTINUOUS
 62
     7
  5
A5
 10
957403.427
 20
7280147.977
 30
0.0
  0
VERTEX
  8
6
  6
CONTINUOUS
 62
     7
  5
A6
 10
957547.885
 20
7280169.064
 30
0.0
  0
SEQEND
  8
6
  6
CONTINUOUS
 62
     7
  5
A7
  0
POLYLINE
  8
6
  6
CONTINUOUS
 62
     7
  5
A8
 66
     1
 10
0.0
 20
0.0
 30
0.0
  0
VERTEX
  8
6
  6
CONTINUOUS
 62
     7
  5
A9
 10
957181.105
 20
7280023.583
 30
0.0
  0
VERTEX
  8
6
  6
CONTINUOUS
 62
     7
  5
AA
 10
957281.121
 20
7280113.538
 30
0.0
  0
VERTEX
  8
6
  6
CONTINUOUS
 62
     7
  5
AB
 10
957399.48
 20
7280167.307
 30
0.0
  0
VERTEX
  8
6
  6
CONTINUOUS
 62
     7
  5
AC
 10
957548.471
 20
7280189.056
 30
0.0
  0
SEQEND
  8
6
  6
CONTINUOUS
 62
     7
  5
AD
  0
LINE
  8
7
  6
CONTINUOUS
 62
     7
  5
AE
 10
958101.517
 20
7280152.815
 30
0.0
 11
958098.877
 21
7280062.854
 31
0.0
  0
LINE
  8
7
  6
CONTINUOUS
 62
     7
  5
AF
 10
958036.545
 20
7280154.722
 30
0.0
 11
958033.172
 21
7280039.772
 31
0.0
  0
LINE
  8
7
  6
CONTINUOUS
 62
     7
  5
B0
 10
957971.573
 20
7280156.629
 30
0.0
 11
957968.2
 21
7280041.679
 31
0.0
  0
LINE
  8
7
  6
CONTINUOUS
 62
     7
  5
B1
 10
957906.601
 20
7280158.536
 30
0.0
 11
957903.228
 21
7280043.586
 31
0.0
  0
LINE
  8
7
  6
CONTINUOUS
 62
     7
  5
B2
 10
957842.629
 20
7280160.414
 30
0.0
 11
957839.255
 21
7280045.463
 31
0.0
  0
LINE
  8
7
  6
CONTINUOUS
 62
     7
  5
B3
 10
957778.656
 20
7280162.291
 30
0.0
 11
957775.283
 21
7280047.341
 31
0.0
  0
LINE
  8
7
  6
CONTINUOUS
 62
     7
  5
B4
 10
957714.684
 20
7280164.169
 30
0.0
 11
957711.31
 21
7280049.218
 31
0.0
  0
LINE
  8
7
  6
CONTINUOUS
 62
     7
  5
B5
 10
957650.711
 20
7280166.046
 30
0.0
 11
957647.338
 21
7280051.096
 31
0.0
  0
LINE
  8
7
  6
CONTINUOUS
 62
     7
  5
B6
 10
957586.739
 20
7280167.924
 30
0.0
 11
957583.365
 21
7280052.973
 31
0.0
  0
LINE
  8
7
  6
CONTINUOUS
 62
     7
  5
B7
 10
957520.943
 20
7280053.908
 30
0.0
 11
957515.9
 21
7280164.395
 31
0.0
  0
LINE
  8
7
  6
CONTINUOUS
 62
     7
  5
B8
 10
957463.993
 20
7280045.9
 30
0.0
 11
957438.718
 21
7280153.129
 31
0.0
  0
LINE
  8
7
  6
CONTINUOUS
 62
     7
  5
B9
 10
957410.047
 20
7280027.745
 30
0.0
 11
957361.473
 21
7280128.919
 31
0.0
  0
LINE
  8
7
  6
CONTINUOUS
 62
     7
  5
BA
 10
957358.318
 20
7279998.635
 30
0.0
 11
957290.456
 21
7280096.656
 31
0.0
  0
ARC
  8
6
  6
CONTINUOUS
 62
     7
  5
BB
 10
958084.995735
 20
7280612.498006
 30
0.0
 40
50.0
 50
212.374697
 51
144.263103
210
0.0
220
0.0
230
1.0
  0
LINE
  8
7
  6
CONTINUOUS
 62
     7
  5
BC
 10
958103.104
 20
7280172.778
 30
0.0
 11
958106.404
 21
7280285.229
 31
0.0
  0
LINE
  8
7
  6
CONTINUOUS
 62
     7
  5
BD
 10
958037.132
 20
7280174.714
 30
0.0
 11
958040.432
 21
7280287.165
 31
0.0
  0
LINE
  8
7
  6
CONTINUOUS
 62
     7
  5
BE
 10
957971.16
 20
7280176.65
 30
0.0
 11
957974.461
 21
7280289.102
 31
0.0
  0
LINE
  8
7
  6
CONTINUOUS
 62
     7
  5
BF
 10
957905.189
 20
7280178.586
 30
0.0
 11
957908.489
 21
7280291.038
 31
0.0
  0
LINE
  8
7
  6
CONTINUOUS
 62
     7
  5
C0
 10
957839.217
 20
7280180.522
 30
0.0
 11
957842.518
 21
7280292.974
 31
0.0
  0
LINE
  8
7
  6
CONTINUOUS
 62
     7
  5
C1
 10
957773.246
 20
7280182.459
 30
0.0
 11
957776.546
 21
7280294.91
 31
0.0
  0
LINE
  8
7
  6
CONTINUOUS
 62
     7
  5
C2
 10
957707.274
 20
7280184.395
 30
0.0
 11
957710.574
 21
7280296.846
 31
0.0
  0
LINE
  8
7
  6
CONTINUOUS
 62
     7
  5
C3
 10
957642.302
 20
7280186.302
 30
0.0
 11
957645.602
 21
7280298.753
 31
0.0
  0
LINE
  8
7
  6
CONTINUOUS
 62
     7
  5
C4
 10
957577.33
 20
7280188.209
 30
0.0
 11
957580.63
 21
7280300.66
 31
0.0
  0
LINE
  8
7
  6
CONTINUOUS
 62
     7
  5
C5
 10
958108.047
 20
7280341.205
 30
0.0
 11
958111.347
 21
7280453.657
 31
0.0
  0
LINE
  8
7
  6
CONTINUOUS
 62
     7
  5
C6
 10
958042.075
 20
7280343.141
 30
0.0
 11
958045.376
 21
7280455.593
 31
0.0
  0
LINE
  8
7
  6
CONTINUOUS
 62
     7
  5
C7
 10
957976.104
 20
7280345.077
 30
0.0
 11
957979.404
 21
7280457.529
 31
0.0
  0
LINE
  8
7
  6
CONTINUOUS
 62
     7
  5
C8
 10
957910.132
 20
7280347.014
 30
0.0
 11
957913.432
 21
7280459.465
 31
0.0
  0
LINE
  8
7
  6
CONTINUOUS
 62
     7
  5
C9
 10
957844.16
 20
7280348.95
 30
0.0
 11
957847.461
 21
7280461.401
 31
0.0
  0
LINE
  8
7
  6
CONTINUOUS
 62
     7
  5
CA
 10
957778.189
 20
7280350.886
 30
0.0
 11
957781.489
 21
7280463.338
 31
0.0
  0
LINE
  8
7
  6
CONTINUOUS
 62
     7
  5
CB
 10
957712.217
 20
7280352.822
 30
0.0
 11
957715.518
 21
7280465.274
 31
0.0
  0
LINE
  8
7
  6
CONTINUOUS
 62
     7
  5
CC
 10
957646.246
 20
7280354.758
 30
0.0
 11
957649.546
 21
7280467.21
 31
0.0
  0
LINE
  8
7
  6
CONTINUOUS
 62
     7
  5
CD
 10
958111.934
 20
7280473.648
 30
0.0
 11
958114.832
 21
7280572.375
 31
0.0
  0
LINE
  8
7
  6
CONTINUOUS
 62
     7
  5
CE
 10
958045.962
 20
7280475.584
 30
0.0
 11
958048.963
 21
7280577.833
 31
0.0
  0
LINE
  8
7
  6
CONTINUOUS
 62
     7
  5
CF
 10
957979.991
 20
7280477.52
 30
0.0
 11
957983.218
 21
7280587.473
 31
0.0
  0
LINE
  8
7
  6
CONTINUOUS
 62
     7
  5
D0
 10
957914.019
 20
7280479.457
 30
0.0
 11
957917.246
 21
7280589.409
 31
0.0
  0
LINE
  8
7
  6
CONTINUOUS
 62
     7
  5
D1
 10
957848.048
 20
7280481.393
 30
0.0
 11
957851.275
 21
7280591.345
 31
0.0
  0
LINE
  8
7
  6
CONTINUOUS
 62
     7
  5
D2
 10
957782.076
 20
7280483.329
 30
0.0
 11
957785.303
 21
7280593.282
 31
0.0
  0
LINE
  8
7
  6
CONTINUOUS
 62
     7
  5
D3
 10
957716.104
 20
7280485.265
 30
0.0
 11
957719.331
 21
7280595.218
 31
0.0
  0
LINE
  8
7
  6
CONTINUOUS
 62
     7
  5
D4
 10
957650.133
 20
7280487.201
 30
0.0
 11
957653.36
 21
7280597.154
 31
0.0
  0
LINE
  8
7
  6
CONTINUOUS
 62
     7
  5
D5
 10
958189.951
 20
7280609.418
 30
0.0
 11
958134.974
 21
7280611.031
 31
0.0
  0
LINE
  8
7
  6
CONTINUOUS
 62
     7
  5
D6
 10
958120.031
 20
7280749.529
 30
0.0
 11
958117.133
 21
7280650.802
 31
0.0
  0
LINE
  8
7
  6
CONTINUOUS
 62
     7
  5
D7
 10
958054.059
 20
7280751.465
 30
0.0
 11
958051.058
 21
7280649.216
 31
0.0
  0
LINE
  8
7
  6
CONTINUOUS
 62
     7
  5
D8
 10
957988.088
 20
7280753.402
 30
0.0
 11
957984.861
 21
7280643.449
 31
0.0
  0
LINE
  8
7
  6
CONTINUOUS
 62
     7
  5
D9
 10
957922.116
 20
7280755.338
 30
0.0
 11
957918.889
 21
7280645.385
 31
0.0
  0
LINE
  8
7
  6
CONTINUOUS
 62
     7
  5
DA
 10
957856.144
 20
7280757.274
 30
0.0
 11
957852.917
 21
7280647.321
 31
0.0
  0
LINE
  8
7
  6
CONTINUOUS
 62
     7
  5
DB
 10
957790.173
 20
7280759.21
 30
0.0
 11
957786.946
 21
7280649.258
 31
0.0
  0
LINE
  8
7
  6
CONTINUOUS
 62
     7
  5
DC
 10
957724.201
 20
7280761.146
 30
0.0
 11
957720.974
 21
7280651.194
 31
0.0
  0
LINE
  8
7
  6
CONTINUOUS
 62
     7
  5
DD
 10
957658.23
 20
7280763.083
 30
0.0
 11
957655.003
 21
7280653.13
 31
0.0
  0
LINE
  8
7
  6
CONTINUOUS
 62
     7
  5
DE
 10
957593.258
 20
7280764.99
 30
0.0
 11
957590.031
 21
7280655.037
 31
0.0
  0
LINE
  8
7
  6
CONTINUOUS
 62
     7
  5
DF
 10
958129.614
 20
7280769.257
 30
0.0
 11
958132.899
 21
7280881.208
 31
0.0
  0
LINE
  8
7
  6
CONTINUOUS
 62
     7
  5
E0
 10
958069.64
 20
7280771.017
 30
0.0
 11
958072.925
 21
7280882.969
 31
0.0
  0
LINE
  8
7
  6
CONTINUOUS
 62
     7
  5
E1
 10
958009.665
 20
7280772.777
 30
0.0
 11
958012.951
 21
7280884.729
 31
0.0
  0
LINE
  8
7
  6
CONTINUOUS
 62
     7
  5
E2
 10
957949.691
 20
7280774.537
 30
0.0
 11
957952.977
 21
7280886.489
 31
0.0
  0
LINE
  8
7
  6
CONTINUOUS
 62
     7
  5
E3
 10
957889.717
 20
7280776.297
 30
0.0
 11
957893.003
 21
7280888.249
 31
0.0
  0
LINE
  8
7
  6
CONTINUOUS
 62
     7
  5
E4
 10
957829.743
 20
7280778.057
 30
0.0
 11
957833.029
 21
7280890.009
 31
0.0
  0
LINE
  8
7
  6
CONTINUOUS
 62
     7
  5
E5
 10
957769.769
 20
7280779.818
 30
0.0
 11
957773.054
 21
7280891.769
 31
0.0
  0
LINE
  8
7
  6
CONTINUOUS
 62
     7
  5
E6
 10
957709.794
 20
7280781.578
 30
0.0
 11
957713.08
 21
7280893.53
 31
0.0
  0
LINE
  8
7
  6
CONTINUOUS
 62
     7
  5
E7
 10
957649.82
 20
7280783.338
 30
0.0
 11
957653.106
 21
7280895.29
 31
0.0
  0
LINE
  8
7
  6
CONTINUOUS
 62
     7
  5
E8
 10
958134.66
 20
7280941.183
 30
0.0
 11
958137.945
 21
7281053.134
 31
0.0
  0
LINE
  8
7
  6
CONTINUOUS
 62
     7
  5
E9
 10
958074.685
 20
7280942.943
 30
0.0
 11
958077.971
 21
7281054.894
 31
0.0
  0
LINE
  8
7
  6
CONTINUOUS
 62
     7
  5
EA
 10
958014.711
 20
7280944.703
 30
0.0
 11
958017.997
 21
7281056.655
 31
0.0
  0
LINE
  8
7
  6
CONTINUOUS
 62
     7
  5
EB
 10
957954.737
 20
7280946.463
 30
0.0
 11
957958.023
 21
7281058.415
 31
0.0
  0
LINE
  8
7
  6
CONTINUOUS
 62
     7
  5
EC
 10
957894.763
 20
7280948.223
 30
0.0
 11
957898.049
 21
7281060.175
 31
0.0
  0
LINE
  8
7
  6
CONTINUOUS
 62
     7
  5
ED
 10
957834.789
 20
7280949.983
 30
0.0
 11
957838.074
 21
7281061.935
 31
0.0
  0
LINE
  8
7
  6
CONTINUOUS
 62
     7
  5
EE
 10
957774.815
 20
7280951.744
 30
0.0
 11
957778.1
 21
7281063.695
 31
0.0
  0
LINE
  8
7
  6
CONTINUOUS
 62
     7
  5
EF
 10
957714.84
 20
7280953.504
 30
0.0
 11
957718.126
 21
7281065.456
 31
0.0
  0
LINE
  8
7
  6
CONTINUOUS
 62
     7
  5
F0
 10
957654.866
 20
7280955.264
 30
0.0
 11
957658.152
 21
7281067.216
 31
0.0
  0
LINE
  8
7
  6
CONTINUOUS
 62
     7
  5
F1
 10
957594.892
 20
7280957.024
 30
0.0
 11
957598.178
 21
7281068.976
 31
0.0
  0
LINE
  8
6
  6
CONTINUOUS
 62
     7
  5
F2
 10
958203.504
 20
7281071.219
 30
0.0
 11
957538.79
 21
7281090.728
 31
0.0
  0
POLYLINE
  8
6
  6
CONTINUOUS
 62
     7
  5
F3
 66
     1
 10
0.0
 20
0.0
 30
0.0
  0
VERTEX
  8
6
  6
CONTINUOUS
 62
     7
  5
F4
 10
958147.066
 20
7279148.237
 30
0.0
  0
VERTEX
  8
6
  6
CONTINUOUS
 62
     7
  5
F5
 10
957967.144
 20
7279153.517
 30
0.0
  0
VERTEX
  8
6
  6
CONTINUOUS
 62
     7
  5
F6
 10
957968.904
 20
7279213.492
 30
0.0
  0
VERTEX
  8
6
  6
CONTINUOUS
 62
     7
  5
F7
 10
958133.833
 20
7279208.651
 30
0.0
  0
SEQEND
  8
6
  6
CONTINUOUS
 62
     7
  5
F8
  0
LINE
  8
6
  6
CONTINUOUS
 62
     7
  5
F9
 10
958149.266
 20
7279223.205
 30
0.0
 11
958158.59
 21
7279540.878
 31
0.0
  0
LINE
  8
6
  6
CONTINUOUS
 62
     7
  5
FA
 10
958147.066
 20
7279148.237
 30
0.0
 11
958131.427
 21
7278615.366
 31
0.0
  0
LINE
  8
6
  6
CONTINUOUS
 62
     7
  5
FB
 10
957705.967
 20
7281855.024
 30
0.0
 11
958208.307
 21
7281841.533
 31
0.0
  0
LINE
  8
6
  6
CONTINUOUS
 62
     7
  5
FC
 10
958223.741
 20
7281856.087
 30
0.0
 11
958226.821
 21
7281961.041
 31
0.0
  0
LINE
  8
6
  6
CONTINUOUS
 62
     7
  5
FD
 10
958262.541
 20
7283178.087
 30
0.0
 11
958235.916
 21
7282270.908
 31
0.0
  0
ARC
  8
6
  6
CONTINUOUS
 62
     7
  5
FE
 10
957710.312132
 20
7282003.090093
 30
0.0
 40
148.13
 50
203.677328
 51
268.3189
210
0.0
220
0.0
230
1.0
  0
ARC
  8
6
  6
CONTINUOUS
 62
     7
  5
FF
 10
957710.163175
 20
7282003.434611
 30
0.0
 40
208.13
 50
203.677328
 51
268.3189
210
0.0
220
0.0
230
1.0
  0
LINE
  8
6
  6
CONTINUOUS
 62
     7
  5
100
 10
957162.098
 20
7282900.672
 30
0.0
 11
957806.809
 21
7283183.822
 31
0.0
  0
LINE
  8
6
  6
CONTINUOUS
 62
     7
  5
101
 10
957151.713
 20
7282961.643
 30
0.0
 11
957782.682
 21
7283238.758
 31
0.0
  0
POLYLINE
  8
6
  6
CONTINUOUS
 62
     7
  5
102
 66
     1
 10
0.0
 20
0.0
 30
0.0
210
0.0
220
0.0
230
1.0
  0
VERTEX
  8
6
  6
CONTINUOUS
 62
     7
  5
103
 10
957806.809225
 20
7283183.822438
 30
0.0
 42
-0.048549
  0
VERTEX
  8
6
  6
CONTINUOUS
 62
     7
  5
104
 10
957863.910211
 20
7283199.189202
 30
0.0
 42
-0.049485
  0
VERTEX
  8
6
  6
CONTINUOUS
 62
     7
  5
105
 10
957922.347359
 20
7283203.077939
 30
0.0
 42
-0.049485
  0
SEQEND
  8
6
  6
CONTINUOUS
 62
     7
  5
106
  0
POLYLINE
  8
6
  6
CONTINUOUS
 62
     7
  5
107
 66
     1
 10
0.0
 20
0.0
 30
0.0
210
0.0
220
0.0
230
1.0
  0
VERTEX
  8
6
  6
CONTINUOUS
 62
     7
  5
108
 10
957782.682445
 20
7283238.757832
 30
0.0
 42
-0.05131
  0
VERTEX
  8
6
  6
CONTINUOUS
 62
     7
  5
109
 10
957852.44146
 20
7283258.315885
 30
0.0
 42
-0.052202
  0
VERTEX
  8
6
  6
CONTINUOUS
 62
     7
  5
10A
 10
957924.107531
 20
7283263.052068
 30
0.0
 42
-0.052202
  0
SEQEND
  8
6
  6
CONTINUOUS
 62
     7
  5
10B
  0
LINE
  8
6
  6
CONTINUOUS
 62
     7
  5
10C
 10
957131.944
 20
7282969.353
 30
0.0
 11
957069.702
 21
7283111.297
 31
0.0
  0
LINE
  8
6
  6
CONTINUOUS
 62
     7
  5
10D
 10
956818.549
 20
7283424.924
 30
0.0
 11
956705.153
 21
7283569.922
 31
0.0
  0
ARC
  8
6
  6
CONTINUOUS
 62
     7
  5
10E
 10
955557.025495
 20
7282459.250365
 30
0.0
 40
1588.7
 50
23.318867
 51
37.433414
210
0.0
220
0.0
230
1.0
  0
ARC
  8
6
  6
CONTINUOUS
 62
     7
  5
10F
 10
955557.025495
 20
7282459.250365
 30
0.0
 40
1648.7
 50
23.318867
 51
37.433414
210
0.0
220
0.0
230
1.0
  0
LINE
  8
6
  6
CONTINUOUS
 62
     7
  5
110
 10
956865.812
 20
7283461.887
 30
0.0
 11
956783.111
 21
7283567.634
 31
0.0
  0
LINE
  8
6
  6
CONTINUOUS
 62
     7
  5
111
 10
957935.048
 20
7282259.73
 30
0.0
 11
957589.22
 21
7282268.627
 31
0.0
  0
LINE
  8
6
  6
CONTINUOUS
 62
     7
  5
112
 10
957458.783
 20
7282212.401
 30
0.0
 11
957589.22
 21
7282268.627
 31
0.0
  0
LINE
  8
6
  6
CONTINUOUS
 62
     7
  5
113
 10
957450.867
 20
7282230.767
 30
0.0
 11
957585.375
 21
7282288.748
 31
0.0
  0
LINE
  8
6
  6
CONTINUOUS
 62
     7
  5
114
 10
958235.916
 20
7282270.908
 30
0.0
 11
957585.375
 21
7282288.748
 31
0.0
  0
LINE
  8
6
  6
CONTINUOUS
 62
     7
  5
115
 10
957574.652
 20
7281943.603
 30
0.0
 11
957458.783
 21
7282212.401
 31
0.0
  0
LINE
  8
6
  6
CONTINUOUS
 62
     7
  5
116
 10
957450.867
 20
7282230.767
 30
0.0
 11
957162.098
 21
7282900.672
 31
0.0
  0
LINE
  8
6
  6
CONTINUOUS
 62
     7
  5
117
 10
957214.75
 20
7282626.956
 30
0.0
 11
956588.456
 21
7282356.986
 31
0.0
  0
LINE
  8
6
  6
CONTINUOUS
 62
     7
  5
118
 10
956829.134
 20
7281798.65
 30
0.0
 11
956588.456
 21
7282356.986
 31
0.0
  0
LINE
  8
6
  6
CONTINUOUS
 62
     7
  5
119
 10
957519.553
 20
7281919.852
 30
0.0
 11
957232.563
 21
7282585.631
 31
0.0
  0
LINE
  8
6
  6
CONTINUOUS
 62
     7
  5
11A
 10
957214.75
 20
7282626.956
 30
0.0
 11
957015.955
 21
7283088.134
 31
0.0
  0
ARC
  8
6
  6
CONTINUOUS
 62
     7
  5
11B
 10
957145.681404
 20
7282975.376712
 30
0.0
 40
15.0
 50
203.677139
 51
293.710836
210
0.0
220
0.0
230
1.0
  0
LINE
  8
6
  6
CONTINUOUS
 62
     7
  5
11C
 10
958272.727
 20
7283525.168
 30
0.0
 11
958265.181
 21
7283268.049
 31
0.0
  0
ARC
  8
6
  6
CONTINUOUS
 62
     7
  5
11D
 10
958250.187387
 20
7283268.488371
 30
0.0
 40
15.0
 50
268.3189
 51
358.3189
210
0.0
220
0.0
230
1.0
  0
ARC
  8
6
  6
CONTINUOUS
 62
     7
  5
11E
 10
958247.547101
 20
7283178.527108
 30
0.0
 40
15.0
 50
358.3189
 51
88.3189
210
0.0
220
0.0
230
1.0
  0
ARC
  8
6
  6
CONTINUOUS
 62
     7
  5
11F
 10
958208.747499
 20
7281856.526353
 30
0.0
 40
15.0
 50
268.3189
 51
358.3189
210
0.0
220
0.0
230
1.0
  0
LINE
  8
6
  6
CONTINUOUS
 62
     7
  5
120
 10
958206.557
 20
7281781.899
 30
0.0
 11
957704.057
 21
7281795.394
 31
0.0
  0
LINE
  8
6
  6
CONTINUOUS
 62
     7
  5
121
 10
958203.504
 20
7281071.219
 30
0.0
 11
958221.101
 21
7281766.125
 31
0.0
  0
ARC
  8
6
  6
CONTINUOUS
 62
     7
  5
122
 10
958206.107212
 20
7281766.56509
 30
0.0
 40
15.0
 50
358.3189
 51
88.3189
210
0.0
220
0.0
230
1.0
  0
ARC
  8
6
  6
CONTINUOUS
 62
     7
  5
123
 10
958185.078098
 20
7280954.709229
 30
0.0
 40
15.0
 50
268.3189
 51
358.3189
210
0.0
220
0.0
230
1.0
  0
LINE
  8
6
  6
CONTINUOUS
 62
     7
  5
124
 10
958197.431
 20
7280864.308
 30
0.0
 11
958194.586
 21
7280767.35
 31
0.0
  0
ARC
  8
6
  6
CONTINUOUS
 62
     7
  5
125
 10
958182.437811
 20
7280864.747965
 30
0.0
 40
15.0
 50
358.3189
 51
88.3189
210
0.0
220
0.0
230
1.0
  0
ARC
  8
6
  6
CONTINUOUS
 62
     7
  5
126
 10
958167.461518
 20
7280354.467689
 30
0.0
 40
15.0
 50
268.3189
 51
358.3189
210
0.0
220
0.0
230
1.0
  0
POLYLINE
  8
6
  6
CONTINUOUS
 62
     7
  5
127
 66
     1
 10
0.0
 20
0.0
 30
0.0
  0
VERTEX
  8
6
  6
CONTINUOUS
 62
     7
  5
128
 10
958058.822
 20
7280174.077
 30
0.0
  0
VERTEX
  8
6
  6
CONTINUOUS
 62
     7
  5
129
 10
958177.072
 20
7280170.607
 30
0.0
  0
VERTEX
  8
6
  6
CONTINUOUS
 62
     7
  5
12A
 10
958179.932
 20
7280268.065
 30
0.0
  0
SEQEND
  8
6
  6
CONTINUOUS
 62
     7
  5
12B
  0
ARC
  8
6
  6
CONTINUOUS
 62
     7
  5
12C
 10
958164.938577
 20
7280268.504704
 30
0.0
 40
15.0
 50
358.3189
 51
88.3189
210
0.0
220
0.0
230
1.0
  0
ARC
  8
6
  6
CONTINUOUS
 62
     7
  5
12D
 10
958149.756928
 20
7279751.22744
 30
0.0
 40
15.0
 50
268.3189
 51
358.3189
210
0.0
220
0.0
230
1.0
  0
LINE
  8
6
  6
CONTINUOUS
 62
     7
  5
12E
 10
958147.557
 20
7279676.26
 30
0.0
 11
957562.808
 21
7279693.422
 31
0.0
  0
LINE
  8
6
  6
CONTINUOUS
 62
     7
  5
12F
 10
958159.177
 20
7279560.869
 30
0.0
 11
958162.11
 21
7279660.826
 31
0.0
  0
ARC
  8
6
  6
CONTINUOUS
 62
     7
  5
130
 10
958147.116641
 20
7279661.266177
 30
0.0
 40
15.0
 50
358.3189
 51
88.3189
210
0.0
220
0.0
230
1.0
  0
ARC
  8
6
  6
CONTINUOUS
 62
     7
  5
131
 10
957238.205141
 20
7279882.980083
 30
0.0
 40
15.0
 50
238.559836
 51
328.560342
210
0.0
220
0.0
230
1.0
  0
ARC
  8
6
  6
CONTINUOUS
 62
     7
  5
132
 10
957307.685957
 20
7279841.666616
 30
0.0
 40
15.0
 50
148.560917
 51
239.890575
210
0.0
220
0.0
230
1.0
  0
LINE
  8
7
  6
CONTINUOUS
 62
     7
  5
133
 10
957968.904
 20
7279213.492
 30
0.0
 11
957978.667
 21
7279546.158
 31
0.0
  0
LINE
  8
7
  6
CONTINUOUS
 62
     7
  5
134
 10
957045.553
 20
7278742.437
 30
0.0
 11
957329.492
 21
7278333.864
 31
0.0
  0
LINE
  8
7
  6
CONTINUOUS
 62
     7
  5
135
 10
957882.995
 20
7278672.479
 30
0.0
 11
957876.542
 21
7278452.608
 31
0.0
  0
LINE
  8
7
  6
CONTINUOUS
 62
     7
  5
136
 10
957882.995
 20
7278672.479
 30
0.0
 11
957045.553
 21
7278742.437
 31
0.0
  0
TEXT
  8
10
  6
CONTINUOUS
 62
   134
  5
139
 10
957094.361
 20
7279801.781
 30
0.0
 40
13.999
  1
235
 50
358.3189
  7
txt
 72
     4
 11
957113.242314
 21
7279808.229864
 31
0.0
210
0.0
220
0.0
230
1.0
  0
TEXT
  8
10
  6
CONTINUOUS
 62
   134
  5
13A
 10
957153.117
 20
7279767.05
 30
0.0
 40
13.999
  1
236
 50
358.3189
  7
txt
 72
     4
 11
957171.667456
 21
7279773.508574
 31
0.0
210
0.0
220
0.0
230
1.0
  0
TEXT
  8
10
  6
CONTINUOUS
 62
   134
  5
13B
 10
957207.415
 20
7279723.049
 30
0.0
 40
13.999
  1
237
 50
358.3189
  7
txt
 72
     4
 11
957226.350291
 21
7279729.496279
 31
0.0
210
0.0
220
0.0
230
1.0
  0
TEXT
  8
10
  6
CONTINUOUS
 62
   134
  5
13C
 10
957266.53
 20
7279690.96
 30
0.0
 40
13.999
  1
238
 50
358.3189
  7
txt
 72
     4
 11
957285.411314
 21
7279697.408864
 31
0.0
210
0.0
220
0.0
230
1.0
  0
TEXT
  8
10
  6
CONTINUOUS
 62
   134
  5
13D
 10
957330.69
 20
7279661.637
 30
0.0
 40
13.999
  1
239
 50
358.3189
  7
txt
 72
     4
 11
957349.240456
 21
7279668.095574
 31
0.0
210
0.0
220
0.0
230
1.0
  0
TEXT
  8
10
  6
CONTINUOUS
 62
   134
  5
13E
 10
957393.408
 20
7279638.143
 30
0.0
 40
13.999
  1
240
 50
358.3189
  7
txt
 72
     4
 11
957412.563196
 21
7279644.583825
 31
0.0
210
0.0
220
0.0
230
1.0
  0
TEXT
  8
10
  6
CONTINUOUS
 62
   134
  5
13F
 10
957467.197
 20
7279634.797
 30
0.0
 40
13.999
  1
241
 50
358.3189
  7
txt
 72
     4
 11
957483.929239
 21
7279641.308937
 31
0.0
210
0.0
220
0.0
230
1.0
  0
TEXT
  8
10
  6
CONTINUOUS
 62
   134
  5
140
 10
957528.837
 20
7279630.534
 30
0.0
 40
13.999
  1
242
 50
358.3189
  7
txt
 72
     4
 11
957548.048172
 21
7279636.973183
 31
0.0
210
0.0
220
0.0
230
1.0
  0
TEXT
  8
10
  6
CONTINUOUS
 62
   134
  5
141
 10
957592.051
 20
7279626.224
 30
0.0
 40
13.999
  1
243
 50
358.3189
  7
txt
 72
     4
 11
957611.262172
 21
7279632.663183
 31
0.0
210
0.0
220
0.0
230
1.0
  0
TEXT
  8
10
  6
CONTINUOUS
 62
   134
  5
142
 10
957655.457
 20
7279624.363
 30
0.0
 40
13.999
  1
244
 50
358.3189
  7
txt
 72
     4
 11
957674.999029
 21
7279630.792472
 31
0.0
210
0.0
220
0.0
230
1.0
  0
TEXT
  8
10
  6
CONTINUOUS
 62
   134
  5
143
 10
957719.599
 20
7279624.935
 30
0.0
 40
13.999
  1
245
 50
358.3189
  7
txt
 72
     4
 11
957738.810172
 21
7279631.374183
 31
0.0
210
0.0
220
0.0
230
1.0
  0
TEXT
  8
10
  6
CONTINUOUS
 62
   134
  5
144
 10
957781.142
 20
7279620.674
 30
0.0
 40
13.999
  1
246
 50
358.3189
  7
txt
 72
     4
 11
957800.023314
 21
7279627.122864
 31
0.0
210
0.0
220
0.0
230
1.0
  0
TEXT
  8
10
  6
CONTINUOUS
 62
   134
  5
145
 10
957844.496
 20
7279618.815
 30
0.0
 40
13.999
  1
247
 50
358.3189
  7
txt
 72
     4
 11
957863.762148
 21
7279625.252569
 31
0.0
210
0.0
220
0.0
230
1.0
  0
TEXT
  8
10
  6
CONTINUOUS
 62
   134
  5
146
 10
957910.668
 20
7279614.418
 30
0.0
 40
13.999
  1
248
 50
358.3189
  7
txt
 72
     4
 11
957929.879172
 21
7279620.857183
 31
0.0
210
0.0
220
0.0
230
1.0
  0
TEXT
  8
10
  6
CONTINUOUS
 62
   134
  5
147
 10
957972.285
 20
7279612.609
 30
0.0
 40
13.999
  1
249
 50
358.3189
  7
txt
 72
     4
 11
957991.166314
 21
7279619.057864
 31
0.0
210
0.0
220
0.0
230
1.0
  0
TEXT
  8
10
  6
CONTINUOUS
 62
   134
  5
148
 10
958033.699
 20
7279613.262
 30
0.0
 40
13.999
  1
250
 50
358.3189
  7
txt
 72
     4
 11
958052.524338
 21
7279619.712506
 31
0.0
210
0.0
220
0.0
230
1.0
  0
TEXT
  8
10
  6
CONTINUOUS
 62
   134
  5
149
 10
958104.764
 20
7279611.176
 30
0.0
 40
13.999
  1
251
 50
358.3189
  7
txt
 72
     4
 11
958121.165382
 21
7279617.697648
 31
0.0
210
0.0
220
0.0
230
1.0
  0
TEXT
  8
10
  6
CONTINUOUS
 62
   134
  5
14A
 10
958114.436
 20
7279794.788
 30
0.0
 40
13.999
  1
100
 50
358.3189
  7
txt
 72
     4
 11
958130.72643
 21
7279801.312904
 31
0.0
210
0.0
220
0.0
230
1.0
  0
TEXT
  8
10
  6
CONTINUOUS
 62
   134
  5
14B
 10
958045.767
 20
7279796.804
 30
0.0
 40
13.999
  1
101
 50
358.3189
  7
txt
 72
     4
 11
958059.633473
 21
7279803.400045
 31
0.0
210
0.0
220
0.0
230
1.0
  0
TEXT
  8
10
  6
CONTINUOUS
 62
   134
  5
14C
 10
957977.099
 20
7279798.819
 30
0.0
 40
13.999
  1
102
 50
358.3189
  7
txt
 72
     4
 11
957993.445405
 21
7279805.342261
 31
0.0
210
0.0
220
0.0
230
1.0
  0
TEXT
  8
10
  6
CONTINUOUS
 62
   134
  5
14D
 10
957915.812
 20
7279800.618
 30
0.0
 40
13.999
  1
103
 50
358.3189
  7
txt
 72
     4
 11
957932.158405
 21
7279807.141261
 31
0.0
210
0.0
220
0.0
230
1.0
  0
TEXT
  8
10
  6
CONTINUOUS
 62
   134
  5
14E
 10
957849.293
 20
7279802.57
 30
0.0
 40
13.999
  1
104
 50
358.3189
  7
txt
 72
     4
 11
957865.969263
 21
7279809.08358
 31
0.0
210
0.0
220
0.0
230
1.0
  0
TEXT
  8
10
  6
CONTINUOUS
 62
   134
  5
14F
 10
957785.884
 20
7279804.431
 30
0.0
 40
13.999
  1
105
 50
358.3189
  7
txt
 72
     4
 11
957802.230405
 21
7279810.954261
 31
0.0
210
0.0
220
0.0
230
1.0
  0
TEXT
  8
10
  6
CONTINUOUS
 62
   134
  5
150
 10
957722.025
 20
7279806.305
 30
0.0
 40
13.999
  1
106
 50
358.3189
  7
txt
 72
     4
 11
957738.040548
 21
7279812.837971
 31
0.0
210
0.0
220
0.0
230
1.0
  0
TEXT
  8
10
  6
CONTINUOUS
 62
   134
  5
151
 10
957661.901
 20
7279808.07
 30
0.0
 40
13.999
  1
107
 50
358.3189
  7
txt
 72
     4
 11
957678.301382
 21
7279814.591677
 31
0.0
210
0.0
220
0.0
230
1.0
  0
TEXT
  8
10
  6
CONTINUOUS
 62
   134
  5
152
 10
957603.572
 20
7279809.782
 30
0.0
 40
13.999
  1
108
 50
358.3189
  7
txt
 72
     4
 11
957619.918405
 21
7279816.305261
 31
0.0
210
0.0
220
0.0
230
1.0
  0
TEXT
  8
10
  6
CONTINUOUS
 62
   134
  5
153
 10
957538.166
 20
7279811.701
 30
0.0
 40
13.999
  1
109
 50
358.3189
  7
txt
 72
     4
 11
957554.181548
 21
7279818.233971
 31
0.0
210
0.0
220
0.0
230
1.0
  0
TEXT
  8
10
  6
CONTINUOUS
 62
   134
  5
154
 10
957479.028
 20
7279813.437
 30
0.0
 40
13.999
  1
110
 50
358.3189
  7
txt
 72
     4
 11
957492.894473
 21
7279820.033045
 31
0.0
210
0.0
220
0.0
230
1.0
  0
TEXT
  8
10
  6
CONTINUOUS
 62
   134
  5
155
 10
957420.892
 20
7279821.317
 30
0.0
 40
13.999
  1
111
 50
358.3189
  7
txt
 72
     4
 11
957432.334517
 21
7279827.984186
 31
0.0
210
0.0
220
0.0
230
1.0
  0
TEXT
  8
10
  6
CONTINUOUS
 62
   134
  5
156
 10
957340.899
 20
7279859.492
 30
0.0
 40
13.999
  1
112
 50
358.3189
  7
txt
 72
     4
 11
957354.82045
 21
7279866.086431
 31
0.0
210
0.0
220
0.0
230
1.0
  0
TEXT
  8
10
  6
CONTINUOUS
 62
   134
  5
157
 10
957418.624
 20
7279927.926
 30
0.0
 40
13.999
  1
113
 50
358.3189
  7
txt
 72
     4
 11
957432.54545
 21
7279934.520431
 31
0.0
210
0.0
220
0.0
230
1.0
  0
TEXT
  8
10
  6
CONTINUOUS
 62
   134
  5
158
 10
957523.515
 20
7279932.212
 30
0.0
 40
13.999
  1
114
 50
358.3189
  7
txt
 72
     4
 11
957537.768307
 21
7279938.796692
 31
0.0
210
0.0
220
0.0
230
1.0
  0
TEXT
  8
10
  6
CONTINUOUS
 62
   134
  5
159
 10
957590.665
 20
7279930.241
 30
0.0
 40
13.999
  1
115
 50
358.3189
  7
txt
 72
     4
 11
957604.58645
 21
7279936.835431
 31
0.0
210
0.0
220
0.0
230
1.0
  0
TEXT
  8
10
  6
CONTINUOUS
 62
   134
  5
15A
 10
957649.093
 20
7279928.526
 30
0.0
 40
13.999
  1
116
 50
358.3189
  7
txt
 72
     4
 11
957662.684592
 21
7279935.130112
 31
0.0
210
0.0
220
0.0
230
1.0
  0
TEXT
  8
10
  6
CONTINUOUS
 62
   134
  5
15B
 10
957716.999
 20
7279926.534
 30
0.0
 40
13.999
  1
117
 50
358.3189
  7
txt
 72
     4
 11
957730.976425
 21
7279933.126789
 31
0.0
210
0.0
220
0.0
230
1.0
  0
TEXT
  8
10
  6
CONTINUOUS
 62
   134
  5
15C
 10
957779.741
 20
7279924.692
 30
0.0
 40
13.999
  1
118
 50
358.3189
  7
txt
 72
     4
 11
957793.66245
 21
7279931.286431
 31
0.0
210
0.0
220
0.0
230
1.0
  0
TEXT
  8
10
  6
CONTINUOUS
 62
   134
  5
15D
 10
957852.22
 20
7279922.565
 30
0.0
 40
13.999
  1
119
 50
358.3189
  7
txt
 72
     4
 11
957865.811592
 21
7279929.169112
 31
0.0
210
0.0
220
0.0
230
1.0
  0
TEXT
  8
10
  6
CONTINUOUS
 62
   134
  5
15E
 10
957907.94
 20
7279920.93
 30
0.0
 40
13.999
  1
120
 50
358.3189
  7
txt
 72
     4
 11
957924.286405
 21
7279927.453261
 31
0.0
210
0.0
220
0.0
230
1.0
  0
TEXT
  8
10
  6
CONTINUOUS
 62
   134
  5
15F
 10
957977.607
 20
7279918.885
 30
0.0
 40
13.999
  1
121
 50
358.3189
  7
txt
 72
     4
 11
957991.52845
 21
7279925.479431
 31
0.0
210
0.0
220
0.0
230
1.0
  0
TEXT
  8
10
  6
CONTINUOUS
 62
   134
  5
160
 10
958046.401
 20
7279916.866
 30
0.0
 40
13.999
  1
122
 50
358.3189
  7
txt
 72
     4
 11
958062.802382
 21
7279923.387648
 31
0.0
210
0.0
220
0.0
230
1.0
  0
TEXT
  8
10
  6
CONTINUOUS
 62
   134
  5
161
 10
958116.613
 20
7279914.805
 30
0.0
 40
13.999
  1
123
 50
358.3189
  7
txt
 72
     4
 11
958133.014382
 21
7279921.326648
 31
0.0
210
0.0
220
0.0
230
1.0
  0
TEXT
  8
10
  6
CONTINUOUS
 62
   134
  5
162
 10
958119.744
 20
7280086.536
 30
0.0
 40
13.999
  1
124
 50
358.3189
  7
txt
 72
     4
 11
958136.476239
 21
7280093.047937
 31
0.0
210
0.0
220
0.0
230
1.0
  0
TEXT
  8
10
  6
CONTINUOUS
 62
   134
  5
163
 10
958056.269
 20
7280088.399
 30
0.0
 40
13.999
  1
125
 50
358.3189
  7
txt
 72
     4
 11
958072.670382
 21
7280094.920648
 31
0.0
210
0.0
220
0.0
230
1.0
  0
TEXT
  8
10
  6
CONTINUOUS
 62
   134
  5
164
 10
957983.65
 20
7280090.53
 30
0.0
 40
13.999
  1
126
 50
358.3189
  7
txt
 72
     4
 11
957999.720524
 21
7280097.061358
 31
0.0
210
0.0
220
0.0
230
1.0
  0
TEXT
  8
10
  6
CONTINUOUS
 62
   134
  5
165
 10
957922.681
 20
7280092.32
 30
0.0
 40
13.999
  1
127
 50
358.3189
  7
txt
 72
     4
 11
957939.137358
 21
7280098.840034
 31
0.0
210
0.0
220
0.0
230
1.0
  0
TEXT
  8
10
  6
CONTINUOUS
 62
   134
  5
166
 10
957856.197
 20
7280094.271
 30
0.0
 40
13.999
  1
128
 50
358.3189
  7
txt
 72
     4
 11
957872.598382
 21
7280100.792648
 31
0.0
210
0.0
220
0.0
230
1.0
  0
TEXT
  8
10
  6
CONTINUOUS
 62
   134
  5
167
 10
957792.087
 20
7280096.153
 30
0.0
 40
13.999
  1
129
 50
358.3189
  7
txt
 72
     4
 11
957808.157524
 21
7280102.684358
 31
0.0
210
0.0
220
0.0
230
1.0
  0
TEXT
  8
10
  6
CONTINUOUS
 62
   134
  5
168
 10
957730.177
 20
7280097.97
 30
0.0
 40
13.999
  1
130
 50
358.3189
  7
txt
 72
     4
 11
957746.523405
 21
7280104.493261
 31
0.0
210
0.0
220
0.0
230
1.0
  0
TEXT
  8
10
  6
CONTINUOUS
 62
   134
  5
169
 10
957664.481
 20
7280099.898
 30
0.0
 40
13.999
  1
131
 50
358.3189
  7
txt
 72
     4
 11
957678.40245
 21
7280106.492431
 31
0.0
210
0.0
220
0.0
230
1.0
  0
TEXT
  8
10
  6
CONTINUOUS
 62
   134
  5
16A
 10
957604.578
 20
7280101.656
 30
0.0
 40
13.999
  1
132
 50
358.3189
  7
txt
 72
     4
 11
957620.979382
 21
7280108.177648
 31
0.0
210
0.0
220
0.0
230
1.0
  0
TEXT
  8
10
  6
CONTINUOUS
 62
   134
  5
16B
 10
957542.099
 20
7280104.72
 30
0.0
 40
13.999
  1
133
 50
358.3189
  7
txt
 72
     4
 11
957558.500382
 21
7280111.241648
 31
0.0
210
0.0
220
0.0
230
1.0
  0
TEXT
  8
10
  6
CONTINUOUS
 62
   134
  5
16C
 10
957470.774
 20
7280104.367
 30
0.0
 40
13.999
  1
134
 50
358.3189
  7
txt
 72
     4
 11
957487.506239
 21
7280110.878937
 31
0.0
210
0.0
220
0.0
230
1.0
  0
TEXT
  8
10
  6
CONTINUOUS
 62
   134
  5
16D
 10
957400.819
 20
7280092.226
 30
0.0
 40
13.999
  1
135
 50
358.3189
  7
txt
 72
     4
 11
957417.220382
 21
7280098.747648
 31
0.0
210
0.0
220
0.0
230
1.0
  0
TEXT
  8
10
  6
CONTINUOUS
 62
   134
  5
16E
 10
957342.484
 20
7280061.317
 30
0.0
 40
13.999
  1
136
 50
358.3189
  7
txt
 72
     4
 11
957358.554524
 21
7280067.848358
 31
0.0
210
0.0
220
0.0
230
1.0
  0
TEXT
  8
10
  6
CONTINUOUS
 62
   134
  5
16F
 10
957277.309
 20
7280023.85
 30
0.0
 40
13.999
  1
137
 50
358.3189
  7
txt
 72
     4
 11
957293.765358
 21
7280030.370034
 31
0.0
210
0.0
220
0.0
230
1.0
  0
TEXT
  8
10
  6
CONTINUOUS
 62
   134
  5
170
 10
957212.622
 20
7279931.873
 30
0.0
 40
13.999
  1
138
 50
358.3189
  7
txt
 72
     4
 11
957229.023382
 21
7279938.394648
 31
0.0
210
0.0
220
0.0
230
1.0
  0
TEXT
  8
10
  6
CONTINUOUS
 62
   134
  5
171
 10
957534.628
 20
7280237.718
 30
0.0
 40
13.999
  1
146
 50
358.3189
  7
txt
 72
     4
 11
957551.029382
 21
7280244.239648
 31
0.0
210
0.0
220
0.0
230
1.0
  0
TEXT
  8
10
  6
CONTINUOUS
 62
   134
  5
172
 10
957592.084
 20
7280236.031
 30
0.0
 40
13.999
  1
147
 50
358.3189
  7
txt
 72
     4
 11
957608.870216
 21
7280242.541353
 31
0.0
210
0.0
220
0.0
230
1.0
  0
TEXT
  8
10
  6
CONTINUOUS
 62
   134
  5
173
 10
957658.328
 20
7280234.087
 30
0.0
 40
13.999
  1
148
 50
358.3189
  7
txt
 72
     4
 11
957675.060239
 21
7280240.598937
 31
0.0
210
0.0
220
0.0
230
1.0
  0
TEXT
  8
10
  6
CONTINUOUS
 62
   134
  5
174
 10
957722.396
 20
7280232.207
 30
0.0
 40
13.999
  1
149
 50
358.3189
  7
txt
 72
     4
 11
957738.797382
 21
7280238.728648
 31
0.0
210
0.0
220
0.0
230
1.0
  0
TEXT
  8
10
  6
CONTINUOUS
 62
   134
  5
175
 10
957788.641
 20
7280230.263
 30
0.0
 40
13.999
  1
150
 50
358.3189
  7
txt
 72
     4
 11
957804.987405
 21
7280236.786261
 31
0.0
210
0.0
220
0.0
230
1.0
  0
TEXT
  8
10
  6
CONTINUOUS
 62
   134
  5
176
 10
957862.158
 20
7280228.105
 30
0.0
 40
13.999
  1
151
 50
358.3189
  7
txt
 72
     4
 11
957876.07945
 21
7280234.699431
 31
0.0
210
0.0
220
0.0
230
1.0
  0
TEXT
  8
10
  6
CONTINUOUS
 62
   134
  5
177
 10
957916.062
 20
7280226.523
 30
0.0
 40
13.999
  1
152
 50
358.3189
  7
txt
 72
     4
 11
957932.463382
 21
7280233.044648
 31
0.0
210
0.0
220
0.0
230
1.0
  0
TEXT
  8
10
  6
CONTINUOUS
 62
   134
  5
178
 10
957989.605
 20
7280224.364
 30
0.0
 40
13.999
  1
153
 50
358.3189
  7
txt
 72
     4
 11
958006.006382
 21
7280230.885648
 31
0.0
210
0.0
220
0.0
230
1.0
  0
TEXT
  8
10
  6
CONTINUOUS
 62
   134
  5
179
 10
958053.012
 20
7280222.503
 30
0.0
 40
13.999
  1
154
 50
358.3189
  7
txt
 72
     4
 11
958069.744239
 21
7280229.014937
 31
0.0
210
0.0
220
0.0
230
1.0
  0
TEXT
  8
10
  6
CONTINUOUS
 62
   134
  5
17A
 10
958125.694
 20
7280220.37
 30
0.0
 40
13.999
  1
155
 50
358.3189
  7
txt
 72
     4
 11
958142.095382
 21
7280226.891648
 31
0.0
210
0.0
220
0.0
230
1.0
  0
TEXT
  8
10
  6
CONTINUOUS
 62
   134
  5
17B
 10
958126.638
 20
7280391.771
 30
0.0
 40
13.999
  1
156
 50
358.3189
  7
txt
 72
     4
 11
958142.708524
 21
7280398.302358
 31
0.0
210
0.0
220
0.0
230
1.0
  0
TEXT
  8
10
  6
CONTINUOUS
 62
   134
  5
17C
 10
958055.16
 20
7280393.869
 30
0.0
 40
13.999
  1
157
 50
358.3189
  7
txt
 72
     4
 11
958071.616358
 21
7280400.389034
 31
0.0
210
0.0
220
0.0
230
1.0
  0
TEXT
  8
10
  6
CONTINUOUS
 62
   134
  5
17D
 10
957989.026
 20
7280395.81
 30
0.0
 40
13.999
  1
158
 50
358.3189
  7
txt
 72
     4
 11
958005.427382
 21
7280402.331648
 31
0.0
210
0.0
220
0.0
230
1.0
  0
TEXT
  8
10
  6
CONTINUOUS
 62
   134
  5
17E
 10
957925.619
 20
7280397.671
 30
0.0
 40
13.999
  1
159
 50
358.3189
  7
txt
 72
     4
 11
957941.689524
 21
7280404.202358
 31
0.0
210
0.0
220
0.0
230
1.0
  0
TEXT
  8
10
  6
CONTINUOUS
 62
   134
  5
17F
 10
957857.033
 20
7280399.684
 30
0.0
 40
13.999
  1
160
 50
358.3189
  7
txt
 72
     4
 11
957873.047548
 21
7280406.217001
 31
0.0
210
0.0
220
0.0
230
1.0
  0
TEXT
  8
10
  6
CONTINUOUS
 62
   134
  5
180
 10
957800.623
 20
7280401.34
 30
0.0
 40
13.999
  1
161
 50
358.3189
  7
txt
 72
     4
 11
957814.213592
 21
7280407.944142
 31
0.0
210
0.0
220
0.0
230
1.0
  0
TEXT
  8
10
  6
CONTINUOUS
 62
   134
  5
181
 10
957727.05
 20
7280403.499
 30
0.0
 40
13.999
  1
162
 50
358.3189
  7
txt
 72
     4
 11
957743.120524
 21
7280410.030358
 31
0.0
210
0.0
220
0.0
230
1.0
  0
TEXT
  8
10
  6
CONTINUOUS
 62
   134
  5
182
 10
957669.41
 20
7280405.191
 30
0.0
 40
13.999
  1
163
 50
358.3189
  7
txt
 72
     4
 11
957685.480524
 21
7280411.722358
 31
0.0
210
0.0
220
0.0
230
1.0
  0
TEXT
  8
10
  6
CONTINUOUS
 62
   134
  5
183
 10
957593.89
 20
7280407.407
 30
0.0
 40
13.999
  1
164
 50
358.3189
  7
txt
 72
     4
 11
957610.290382
 21
7280413.928677
 31
0.0
210
0.0
220
0.0
230
1.0
  0
TEXT
  8
10
  6
CONTINUOUS
 62
   134
  5
184
 10
958134.297
 20
7280520.405
 30
0.0
 40
13.999
  1
165
 50
358.3189
  7
txt
 72
     4
 11
958150.367524
 21
7280526.936358
 31
0.0
210
0.0
220
0.0
230
1.0
  0
TEXT
  8
10
  6
CONTINUOUS
 62
   134
  5
185
 10
958072.642
 20
7280522.215
 30
0.0
 40
13.999
  1
166
 50
358.3189
  7
txt
 72
     4
 11
958088.381667
 21
7280528.756068
 31
0.0
210
0.0
220
0.0
230
1.0
  0
TEXT
  8
10
  6
CONTINUOUS
 62
   134
  5
186
 10
958002.339
 20
7280524.278
 30
0.0
 40
13.999
  1
167
 50
358.3189
  7
txt
 72
     4
 11
958018.463501
 21
7280530.807774
 31
0.0
210
0.0
220
0.0
230
1.0
  0
TEXT
  8
10
  6
CONTINUOUS
 62
   134
  5
187
 10
957930.464
 20
7280526.387
 30
0.0
 40
13.999
  1
168
 50
358.3189
  7
txt
 72
     4
 11
957946.534524
 21
7280532.918358
 31
0.0
210
0.0
220
0.0
230
1.0
  0
TEXT
  8
10
  6
CONTINUOUS
 62
   134
  5
188
 10
957862.903
 20
7280528.37
 30
0.0
 40
13.999
  1
169
 50
358.3189
  7
txt
 72
     4
 11
957878.642667
 21
7280534.911068
 31
0.0
210
0.0
220
0.0
230
1.0
  0
TEXT
  8
10
  6
CONTINUOUS
 62
   134
  5
189
 10
957798.607
 20
7280530.257
 30
0.0
 40
13.999
  1
170
 50
358.3189
  7
txt
 72
     4
 11
957815.007382
 21
7280536.778677
 31
0.0
210
0.0
220
0.0
230
1.0
  0
TEXT
  8
10
  6
CONTINUOUS
 62
   134
  5
18A
 10
957736.118
 20
7280532.091
 30
0.0
 40
13.999
  1
171
 50
358.3189
  7
txt
 72
     4
 11
957750.095425
 21
7280538.683789
 31
0.0
210
0.0
220
0.0
230
1.0
  0
TEXT
  8
10
  6
CONTINUOUS
 62
   134
  5
18B
 10
957666.495
 20
7280534.135
 30
0.0
 40
13.999
  1
172
 50
358.3189
  7
txt
 72
     4
 11
957682.951358
 21
7280540.655034
 31
0.0
210
0.0
220
0.0
230
1.0
  0
TEXT
  8
10
  6
CONTINUOUS
 62
   134
  5
18C
 10
957597.132
 20
7280536.17
 30
0.0
 40
13.999
  1
173
 50
358.3189
  7
txt
 72
     4
 11
957613.588358
 21
7280542.690034
 31
0.0
210
0.0
220
0.0
230
1.0
  0
TEXT
  8
10
  6
CONTINUOUS
 62
   134
  5
18D
 10
957550.203
 20
7280703.243
 30
0.0
 40
13.999
  1
174
 50
358.3189
  7
txt
 72
     4
 11
957566.989216
 21
7280709.753353
 31
0.0
210
0.0
220
0.0
230
1.0
  0
TEXT
  8
10
  6
CONTINUOUS
 62
   134
  5
18E
 10
957605.008
 20
7280701.635
 30
0.0
 40
13.999
  1
175
 50
358.3189
  7
txt
 72
     4
 11
957621.464358
 21
7280708.155034
 31
0.0
210
0.0
220
0.0
230
1.0
  0
TEXT
  8
10
  6
CONTINUOUS
 62
   134
  5
18F
 10
957669.077
 20
7280699.754
 30
0.0
 40
13.999
  1
176
 50
358.3189
  7
txt
 72
     4
 11
957685.2035
 21
7280706.283715
 31
0.0
210
0.0
220
0.0
230
1.0
  0
TEXT
  8
10
  6
CONTINUOUS
 62
   134
  5
190
 10
957737.333
 20
7280697.751
 30
0.0
 40
13.999
  1
177
 50
358.3189
  7
txt
 72
     4
 11
957753.843335
 21
7280704.26945
 31
0.0
210
0.0
220
0.0
230
1.0
  0
TEXT
  8
10
  6
CONTINUOUS
 62
   134
  5
191
 10
957806.028
 20
7280695.735
 30
0.0
 40
13.999
  1
178
 50
358.3189
  7
txt
 72
     4
 11
957822.484358
 21
7280702.255034
 31
0.0
210
0.0
220
0.0
230
1.0
  0
TEXT
  8
10
  6
CONTINUOUS
 62
   134
  5
192
 10
957872.547
 20
7280693.783
 30
0.0
 40
13.999
  1
179
 50
358.3189
  7
txt
 72
     4
 11
957888.6735
 21
7280700.312715
 31
0.0
210
0.0
220
0.0
230
1.0
  0
TEXT
  8
10
  6
CONTINUOUS
 62
   134
  5
193
 10
957933.614
 20
7280691.99
 30
0.0
 40
13.999
  1
180
 50
358.3189
  7
txt
 72
     4
 11
957949.960405
 21
7280698.513261
 31
0.0
210
0.0
220
0.0
230
1.0
  0
TEXT
  8
10
  6
CONTINUOUS
 62
   134
  5
194
 10
958004.68
 20
7280689.905
 30
0.0
 40
13.999
  1
181
 50
358.3189
  7
txt
 72
     4
 11
958018.60145
 21
7280696.499431
 31
0.0
210
0.0
220
0.0
230
1.0
  0
TEXT
  8
10
  6
CONTINUOUS
 62
   134
  5
195
 10
958075.625
 20
7280687.822
 30
0.0
 40
13.999
  1
182
 50
358.3189
  7
txt
 72
     4
 11
958092.026382
 21
7280694.343648
 31
0.0
210
0.0
220
0.0
230
1.0
  0
TEXT
  8
10
  6
CONTINUOUS
 62
   134
  5
196
 10
958140.037
 20
7280685.932
 30
0.0
 40
13.999
  1
183
 50
358.3189
  7
txt
 72
     4
 11
958156.438382
 21
7280692.453648
 31
0.0
210
0.0
220
0.0
230
1.0
  0
TEXT
  8
10
  6
CONTINUOUS
 62
   134
  5
197
 10
958144.898
 20
7280813.24
 30
0.0
 40
13.999
  1
300
 50
358.3189
  7
txt
 72
     4
 11
958163.667362
 21
7280819.692149
 31
0.0
210
0.0
220
0.0
230
1.0
  0
TEXT
  8
10
  6
CONTINUOUS
 62
   134
  5
198
 10
958081.429
 20
7280815.103
 30
0.0
 40
13.999
  1
301
 50
358.3189
  7
txt
 72
     4
 11
958097.775405
 21
7280821.626261
 31
0.0
210
0.0
220
0.0
230
1.0
  0
TEXT
  8
10
  6
CONTINUOUS
 62
   134
  5
199
 10
958017.663
 20
7280816.974
 30
0.0
 40
13.999
  1
302
 50
358.3189
  7
txt
 72
     4
 11
958036.488338
 21
7280823.424506
 31
0.0
210
0.0
220
0.0
230
1.0
  0
TEXT
  8
10
  6
CONTINUOUS
 62
   134
  5
19A
 10
957958.829
 20
7280818.701
 30
0.0
 40
13.999
  1
303
 50
358.3189
  7
txt
 72
     4
 11
957977.654338
 21
7280825.151506
 31
0.0
210
0.0
220
0.0
230
1.0
  0
TEXT
  8
10
  6
CONTINUOUS
 62
   134
  5
19B
 10
957899.663
 20
7280820.438
 30
0.0
 40
13.999
  1
304
 50
358.3189
  7
txt
 72
     4
 11
957918.818196
 21
7280826.878825
 31
0.0
210
0.0
220
0.0
230
1.0
  0
TEXT
  8
10
  6
CONTINUOUS
 62
   134
  5
19C
 10
957838.707
 20
7280822.227
 30
0.0
 40
13.999
  1
305
 50
358.3189
  7
txt
 72
     4
 11
957857.532338
 21
7280828.677506
 31
0.0
210
0.0
220
0.0
230
1.0
  0
TEXT
  8
10
  6
CONTINUOUS
 62
   134
  5
19D
 10
957780.202
 20
7280823.944
 30
0.0
 40
13.999
  1
306
 50
358.3189
  7
txt
 72
     4
 11
957798.69748
 21
7280830.404187
 31
0.0
210
0.0
220
0.0
230
1.0
  0
TEXT
  8
10
  6
CONTINUOUS
 62
   134
  5
19E
 10
957720.983
 20
7280825.682
 30
0.0
 40
13.999
  1
307
 50
358.3189
  7
txt
 72
     4
 11
957739.862315
 21
7280832.130922
 31
0.0
210
0.0
220
0.0
230
1.0
  0
TEXT
  8
10
  6
CONTINUOUS
 62
   134
  5
19F
 10
957659.75
 20
7280827.479
 30
0.0
 40
13.999
  1
308
 50
358.3189
  7
txt
 72
     4
 11
957678.575338
 21
7280833.929506
 31
0.0
210
0.0
220
0.0
230
1.0
  0
TEXT
  8
10
  6
CONTINUOUS
 62
   134
  5
1A0
 10
957601.246
 20
7280829.196
 30
0.0
 40
13.999
  1
309
 50
358.3189
  7
txt
 72
     4
 11
957619.74148
 21
7280835.656187
 31
0.0
210
0.0
220
0.0
230
1.0
  0
TEXT
  8
10
  6
CONTINUOUS
 62
   134
  5
1A1
 10
957553.086
 20
7280830.609
 30
0.0
 40
13.999
  1
310
 50
358.3189
  7
txt
 72
     4
 11
957569.432405
 21
7280837.132261
 31
0.0
210
0.0
220
0.0
230
1.0
  0
TEXT
  8
10
  6
CONTINUOUS
 62
   134
  5
1A2
 10
957553.938
 20
7281007.317
 30
0.0
 40
13.999
  1
311
 50
358.3189
  7
txt
 72
     4
 11
957567.85945
 21
7281013.911431
 31
0.0
210
0.0
220
0.0
230
1.0
  0
TEXT
  8
10
  6
CONTINUOUS
 62
   134
  5
1A3
 10
957609.56
 20
7281005.685
 30
0.0
 40
13.999
  1
312
 50
358.3189
  7
txt
 72
     4
 11
957625.961382
 21
7281012.206648
 31
0.0
210
0.0
220
0.0
230
1.0
  0
TEXT
  8
10
  6
CONTINUOUS
 62
   134
  5
1A4
 10
957667.129
 20
7281003.995
 30
0.0
 40
13.999
  1
313
 50
358.3189
  7
txt
 72
     4
 11
957683.530382
 21
7281010.516648
 31
0.0
210
0.0
220
0.0
230
1.0
  0
TEXT
  8
10
  6
CONTINUOUS
 62
   134
  5
1A5
 10
957730.083
 20
7281002.148
 30
0.0
 40
13.999
  1
314
 50
358.3189
  7
txt
 72
     4
 11
957746.815239
 21
7281008.659937
 31
0.0
210
0.0
220
0.0
230
1.0
  0
TEXT
  8
10
  6
CONTINUOUS
 62
   134
  5
1A6
 10
957790.606
 20
7281000.371
 30
0.0
 40
13.999
  1
315
 50
358.3189
  7
txt
 72
     4
 11
957807.007382
 21
7281006.892648
 31
0.0
210
0.0
220
0.0
230
1.0
  0
TEXT
  8
10
  6
CONTINUOUS
 62
   134
  5
1A7
 10
957850.053
 20
7280998.627
 30
0.0
 40
13.999
  1
316
 50
358.3189
  7
txt
 72
     4
 11
957866.123524
 21
7281005.158358
 31
0.0
210
0.0
220
0.0
230
1.0
  0
TEXT
  8
10
  6
CONTINUOUS
 62
   134
  5
1A8
 10
957910.22
 20
7280996.861
 30
0.0
 40
13.999
  1
317
 50
358.3189
  7
txt
 72
     4
 11
957926.676358
 21
7281003.381034
 31
0.0
210
0.0
220
0.0
230
1.0
  0
TEXT
  8
10
  6
CONTINUOUS
 62
   134
  5
1A9
 10
957971.562
 20
7280995.06
 30
0.0
 40
13.999
  1
318
 50
358.3189
  7
txt
 72
     4
 11
957987.963382
 21
7281001.581648
 31
0.0
210
0.0
220
0.0
230
1.0
  0
TEXT
  8
10
  6
CONTINUOUS
 62
   134
  5
1AA
 10
958033.179
 20
7280993.252
 30
0.0
 40
13.999
  1
319
 50
358.3189
  7
txt
 72
     4
 11
958049.249524
 21
7280999.783358
 31
0.0
210
0.0
220
0.0
230
1.0
  0
TEXT
  8
10
  6
CONTINUOUS
 62
   134
  5
1AB
 10
958088.807
 20
7280991.619
 30
0.0
 40
13.999
  1
320
 50
358.3189
  7
txt
 72
     4
 11
958107.632338
 21
7280998.069506
 31
0.0
210
0.0
220
0.0
230
1.0
  0
TEXT
  8
10
  6
CONTINUOUS
 62
   134
  5
1AC
 10
958151.76
 20
7280989.772
 30
0.0
 40
13.999
  1
321
 50
358.3189
  7
txt
 72
     4
 11
958168.161382
 21
7280996.293648
 31
0.0
210
0.0
220
0.0
230
1.0
  0
LINE
  8
6
  6
CONTINUOUS
 62
     7
  5
1AD
 10
957595.385
 20
7280598.856
 30
0.0
 11
958042.767
 21
7280585.725
 31
0.0
  0
ARC
  8
6
  6
CONTINUOUS
 62
     7
  5
1AE
 10
957594.944735
 20
7280583.862072
 30
0.0
 40
15.0
 50
88.3189
 51
178.3189
210
0.0
220
0.0
230
1.0
  0
LINE
  8
6
  6
CONTINUOUS
 62
     7
  5
1AF
 10
958164.683
 20
7280339.543
 30
0.0
 11
957588.271
 21
7280356.46
 31
0.0
  0
ARC
  8
6
  6
CONTINUOUS
 62
     7
  5
1B0
 10
957588.710724
 20
7280371.453534
 30
0.0
 40
15.0
 50
178.3189
 51
268.3189
210
0.0
220
0.0
230
1.0
  0
LINE
  8
6
  6
CONTINUOUS
 62
     7
  5
1B1
 10
957212.851
 20
7282593.468
 30
0.0
 11
956641.656
 21
7282347.249
 31
0.0
  0
LINE
  8
6
  6
CONTINUOUS
 62
     7
  5
1B2
 10
956856.683
 20
7281810.525
 30
0.0
 11
956633.819
 21
7282327.536
 31
0.0
  0
ARC
  8
6
  6
CONTINUOUS
 62
     7
  5
1B3
 10
956647.593536
 20
7282333.474204
 30
0.0
 40
15.0
 50
113.319092
 51
203.318819
210
0.0
220
0.0
230
1.0
  0
ARC
  8
6
  6
CONTINUOUS
 62
     7
  5
1B4
 10
957218.788593
 20
7282579.693352
 30
0.0
 40
15.0
 50
23.3188
 51
113.318903
210
0.0
220
0.0
230
1.0
  0
ARC
  8
6
  6
CONTINUOUS
 62
     7
  5
1B5
 10
958134.272819
 20
7279223.644614
 30
0.0
 40
15.0
 50
268.3189
 51
358.3189
210
0.0
220
0.0
230
1.0
  0
LINE
  8
7
  6
CONTINUOUS
 62
     7
  5
1B6
 10
953079.267
 20
7283682.852
 30
0.0
 11
953482.997
 21
7283528.981
 31
0.0
  0
LINE
  8
6
  6
CONTINUOUS
 62
     7
  5
1B7
 10
954546.304
 20
7283423.929
 30
0.0
 11
954463.766
 21
7283612.83
 31
0.0
  0
LINE
  8
6
  6
CONTINUOUS
 62
     7
  5
1B8
 10
954546.304
 20
7283423.929
 30
0.0
 11
954581.478
 21
7283437.214
 31
0.0
  0
LINE
  8
6
  6
CONTINUOUS
 62
     7
  5
1B9
 10
954573.094
 20
7283487.495
 30
0.0
 11
954619.296
 21
7283504.944
 31
0.0
  0
LINE
  8
6
  6
CONTINUOUS
 62
     7
  5
1BA
 10
954573.094
 20
7283487.495
 30
0.0
 11
954519.039
 21
7283611.208
 31
0.0
  0
LINE
  8
6
  6
CONTINUOUS
 62
     7
  5
1BB
 10
957922.347
 20
7283203.078
 30
0.0
 11
958247.987
 21
7283193.521
 31
0.0
  0
LINE
  8
6
  6
CONTINUOUS
 62
     7
  5
1BC
 10
953792.818
 20
7283751.399
 30
0.0
 11
953032.13
 21
7282877.641
 31
0.0
  0
LINE
  8
7
  6
CONTINUOUS
 62
     7
  5
1BD
 10
954676.054
 20
7283606.599
 30
0.0
 11
954619.296
 21
7283504.944
 31
0.0
  0
LINE
  8
6
  6
CONTINUOUS
 62
     7
  5
1BE
 10
954619.296
 20
7283504.944
 30
0.0
 11
954581.478
 21
7283437.214
 31
0.0
  0
LINE
  8
6
  6
CONTINUOUS
 62
     7
  5
1BF
 10
958249.747
 20
7283253.495
 30
0.0
 11
957924.107
 21
7283263.052
 31
0.0
  0
LINE
  8
7
  6
CONTINUOUS
 62
     7
  5
1C0
 10
957924.107
 20
7283263.052
 30
0.0
 11
957932.094
 21
7283535.165
 31
0.0
  0
LINE
  8
7
  6
CONTINUOUS
 62
     7
  5
1C1
 10
957455.426
 20
7282068.619
 30
0.0
 11
956856.683
 21
7281810.525
 31
0.0
  0
LINE
  8
6
  6
CONTINUOUS
 62
     7
  5
1C2
 10
956856.682
 20
7281810.524
 30
0.0
 11
956829.134
 21
7281798.65
 31
0.0
  0
LINE
  8
7
  6
CONTINUOUS
 62
     7
  5
1C3
 10
957926.834
 20
7281979.85
 30
0.0
 11
957935.048
 21
7282259.73
 31
0.0
  0
LINE
  8
6
  6
CONTINUOUS
 62
     7
  5
1C4
 10
957935.048
 20
7282259.73
 30
0.0
 11
958235.329
 21
7282250.917
 31
0.0
  0
LINE
  8
6
  6
CONTINUOUS
 62
     7
  5
1C5
 10
958235.329
 20
7282250.917
 30
0.0
 11
958227.115
 21
7281971.037
 31
0.0
  0
LINE
  8
6
  6
CONTINUOUS
 62
     7
  5
1C6
 10
958227.115
 20
7281971.037
 30
0.0
 11
957926.834
 21
7281979.85
 31
0.0
  0
LINE
  8
6
  6
CONTINUOUS
 62
     7
  5
1C7
 10
958226.821
 20
7281961.041
 30
0.0
 11
957926.541
 21
7281969.854
 31
0.0
  0
LINE
  8
6
  6
CONTINUOUS
 62
     7
  5
1C8
 10
957926.541
 20
7281969.854
 30
0.0
 11
957926.834
 21
7281979.85
 31
0.0
  0
LINE
  8
6
  6
CONTINUOUS
 62
     7
  5
1C9
 10
958184.638
 20
7280939.716
 30
0.0
 11
957534.918
 21
7280958.784
 31
0.0
  0
LINE
  8
6
  6
CONTINUOUS
 62
     7
  5
1CA
 10
957538.204
 20
7281070.736
 30
0.0
 11
958202.917
 21
7281051.227
 31
0.0
  0
LINE
  8
6
  6
CONTINUOUS
 62
     7
  5
1CB
 10
958202.917
 20
7281051.227
 30
0.0
 11
958200.072
 21
7280954.269
 31
0.0
  0
LINE
  8
6
  6
CONTINUOUS
 62
     7
  5
1CC
 10
958194.586
 20
7280767.35
 30
0.0
 11
957529.872
 21
7280786.858
 31
0.0
  0
LINE
  8
6
  6
CONTINUOUS
 62
     7
  5
1CD
 10
957533.158
 20
7280898.81
 30
0.0
 11
958182.878
 21
7280879.742
 31
0.0
  0
LINE
  8
6
  6
CONTINUOUS
 62
     7
  5
1CE
 10
958158.59
 20
7279540.878
 30
0.0
 11
957356.685
 21
7279564.413
 31
0.0
  0
LINE
  8
6
  6
CONTINUOUS
 62
     7
  5
1CF
 10
957356.685
 20
7279564.413
 30
0.0
 11
957039.085
 21
7279758.578
 31
0.0
  0
LINE
  8
6
  6
CONTINUOUS
 62
     7
  5
1D0
 10
957140.796
 20
7279924.951
 30
0.0
 11
957162.126
 21
7279911.91
 31
0.0
  0
LINE
  8
7
  6
CONTINUOUS
 62
     7
  5
1D1
 10
957162.126
 20
7279911.91
 30
0.0
 11
957216.893
 21
7280001.495
 31
0.0
  0
LINE
  8
6
  6
CONTINUOUS
 62
     7
  5
1D2
 10
957216.893
 20
7280001.495
 30
0.0
 11
957181.105
 21
7280023.583
 31
0.0
  0
TEXT
  8
10
  6
CONTINUOUS
 62
   134
  5
1D3
 10
953889.771
 20
7280797.359
 30
0.0
 40
13.999
  1
STATE OF TEXAS
 50
358.3189
  7
txt
 72
     4
 11
953983.182222
 21
7280801.620474
 31
0.0
210
0.0
220
0.0
230
1.0
  0
LINE
  8
6
  6
CONTINUOUS
 62
     7
  5
1D4
 10
957526.058
 20
7280656.914
 30
0.0
 11
958044.41
 21
7280641.701
 31
0.0
  0
LINE
  8
6
  6
CONTINUOUS
 62
     7
  5
1D5
 10
958185.902
 20
7280471.477
 30
0.0
 11
958193.999
 21
7280747.358
 31
0.0
  0
LINE
  8
6
  6
CONTINUOUS
 62
     7
  5
1D6
 10
958193.999
 20
7280747.358
 30
0.0
 11
957529.285
 21
7280766.867
 31
0.0
  0
LINE
  8
7
  6
CONTINUOUS
 62
     7
  5
1D7
 10
957538.79
 20
7281090.728
 30
0.0
 11
957512.171
 21
7280183.757
 31
0.0
  0
LINE
  8
6
  6
CONTINUOUS
 62
     7
  5
1D8
 10
958165.379
 20
7280283.498
 30
0.0
 11
957515.658
 21
7280302.567
 31
0.0
  0
LINE
  8
6
  6
CONTINUOUS
 62
     7
  5
1D9
 10
957573.717
 20
7280371.894
 30
0.0
 11
957576.577
 21
7280469.352
 31
0.0
  0
LINE
  8
6
  6
CONTINUOUS
 62
     7
  5
1DA
 10
957576.577
 20
7280469.352
 30
0.0
 11
958185.315
 21
7280451.486
 31
0.0
  0
LINE
  8
6
  6
CONTINUOUS
 62
     7
  5
1DB
 10
958185.315
 20
7280451.486
 30
0.0
 11
958182.41
 21
7280352.492
 31
0.0
  0
LINE
  8
6
  6
CONTINUOUS
 62
     7
  5
1DC
 10
958185.902
 20
7280471.477
 30
0.0
 11
957577.164
 21
7280489.343
 31
0.0
  0
LINE
  8
6
  6
CONTINUOUS
 62
     7
  5
1DD
 10
957577.164
 20
7280489.343
 30
0.0
 11
957579.951
 21
7280584.302
 31
0.0
  0
LINE
  8
7
  6
CONTINUOUS
 62
     7
  5
1DE
 10
957589.846
 20
7280785.098
 30
0.0
 11
957593.132
 21
7280897.05
 31
0.0
  0
LINE
  8
6
  6
CONTINUOUS
 62
     7
  5
1DF
 10
957109.944
 20
7279874.485
 30
0.0
 11
957140.796
 21
7279924.951
 31
0.0
  0
LINE
  8
6
  6
CONTINUOUS
 62
     7
  5
1E0
 10
957039.085
 20
7279758.578
 30
0.0
 11
957049.517
 21
7279775.642
 31
0.0
  0
LINE
  8
7
  6
CONTINUOUS
 62
     7
  5
1E1
 10
957049.517
 20
7279775.642
 30
0.0
 11
957109.944
 21
7279874.485
 31
0.0
  0
LINE
  8
6
  6
CONTINUOUS
 62
     7
  5
1E2
 10
954619.71
 20
7283505.686
 30
0.0
 11
954574.312
 21
7283609.585
 31
0.0
  0
LINE
  8
6
  6
CONTINUOUS
 62
     7
  5
1E3
 10
954650.32
 20
7283560.509
 30
0.0
 11
954629.586
 21
7283607.963
 31
0.0
  0
TEXT
  8
10
  6
CONTINUOUS
 62
   134
  5
1E4
 10
954560.808
 20
7283559.542
 30
0.0
 40
13.999
  1
14
 50
358.3189
  7
txt
 72
     4
 11
954570.543252
 21
7283566.259293
 31
0.0
210
0.0
220
0.0
230
1.0
  0
TEXT
  8
10
  6
CONTINUOUS
 62
   134
  5
1E5
 10
954610.034
 20
7283570.592
 30
0.0
 40
13.999
  1
15
 50
358.3189
  7
txt
 72
     4
 11
954619.439394
 21
7283577.318974
 31
0.0
210
0.0
220
0.0
230
1.0
  0
TEXT
  8
10
  6
CONTINUOUS
 62
   134
  5
1E6
 10
954642.77
 20
7283590.081
 30
0.0
 40
13.999
  1
16
 50
358.3189
  7
txt
 72
     4
 11
954651.844537
 21
7283596.817684
 31
0.0
210
0.0
220
0.0
230
1.0
  0
LINE
  8
7
  6
CONTINUOUS
 62
     7
  5
1E7
 10
956870.274
 20
7278252.208
 30
0.0
 11
956774.37
 21
7278255.023
 31
0.0
  0
TEXT
  8
10
  6
CONTINUOUS
 62
   134
  5
1E8
 10
956950.941
 20
7278483.953
 30
0.0
 40
13.999
  1
CITY PROPERTY
 50
358.3189
  7
txt
 72
     4
 11
957039.17845
 21
7278488.36632
 31
0.0
210
0.0
220
0.0
230
1.0
  0
TEXT
  8
10
  6
CONTINUOUS
 62
   134
  5
1E9
 10
957427.429
 20
7278562.441
 30
0.0
 40
13.999
  1
CITY PROPERTY
 50
358.3189
  7
txt
 72
     4
 11
957515.66645
 21
7278566.85432
 31
0.0
210
0.0
220
0.0
230
1.0
  0
TEXT
  8
11
  6
CONTINUOUS
 62
     7
  5
1EB
 10
955162.593
 20
7283365.534
 30
0.0
 40
8.0
  1
963.07'
 50
86.229464
  7
txt
 72
     4
 11
955160.132175
 21
7283389.020665
 31
0.0
210
0.0
220
0.0
230
1.0
  0
TEXT
  8
11
  6
CONTINUOUS
 62
     7
  5
1EC
 10
955142.967
 20
7283037.331
 30
0.0
 40
8.0
  1
S04%%d18'16"W
 50
86.229464
  7
txt
 72
     4
 11
955141.475094
 21
7283075.519772
 31
0.0
210
0.0
220
0.0
230
1.0
  0
TEXT
  8
11
  6
CONTINUOUS
 62
     7
  5
1ED
 10
955129.699
 20
7282441.553
 30
0.0
 40
8.0
  1
R=112.18'
 50
98.3189
  7
txt
 72
     4
 11
955121.881534
 21
7282467.369588
 31
0.0
210
0.0
220
0.0
230
1.0
  0
TEXT
  8
11
  6
CONTINUOUS
 62
     7
  5
1EE
 10
955110.384
 20
7282208.45
 30
0.0
 40
8.0
  1
S04%%d18'16"W   281.1'
 50
86.229414
  7
txt
 72
     4
 11
955111.097905
 21
7282280.108167
 31
0.0
210
0.0
220
0.0
230
1.0
  0
TEXT
  8
11
  6
CONTINUOUS
 62
     7
  5
1EF
 10
955248.681
 20
7281764.253
 30
0.0
 40
8.0
  1
N48%%d07'38"E
 50
42.406767
  7
txt
 72
     4
 11
955275.326492
 21
7281794.006745
 31
0.0
210
0.0
220
0.0
230
1.0
  0
TEXT
  8
11
  6
CONTINUOUS
 62
     7
  5
1F0
 10
955203.214
 20
7281720.545
 30
0.0
 40
8.0
  1
296.63'
 50
42.406767
  7
txt
 72
     4
 11
955217.561845
 21
7281739.066787
 31
0.0
210
0.0
220
0.0
230
1.0
  0
TEXT
  8
11
  6
CONTINUOUS
 62
     7
  5
1F1
 10
955401.645
 20
7281723.955
 30
0.0
 40
8.0
  1
R=483.96'
 50
273.3189
  7
txt
 72
     4
 11
955407.417875
 21
7281693.49913
 31
0.0
210
0.0
220
0.0
230
1.0
  0
TEXT
  8
11
  6
CONTINUOUS
 62
     7
  5
1F2
 10
955293.563
 20
7281385.863
 30
0.0
 40
8.0
  1
S43%%d00'38"W
 50
47.523283
  7
txt
 72
     4
 11
955318.299705
 21
7281418.803787
 31
0.0
210
0.0
220
0.0
230
1.0
  0
TEXT
  8
11
  6
CONTINUOUS
 62
     7
  5
1F3
 10
955317.323
 20
7281387.981
 30
0.0
 40
8.0
  1
207.75'
 50
47.523283
  7
txt
 72
     4
 11
955330.366374
 21
7281408.150339
 31
0.0
210
0.0
220
0.0
230
1.0
  0
TEXT
  8
11
  6
CONTINUOUS
 62
     7
  5
1F4
 10
955271.665
 20
7281233.5
 30
0.0
 40
8.0
  1
312.68'
 50
281.292242
  7
txt
 72
     4
 11
955279.904466
 21
7281212.664038
 31
0.0
210
0.0
220
0.0
230
1.0
  0
TEXT
  8
11
  6
CONTINUOUS
 62
     7
  5
1F5
 10
955291.94
 20
7281130.569
 30
0.0
 40
8.0
  1
S10%%d45'30"E
 50
281.292242
  7
txt
 72
     4
 11
955303.354384
 21
7281093.832922
 31
0.0
210
0.0
220
0.0
230
1.0
  0
TEXT
  8
11
  6
CONTINUOUS
 62
     7
  5
1F6
 10
955325.249
 20
7280857.493
 30
0.0
 40
8.0
  1
R=1145.45'
 50
278.3189
  7
txt
 72
     4
 11
955333.905046
 21
7280825.941397
 31
0.0
210
0.0
220
0.0
230
1.0
  0
TEXT
  8
11
  6
CONTINUOUS
 62
     7
  5
1F7
 10
955383.73
 20
7280623.85
 30
0.0
 40
8.0
  1
287.72'
 50
291.467089
  7
txt
 72
     4
 11
955396.131779
 21
7280603.243095
 31
0.0
210
0.0
220
0.0
230
1.0
  0
TEXT
  8
11
  6
CONTINUOUS
 62
     7
  5
1F8
 10
955438.658
 20
7280484.826
 30
0.0
 40
8.0
  1
S02%%d55'59"E
 50
291.467089
  7
txt
 72
     4
 11
955456.774349
 21
7280449.68734
 31
0.0
210
0.0
220
0.0
230
1.0
  0
TEXT
  8
11
  6
CONTINUOUS
 62
     7
  5
1F9
 10
955533.89
 20
7280261.399
 30
0.0
 40
8.0
  1
R=589.94'
 50
303.3189
  7
txt
 72
     4
 11
955554.116842
 21
7280237.910715
 31
0.0
210
0.0
220
0.0
230
1.0
  0
TEXT
  8
11
  6
CONTINUOUS
 62
     7
  5
1FA
 10
955604.494
 20
7280161.917
 30
0.0
 40
8.0
  1
97.09'
 50
310.244967
  7
txt
 72
     4
 11
955619.999258
 21
7280149.789591
 31
0.0
210
0.0
220
0.0
230
1.0
  0
TEXT
  8
11
  6
CONTINUOUS
 62
     7
  5
1FB
 10
955578.421
 20
7280165.962
 30
0.0
 40
8.0
  1
S39%%d42'41"E
 50
310.244967
  7
txt
 72
     4
 11
955606.232997
 21
7280139.294695
 31
0.0
210
0.0
220
0.0
230
1.0
  0
TEXT
  8
11
  6
CONTINUOUS
 62
     7
  5
1FC
 10
955672.239
 20
7280027.169
 30
0.0
 40
8.0
  1
S27%%d22'22"E
 50
297.906692
  7
txt
 72
     4
 11
955694.300463
 21
7279994.060317
 31
0.0
210
0.0
220
0.0
230
1.0
  0
TEXT
  8
11
  6
CONTINUOUS
 62
     7
  5
1FD
 10
955700.133
 20
7280018.552
 30
0.0
 40
8.0
  1
257.91'
 50
297.906692
  7
txt
 72
     4
 11
955714.001077
 21
7280000.913561
 31
0.0
210
0.0
220
0.0
230
1.0
  0
TEXT
  8
11
  6
CONTINUOUS
 62
     7
  5
1FE
 10
955873.382
 20
7279792.499
 30
0.0
 40
8.0
  1
323.93'
 50
320.289917
  7
txt
 72
     4
 11
955893.988166
 21
7279780.584924
 31
0.0
210
0.0
220
0.0
230
1.0
  0
TEXT
  8
11
  6
CONTINUOUS
 62
     7
  5
1FF
 10
955850.873
 20
7279790.895
 30
0.0
 40
8.0
  1
S49%%d45'22"E
 50
320.289917
  7
txt
 72
     4
 11
955884.000083
 21
7279768.582135
 31
0.0
210
0.0
220
0.0
230
1.0
  0
TEXT
  8
11
  6
CONTINUOUS
 62
     7
  5
200
 10
956064.089
 20
7279594.563
 30
0.0
 40
8.0
  1
211.95'
 50
297.789908
  7
txt
 72
     4
 11
956077.245528
 21
7279578.178208
 31
0.0
210
0.0
220
0.0
230
1.0
  0
TEXT
  8
11
  6
CONTINUOUS
 62
     7
  5
201
 10
956040.291
 20
7279603.331
 30
0.0
 40
8.0
  1
S27%%d15'22"E
 50
297.789908
  7
txt
 72
     4
 11
956061.623818
 21
7279571.431871
 31
0.0
210
0.0
220
0.0
230
1.0
  0
TEXT
  8
11
  6
CONTINUOUS
 62
     7
  5
202
 10
956133.902
 20
7279456.511
 30
0.0
 40
8.0
  1
S63%%d24'20"E
 50
333.939458
  7
txt
 72
     4
 11
956171.161297
 21
7279442.742371
 31
0.0
210
0.0
220
0.0
230
1.0
  0
TEXT
  8
11
  6
CONTINUOUS
 62
     7
  5
203
 10
956160.01
 20
7279462.548
 30
0.0
 40
8.0
  1
127.01'
 50
333.939458
  7
txt
 72
     4
 11
956180.468723
 21
7279456.995545
 31
0.0
210
0.0
220
0.0
230
1.0
  0
TEXT
  8
11
  6
CONTINUOUS
 62
     7
  5
204
 10
956424.654
 20
7279267.534
 30
0.0
 40
8.0
  1
R=961.09'
 50
333.3189
  7
txt
 72
     4
 11
956452.282641
 21
7279258.126337
 31
0.0
210
0.0
220
0.0
230
1.0
  0
TEXT
  8
11
  6
CONTINUOUS
 62
     7
  5
205
 10
956780.643
 20
7279171.955
 30
0.0
 40
8.0
  1
R=961.09'
 50
353.3189
  7
txt
 72
     4
 11
956809.82304
 21
7279172.56424
 31
0.0
210
0.0
220
0.0
230
1.0
  0
TEXT
  8
11
  6
CONTINUOUS
 62
     7
  5
206
 10
956747.941
 20
7279164.673
 30
0.0
 40
8.0
  1
1.36'
 50
298.3189
  7
txt
 72
     4
 11
956758.125406
 21
7279154.205527
 31
0.0
210
0.0
220
0.0
230
1.0
  0
TEXT
  8
11
  6
CONTINUOUS
 62
     7
  5
207
 10
956723.746
 20
7279150.878
 30
0.0
 40
8.0
  1
3.4'
 50
28.3189
  7
txt
 72
     4
 11
956732.273246
 21
7279160.016875
 31
0.0
210
0.0
220
0.0
230
1.0
  0
TEXT
  8
11
  6
CONTINUOUS
 62
     7
  5
208
 10
957052.121
 20
7279160.367
 30
0.0
 40
8.0
  1
470.57'
 50
358.956683
  7
txt
 72
     4
 11
957076.062875
 21
7279163.93165
 31
0.0
210
0.0
220
0.0
230
1.0
  0
TEXT
  8
11
  6
CONTINUOUS
 62
     7
  5
209
 10
957032.317
 20
7279146.727
 30
0.0
 40
8.0
  1
S88%%d25'22"E
 50
358.956683
  7
txt
 72
     4
 11
957071.935276
 21
7279150.006162
 31
0.0
210
0.0
220
0.0
230
1.0
  0
TEXT
  8
11
  6
CONTINUOUS
 62
     7
  5
20A
 10
957036.868
 20
7278742.196
 30
0.0
 40
8.0
  1
959.89'
 50
53.717275
  7
txt
 72
     4
 11
957047.304587
 21
7278763.172055
 31
0.0
210
0.0
220
0.0
230
1.0
  0
TEXT
  8
11
  6
CONTINUOUS
 62
     7
  5
20B
 10
957149.448
 20
7278893.151
 30
0.0
 40
8.0
  1
S36%%d49'W
 50
53.717275
  7
txt
 72
     4
 11
957163.702096
 21
7278919.327249
 31
0.0
210
0.0
220
0.0
230
1.0
  0
TEXT
  8
11
  6
CONTINUOUS
 62
     7
  5
20C
 10
956770.342
 20
7278286.447
 30
0.0
 40
8.0
  1
129.87'
 50
88.223308
  7
txt
 72
     4
 11
956767.028433
 21
7278308.638403
 31
0.0
210
0.0
220
0.0
230
1.0
  0
TEXT
  8
11
  6
CONTINUOUS
 62
     7
  5
20D
 10
956788.15
 20
7278279.957
 30
0.0
 40
8.0
  1
S02%%d18'38"W
 50
88.223308
  7
txt
 72
     4
 11
956785.374293
 21
7278319.488063
 31
0.0
210
0.0
220
0.0
230
1.0
  0
TEXT
  8
11
  6
CONTINUOUS
 62
     7
  5
20E
 10
956887.236
 20
7278506.004
 30
0.0
 40
8.0
  1
451.8'
 50
53.717275
  7
txt
 72
     4
 11
956894.914938
 21
7278523.223597
 31
0.0
210
0.0
220
0.0
230
1.0
  0
TEXT
  8
11
  6
CONTINUOUS
 62
     7
  5
20F
 10
956943.778
 20
7278288.652
 30
0.0
 40
8.0
  1
239.12'
 50
22.010192
  7
txt
 72
     4
 11
956962.71814
 21
7278300.622682
 31
0.0
210
0.0
220
0.0
230
1.0
  0
TEXT
  8
11
  6
CONTINUOUS
 62
     7
  5
210
 10
957162.598
 20
7278333.267
 30
0.0
 40
8.0
  1
177'
 50
1.918806
  7
txt
 72
     4
 11
957174.73918
 21
7278337.675998
 31
0.0
210
0.0
220
0.0
230
1.0
  0
TEXT
  8
11
  6
CONTINUOUS
 62
     7
  5
211
 10
957400.047
 20
7278341.222
 30
0.0
 40
8.0
  1
150'
 50
1.918806
  7
txt
 72
     4
 11
957412.094233
 21
7278345.627851
 31
0.0
210
0.0
220
0.0
230
1.0
  0
TEXT
  8
11
  6
CONTINUOUS
 62
     7
  5
212
 10
957669.006
 20
7278402.724
 30
0.0
 40
8.0
  1
659.3'
 50
15.852231
  7
txt
 72
     4
 11
957686.454369
 21
7278411.836711
 31
0.0
210
0.0
220
0.0
230
1.0
  0
TEXT
  8
11
  6
CONTINUOUS
 62
     7
  5
213
 10
958105.736
 20
7278557.31
 30
0.0
 40
8.0
  1
97.5'
 50
88.3189
  7
txt
 72
     4
 11
958102.192291
 21
7278572.915677
 31
0.0
210
0.0
220
0.0
230
1.0
  0
TEXT
  8
11
  6
CONTINUOUS
 62
     7
  5
214
 10
956949.765
 20
7278270.683
 30
0.0
 40
8.0
  1
N73%%d05'E
 50
22.010192
  7
txt
 72
     4
 11
956974.597897
 21
7278285.035729
 31
0.0
210
0.0
220
0.0
230
1.0
  0
TEXT
  8
11
  6
CONTINUOUS
 62
     7
  5
215
 10
957150.452
 20
7278314.866
 30
0.0
 40
8.0
  1
N86%%d24'E
 50
1.918806
  7
txt
 72
     4
 11
957178.704142
 21
7278319.814747
 31
0.0
210
0.0
220
0.0
230
1.0
  0
TEXT
  8
11
  6
CONTINUOUS
 62
     7
  5
216
 10
957993.371
 20
7278472.203
 30
0.0
 40
8.0
  1
N72%%d28'E
 50
15.852231
  7
txt
 72
     4
 11
958019.631008
 21
7278483.817832
 31
0.0
210
0.0
220
0.0
230
1.0
  0
TEXT
  8
11
  6
CONTINUOUS
 62
     7
  5
217
 10
958108.144
 20
7278620.956
 30
0.0
 40
8.0
  1
20'
 50
358.3189
  7
txt
 72
     4
 11
958117.863212
 21
7278624.672472
 31
0.0
210
0.0
220
0.0
230
1.0
  0
TEXT
  8
11
  6
CONTINUOUS
 62
     7
  5
218
 10
958143.496
 20
7278622.296
 30
0.0
 40
8.0
  1
40'
 50
358.3189
  7
txt
 72
     4
 11
958153.40413
 21
7278626.006927
 31
0.0
210
0.0
220
0.0
230
1.0
  0
TEXT
  8
11
  6
CONTINUOUS
 62
     7
  5
219
 10
958177.401
 20
7279650.659
 30
0.0
 40
8.0
  1
40'
 50
358.3189
  7
txt
 72
     4
 11
958187.30913
 21
7279654.369927
 31
0.0
210
0.0
220
0.0
230
1.0
  0
TEXT
  8
11
  6
CONTINUOUS
 62
     7
  5
21A
 10
958174.665
 20
7279766.139
 30
0.0
 40
8.0
  1
40'
 50
358.3189
  7
txt
 72
     4
 11
958184.57313
 21
7279769.849927
 31
0.0
210
0.0
220
0.0
230
1.0
  0
TEXT
  8
11
  6
CONTINUOUS
 62
     7
  5
21B
 10
958189.245
 20
7280262.394
 30
0.0
 40
8.0
  1
40'
 50
358.3189
  7
txt
 72
     4
 11
958199.15313
 21
7280266.104927
 31
0.0
210
0.0
220
0.0
230
1.0
  0
TEXT
  8
11
  6
CONTINUOUS
 62
     7
  5
21C
 10
958195.65
 20
7280352.882
 30
0.0
 40
8.0
  1
40'
 50
358.3189
  7
txt
 72
     4
 11
958205.55813
 21
7280356.592927
 31
0.0
210
0.0
220
0.0
230
1.0
  0
TEXT
  8
11
  6
CONTINUOUS
 62
     7
  5
21D
 10
958206.667
 20
7280856.006
 30
0.0
 40
8.0
  1
40'
 50
358.3189
  7
txt
 72
     4
 11
958216.57513
 21
7280859.716927
 31
0.0
210
0.0
220
0.0
230
1.0
  0
TEXT
  8
11
  6
CONTINUOUS
 62
     7
  5
21E
 10
958215.15
 20
7280957.107
 30
0.0
 40
8.0
  1
40'
 50
358.3189
  7
txt
 72
     4
 11
958225.05813
 21
7280960.817927
 31
0.0
210
0.0
220
0.0
230
1.0
  0
TEXT
  8
11
  6
CONTINUOUS
 62
     7
  5
21F
 10
958233.375
 20
7281734.641
 30
0.0
 40
8.0
  1
40'
 50
358.3189
  7
txt
 72
     4
 11
958243.28313
 21
7281738.351927
 31
0.0
210
0.0
220
0.0
230
1.0
  0
TEXT
  8
11
  6
CONTINUOUS
 62
     7
  5
220
 10
958233.699
 20
7281873.395
 30
0.0
 40
8.0
  1
40'
 50
358.3189
  7
txt
 72
     4
 11
958243.60713
 21
7281877.105927
 31
0.0
210
0.0
220
0.0
230
1.0
  0
TEXT
  8
11
  6
CONTINUOUS
 62
     7
  5
221
 10
958273.24
 20
7283144.55
 30
0.0
 40
8.0
  1
40'
 50
358.3189
  7
txt
 72
     4
 11
958283.14813
 21
7283148.260927
 31
0.0
210
0.0
220
0.0
230
1.0
  0
TEXT
  8
11
  6
CONTINUOUS
 62
     7
  5
222
 10
958276.65
 20
7283285.23
 30
0.0
 40
8.0
  1
40'
 50
358.3189
  7
txt
 72
     4
 11
958286.55813
 21
7283288.940927
 31
0.0
210
0.0
220
0.0
230
1.0
  0
TEXT
  8
11
  6
CONTINUOUS
 62
     7
  5
223
 10
958098.03
 20
7278340.165
 30
0.0
 40
8.0
  1
302.7'
 50
88.3189
  7
txt
 72
     4
 11
958094.608272
 21
7278359.926887
 31
0.0
210
0.0
220
0.0
230
1.0
  0
TEXT
  8
11
  6
CONTINUOUS
 62
     7
  5
224
 10
958132.789
 20
7278883.94
 30
0.0
 40
8.0
  1
533.4'
 50
88.3189
  7
txt
 72
     4
 11
958129.372817
 21
7278903.890806
 31
0.0
210
0.0
220
0.0
230
1.0
  0
TEXT
  8
11
  6
CONTINUOUS
 62
     7
  5
225
 10
958133.288
 20
7279170.031
 30
0.0
 40
8.0
  1
60'
 50
88.3189
  7
txt
 72
     4
 11
958129.565954
 21
7279179.560293
 31
0.0
210
0.0
220
0.0
230
1.0
  0
TEXT
  8
11
  6
CONTINUOUS
 62
     7
  5
226
 10
957986.182
 20
7279370.316
 30
0.0
 40
8.0
  1
332.81'
 50
88.3189
  7
txt
 72
     4
 11
957982.836049
 21
7279392.659776
 31
0.0
210
0.0
220
0.0
230
1.0
  0
TEXT
  8
11
  6
CONTINUOUS
 62
     7
  5
227
 10
958147.307
 20
7279370.485
 30
0.0
 40
8.0
  1
317.81'
 50
88.3189
  7
txt
 72
     4
 11
958143.920388
 21
7279391.443372
 31
0.0
210
0.0
220
0.0
230
1.0
  0
TEXT
  8
11
  6
CONTINUOUS
 62
     7
  5
228
 10
958155.08
 20
7279544.49
 30
0.0
 40
8.0
  1
20'
 50
88.3189
  7
txt
 72
     4
 11
958151.363528
 21
7279554.209212
 31
0.0
210
0.0
220
0.0
230
1.0
  0
TEXT
  8
11
  6
CONTINUOUS
 62
     7
  5
229
 10
957374.855
 20
7279567.389
 30
0.0
 40
8.0
  1
20'
 50
88.3189
  7
txt
 72
     4
 11
957371.138528
 21
7279577.108212
 31
0.0
210
0.0
220
0.0
230
1.0
  0
TEXT
  8
11
  6
CONTINUOUS
 62
     7
  5
22A
 10
957050.374
 20
7279754.375
 30
0.0
 40
8.0
  1
20'
 50
58.3189
  7
txt
 72
     4
 11
957052.015047
 21
7279764.65032
 31
0.0
210
0.0
220
0.0
230
1.0
  0
TEXT
  8
11
  6
CONTINUOUS
 62
     7
  5
22B
 10
958048.224
 20
7279217.047
 30
0.0
 40
8.0
  1
165'
 50
358.3189
  7
txt
 72
     4
 11
958060.367168
 21
7279220.692331
 31
0.0
210
0.0
220
0.0
230
1.0
  0
TEXT
  8
11
  6
CONTINUOUS
 62
     7
  5
22C
 10
958058.146
 20
7279530.517
 30
0.0
 40
8.0
  1
180'
 50
358.3189
  7
txt
 72
     4
 11
958070.4461
 21
7279534.157725
 31
0.0
210
0.0
220
0.0
230
1.0
  0
TEXT
  8
11
  6
CONTINUOUS
 62
     7
  5
22D
 10
958116.048
 20
7279665.008
 30
0.0
 40
8.0
  1
60'
 50
358.3189
  7
txt
 72
     4
 11
958125.577293
 21
7279668.730046
 31
0.0
210
0.0
220
0.0
230
1.0
  0
TEXT
  8
11
  6
CONTINUOUS
 62
     7
  5
22E
 10
958114.325
 20
7279567.45
 30
0.0
 40
8.0
  1
75'
 50
358.3189
  7
txt
 72
     4
 11
958124.107184
 21
7279571.164624
 31
0.0
210
0.0
220
0.0
230
1.0
  0
TEXT
  8
11
  6
CONTINUOUS
 62
     7
  5
22F
 10
958122.258
 20
7279837.733
 30
0.0
 40
8.0
  1
75'
 50
358.3189
  7
txt
 72
     4
 11
958132.040184
 21
7279841.447624
 31
0.0
210
0.0
220
0.0
230
1.0
  0
TEXT
  8
11
  6
CONTINUOUS
 62
     7
  5
230
 10
957192.643
 20
7279694.692
 30
0.0
 40
8.0
  1
75'
 50
328.3189
  7
txt
 72
     4
 11
957202.971932
 21
7279693.017866
 31
0.0
210
0.0
220
0.0
230
1.0
  0
TEXT
  8
11
  6
CONTINUOUS
 62
     7
  5
231
 10
957257.82
 20
7279656.525
 30
0.0
 40
8.0
  1
75'
 50
328.3189
  7
txt
 72
     4
 11
957268.148932
 21
7279654.850866
 31
0.0
210
0.0
220
0.0
230
1.0
  0
TEXT
  8
11
  6
CONTINUOUS
 62
     7
  5
232
 10
958047.737
 20
7279665.619
 30
0.0
 40
8.0
  1
63'
 50
358.3189
  7
txt
 72
     4
 11
958057.29828
 21
7279669.340107
 31
0.0
210
0.0
220
0.0
230
1.0
  0
TEXT
  8
11
  6
CONTINUOUS
 62
     7
  5
233
 10
957668.565
 20
7279678.07
 30
0.0
 40
8.0
  1
63'
 50
358.3189
  7
txt
 72
     4
 11
957678.12628
 21
7279681.791107
 31
0.0
210
0.0
220
0.0
230
1.0
  0
TEXT
  8
11
  6
CONTINUOUS
 62
     7
  5
234
 10
957606.288
 20
7279678.992
 30
0.0
 40
8.0
  1
62'
 50
358.3189
  7
txt
 72
     4
 11
957615.84928
 21
7279682.713107
 31
0.0
210
0.0
220
0.0
230
1.0
  0
TEXT
  8
11
  6
CONTINUOUS
 62
     7
  5
235
 10
957563.537
 20
7279680.436
 30
0.0
 40
8.0
  1
22'
 50
358.3189
  7
txt
 72
     4
 11
957573.288198
 21
7279684.151533
 31
0.0
210
0.0
220
0.0
230
1.0
  0
TEXT
  8
11
  6
CONTINUOUS
 62
     7
  5
236
 10
957227.353
 20
7279789.831
 30
0.0
 40
8.0
  1
30'
 50
328.560725
  7
txt
 72
     4
 11
957237.635155
 21
7279788.233336
 31
0.0
210
0.0
220
0.0
230
1.0
  0
TEXT
  8
11
  6
CONTINUOUS
 62
     7
  5
237
 10
957186.712
 20
7279815.841
 30
0.0
 40
8.0
  1
70'
 50
328.560725
  7
txt
 72
     4
 11
957197.020604
 21
7279814.227167
 31
0.0
210
0.0
220
0.0
230
1.0
  0
TEXT
  8
11
  6
CONTINUOUS
 62
     7
  5
238
 10
957126.278
 20
7279851.915
 30
0.0
 40
8.0
  1
70'
 50
328.560725
  7
txt
 72
     4
 11
957136.586604
 21
7279850.301167
 31
0.0
210
0.0
220
0.0
230
1.0
  0
TEXT
  8
11
  6
CONTINUOUS
 62
     7
  5
239
 10
957310.0
 20
7279619.893
 30
0.0
 40
8.0
  1
76.89'
 50
328.560442
  7
txt
 72
     4
 11
957328.558098
 21
7279613.235777
 31
0.0
210
0.0
220
0.0
230
1.0
  0
TEXT
  8
11
  6
CONTINUOUS
 62
     7
  5
23A
 10
957381.95
 20
7279586.681
 30
0.0
 40
8.0
  1
76.89'
 50
358.3189
  7
txt
 72
     4
 11
957401.365037
 21
7279590.112908
 31
0.0
210
0.0
220
0.0
230
1.0
  0
TEXT
  8
11
  6
CONTINUOUS
 62
     7
  5
23B
 10
957468.082
 20
7279584.153
 30
0.0
 40
8.0
  1
75'
 50
358.3189
  7
txt
 72
     4
 11
957477.864184
 21
7279587.867624
 31
0.0
210
0.0
220
0.0
230
1.0
  0
TEXT
  8
11
  6
CONTINUOUS
 62
     7
  5
23C
 10
957536.51
 20
7279582.145
 30
0.0
 40
8.0
  1
67'
 50
358.3189
  7
txt
 72
     4
 11
957546.103266
 21
7279585.865168
 31
0.0
210
0.0
220
0.0
230
1.0
  0
TEXT
  8
11
  6
CONTINUOUS
 62
     7
  5
23D
 10
957329.751
 20
7279749.831
 30
0.0
 40
8.0
  1
R=619.81'
 50
338.801922
  7
txt
 72
     4
 11
957357.036131
 21
7279743.539147
 31
0.0
210
0.0
220
0.0
230
1.0
  0
TEXT
  8
11
  6
CONTINUOUS
 62
     7
  5
23E
 10
957419.377
 20
7279764.807
 30
0.0
 40
8.0
  1
R=559.81'
 50
346.446208
  7
txt
 72
     4
 11
957448.819824
 21
7279761.823751
 31
0.0
210
0.0
220
0.0
230
1.0
  0
TEXT
  8
11
  6
CONTINUOUS
 62
     7
  5
23F
 10
957370.438
 20
7279950.708
 30
0.0
 40
8.0
  1
R=259.81'
 50
34.301247
  7
txt
 72
     4
 11
957392.406318
 21
7279970.536582
 31
0.0
210
0.0
220
0.0
230
1.0
  0
TEXT
  8
11
  6
CONTINUOUS
 62
     7
  5
240
 10
957368.288
 20
7279990.962
 30
0.0
 40
8.0
  1
R=309.81'
 50
29.755986
  7
txt
 72
     4
 11
957391.730796
 21
7280008.971426
 31
0.0
210
0.0
220
0.0
230
1.0
  0
TEXT
  8
11
  6
CONTINUOUS
 62
     7
  5
241
 10
957267.415
 20
7279868.4
 30
0.0
 40
8.0
  1
50'
 50
358.3189
  7
txt
 72
     4
 11
957277.134212
 21
7279872.116472
 31
0.0
210
0.0
220
0.0
230
1.0
  0
TEXT
  8
11
  6
CONTINUOUS
 62
     7
  5
242
 10
957131.548
 20
7279889.049
 30
0.0
 40
8.0
  1
60'
 50
63.3189
  7
txt
 72
     4
 11
957132.201934
 21
7279899.258477
 31
0.0
210
0.0
220
0.0
230
1.0
  0
TEXT
  8
11
  6
CONTINUOUS
 62
     7
  5
243
 10
957306.511
 20
7279789.398
 30
0.0
 40
8.0
  1
60'
 50
88.3189
  7
txt
 72
     4
 11
957302.788954
 21
7279798.927293
 31
0.0
210
0.0
220
0.0
230
1.0
  0
TEXT
  8
11
  6
CONTINUOUS
 62
     7
  5
244
 10
958127.629
 20
7279699.761
 30
0.0
 40
8.0
  1
60'
 50
88.3189
  7
txt
 72
     4
 11
958123.906954
 21
7279709.290293
 31
0.0
210
0.0
220
0.0
230
1.0
  0
TEXT
  8
11
  6
CONTINUOUS
 62
     7
  5
245
 10
958023.775
 20
7280007.996
 30
0.0
 40
8.0
  1
50'
 50
88.3189
  7
txt
 72
     4
 11
958020.058528
 21
7280017.715212
 31
0.0
210
0.0
220
0.0
230
1.0
  0
TEXT
  8
11
  6
CONTINUOUS
 62
     7
  5
246
 10
958081.106
 20
7280009.06
 30
0.0
 40
8.0
  1
R=50'
 50
358.3189
  7
txt
 72
     4
 11
958098.09808
 21
7280012.563019
 31
0.0
210
0.0
220
0.0
230
1.0
  0
TEXT
  8
11
  6
CONTINUOUS
 62
     7
  5
247
 10
958163.039
 20
7279853.312
 30
0.0
 40
8.0
  1
20'
 50
88.3189
  7
txt
 72
     4
 11
958159.322528
 21
7279863.031212
 31
0.0
210
0.0
220
0.0
230
1.0
  0
TEXT
  8
11
  6
CONTINUOUS
 62
     7
  5
248
 10
957355.679
 20
7279919.281
 30
0.0
 40
8.0
  1
20'
 50
52.3189
  7
txt
 72
     4
 11
957358.38512
 21
7279929.328495
 31
0.0
210
0.0
220
0.0
230
1.0
  0
TEXT
  8
11
  6
CONTINUOUS
 62
     7
  5
249
 10
957300.662
 20
7279953.72
 30
0.0
 40
8.0
  1
20'
 50
53.3189
  7
txt
 72
     4
 11
957303.192355
 21
7279963.813193
 31
0.0
210
0.0
220
0.0
230
1.0
  0
TEXT
  8
11
  6
CONTINUOUS
 62
     7
  5
24A
 10
957208.968
 20
7280048.204
 30
0.0
 40
8.0
  1
20'
 50
318.3189
  7
txt
 72
     4
 11
957218.80225
 21
7280044.803594
 31
0.0
210
0.0
220
0.0
230
1.0
  0
TEXT
  8
11
  6
CONTINUOUS
 62
     7
  5
24B
 10
958171.992
 20
7280152.849
 30
0.0
 40
8.0
  1
20'
 50
88.3189
  7
txt
 72
     4
 11
958168.275528
 21
7280162.568212
 31
0.0
210
0.0
220
0.0
230
1.0
  0
TEXT
  8
11
  6
CONTINUOUS
 62
     7
  5
24C
 10
958119.748
 20
7279743.594
 30
0.0
 40
8.0
  1
60'
 50
358.3189
  7
txt
 72
     4
 11
958129.277293
 21
7279747.316046
 31
0.0
210
0.0
220
0.0
230
1.0
  0
TEXT
  8
11
  6
CONTINUOUS
 62
     7
  5
24D
 10
958048.606
 20
7279744.358
 30
0.0
 40
8.0
  1
64'
 50
358.3189
  7
txt
 72
     4
 11
958058.356198
 21
7279748.073562
 31
0.0
210
0.0
220
0.0
230
1.0
  0
TEXT
  8
11
  6
CONTINUOUS
 62
     7
  5
24E
 10
957793.615
 20
7279751.842
 30
0.0
 40
8.0
  1
64'
 50
358.3189
  7
txt
 72
     4
 11
957803.365198
 21
7279755.557562
 31
0.0
210
0.0
220
0.0
230
1.0
  0
TEXT
  8
11
  6
CONTINUOUS
 62
     7
  5
24F
 10
957729.423
 20
7279754.632
 30
0.0
 40
8.0
  1
62'
 50
358.3189
  7
txt
 72
     4
 11
957738.98428
 21
7279758.353107
 31
0.0
210
0.0
220
0.0
230
1.0
  0
TEXT
  8
11
  6
CONTINUOUS
 62
     7
  5
250
 10
957607.051
 20
7279757.317
 30
0.0
 40
8.0
  1
62'
 50
358.3189
  7
txt
 72
     4
 11
957616.61228
 21
7279761.038107
 31
0.0
210
0.0
220
0.0
230
1.0
  0
TEXT
  8
11
  6
CONTINUOUS
 62
     7
  5
251
 10
957983.634
 20
7279977.06
 30
0.0
 40
8.0
  1
65'
 50
358.3189
  7
txt
 72
     4
 11
957993.19528
 21
7279980.781107
 31
0.0
210
0.0
220
0.0
230
1.0
  0
TEXT
  8
11
  6
CONTINUOUS
 62
     7
  5
252
 10
957596.683
 20
7279989.811
 30
0.0
 40
8.0
  1
65'
 50
358.3189
  7
txt
 72
     4
 11
957606.24428
 21
7279993.532107
 31
0.0
210
0.0
220
0.0
230
1.0
  0
TEXT
  8
11
  6
CONTINUOUS
 62
     7
  5
253
 10
957562.691
 20
7279759.943
 30
0.0
 40
8.0
  1
19'
 50
358.3189
  7
txt
 72
     4
 11
957570.835889
 21
7279763.705677
 31
0.0
210
0.0
220
0.0
230
1.0
  0
TEXT
  8
11
  6
CONTINUOUS
 62
     7
  5
254
 10
958151.198
 20
7280015.37
 30
0.0
 40
8.0
  1
25'
 50
358.3189
  7
txt
 72
     4
 11
958160.949198
 21
7280019.085533
 31
0.0
210
0.0
220
0.0
230
1.0
  0
TEXT
  8
11
  6
CONTINUOUS
 62
     7
  5
255
 10
957530.841
 20
7279991.744
 30
0.0
 40
8.0
  1
28.87'
 50
358.3189
  7
txt
 72
     4
 11
957550.633874
 21
7279995.164818
 31
0.0
210
0.0
220
0.0
230
1.0
  0
TEXT
  8
11
  6
CONTINUOUS
 62
     7
  5
256
 10
957450.385
 20
7279896.807
 30
0.0
 40
8.0
  1
63.83'
 50
358.3189
  7
txt
 72
     4
 11
957469.957969
 21
7279900.234272
 31
0.0
210
0.0
220
0.0
230
1.0
  0
TEXT
  8
11
  6
CONTINUOUS
 62
     7
  5
257
 10
957528.491
 20
7279893.884
 30
0.0
 40
8.0
  1
70'
 50
358.3189
  7
txt
 72
     4
 11
957538.241198
 21
7279897.599562
 31
0.0
210
0.0
220
0.0
230
1.0
  0
TEXT
  8
11
  6
CONTINUOUS
 62
     7
  5
258
 10
958029.158
 20
7279975.776
 30
0.0
 40
8.0
  1
26.7'
 50
358.3189
  7
txt
 72
     4
 11
958044.763677
 21
7279979.319709
 31
0.0
210
0.0
220
0.0
230
1.0
  0
TEXT
  8
11
  6
CONTINUOUS
 62
     7
  5
259
 10
958033.911
 20
7280042.751
 30
0.0
 40
8.0
  1
26.7'
 50
358.3189
  7
txt
 72
     4
 11
958049.516677
 21
7280046.294709
 31
0.0
210
0.0
220
0.0
230
1.0
  0
TEXT
  8
11
  6
CONTINUOUS
 62
     7
  5
25A
 10
957989.294
 20
7280044.061
 30
0.0
 40
8.0
  1
65'
 50
358.3189
  7
txt
 72
     4
 11
957998.85528
 21
7280047.782107
 31
0.0
210
0.0
220
0.0
230
1.0
  0
TEXT
  8
11
  6
CONTINUOUS
 62
     7
  5
25B
 10
957671.011
 20
7280053.591
 30
0.0
 40
8.0
  1
65'
 50
358.3189
  7
txt
 72
     4
 11
957680.57228
 21
7280057.312107
 31
0.0
210
0.0
220
0.0
230
1.0
  0
TEXT
  8
11
  6
CONTINUOUS
 62
     7
  5
25C
 10
957609.053
 20
7280055.221
 30
0.0
 40
8.0
  1
64'
 50
358.3189
  7
txt
 72
     4
 11
957618.803198
 21
7280058.936562
 31
0.0
210
0.0
220
0.0
230
1.0
  0
TEXT
  8
11
  6
CONTINUOUS
 62
     7
  5
25D
 10
957543.151
 20
7280058.061
 30
0.0
 40
8.0
  1
38.87'
 50
358.3189
  7
txt
 72
     4
 11
957562.943874
 21
7280061.481818
 31
0.0
210
0.0
220
0.0
230
1.0
  0
TEXT
  8
11
  6
CONTINUOUS
 62
     7
  5
25E
 10
958050.968
 20
7279877.18
 30
0.0
 40
8.0
  1
70'
 50
358.3189
  7
txt
 72
     4
 11
958060.718198
 21
7279880.895562
 31
0.0
210
0.0
220
0.0
230
1.0
  0
TEXT
  8
11
  6
CONTINUOUS
 62
     7
  5
25F
 10
958123.353
 20
7279875.055
 30
0.0
 40
8.0
  1
75'
 50
358.3189
  7
txt
 72
     4
 11
958133.135184
 21
7279878.769624
 31
0.0
210
0.0
220
0.0
230
1.0
  0
TEXT
  8
11
  6
CONTINUOUS
 62
     7
  5
260
 10
958132.549
 20
7280140.9
 30
0.0
 40
8.0
  1
75'
 50
358.3189
  7
txt
 72
     4
 11
958142.331184
 21
7280144.614624
 31
0.0
210
0.0
220
0.0
230
1.0
  0
TEXT
  8
11
  6
CONTINUOUS
 62
     7
  5
261
 10
958058.772
 20
7280143.065
 30
0.0
 40
8.0
  1
70'
 50
358.3189
  7
txt
 72
     4
 11
958068.522198
 21
7280146.780562
 31
0.0
210
0.0
220
0.0
230
1.0
  0
TEXT
  8
11
  6
CONTINUOUS
 62
     7
  5
262
 10
957192.952
 20
7279897.435
 30
0.0
 40
8.0
  1
80'
 50
328.560161
  7
txt
 72
     4
 11
957203.234139
 21
7279895.837235
 31
0.0
210
0.0
220
0.0
230
1.0
  0
TEXT
  8
11
  6
CONTINUOUS
 62
     7
  5
263
 10
957247.055
 20
7279873.944
 30
0.0
 40
8.0
  1
37.07'
 50
58.560792
  7
txt
 72
     4
 11
957253.909272
 21
7279892.824646
 31
0.0
210
0.0
220
0.0
230
1.0
  0
TEXT
  8
11
  6
CONTINUOUS
 62
     7
  5
264
 10
958155.472
 20
7279605.095
 30
0.0
 40
8.0
  1
100'
 50
88.3189
  7
txt
 72
     4
 11
958151.830336
 21
7279617.363114
 31
0.0
210
0.0
220
0.0
230
1.0
  0
TEXT
  8
11
  6
CONTINUOUS
 62
     7
  5
265
 10
958098.577
 20
7279610.886
 30
0.0
 40
8.0
  1
115'
 50
88.3189
  7
txt
 72
     4
 11
958094.895615
 21
7279621.800697
 31
0.0
210
0.0
220
0.0
230
1.0
  0
TEXT
  8
11
  6
CONTINUOUS
 62
     7
  5
266
 10
957579.942
 20
7279627.026
 30
0.0
 40
8.0
  1
115'
 50
88.3189
  7
txt
 72
     4
 11
957576.260615
 21
7279637.940697
 31
0.0
210
0.0
220
0.0
230
1.0
  0
TEXT
  8
11
  6
CONTINUOUS
 62
     7
  5
267
 10
957514.187
 20
7279618.569
 30
0.0
 40
8.0
  1
116.38'
 50
85.309994
  7
txt
 72
     4
 11
957511.887116
 21
7279639.455986
 31
0.0
210
0.0
220
0.0
230
1.0
  0
TEXT
  8
11
  6
CONTINUOUS
 62
     7
  5
268
 10
957443.246
 20
7279618.732
 30
0.0
 40
8.0
  1
124.73'
 50
79.038194
  7
txt
 72
     4
 11
957443.589095
 21
7279641.53889
 31
0.0
210
0.0
220
0.0
230
1.0
  0
TEXT
  8
11
  6
CONTINUOUS
 62
     7
  5
269
 10
957373.763
 20
7279638.656
 30
0.0
 40
8.0
  1
140.91'
 50
73.315931
  7
txt
 72
     4
 11
957375.898931
 21
7279659.715335
 31
0.0
210
0.0
220
0.0
230
1.0
  0
TEXT
  8
11
  6
CONTINUOUS
 62
     7
  5
26A
 10
957308.343
 20
7279663.808
 30
0.0
 40
8.0
  1
124.73'
 50
67.569483
  7
txt
 72
     4
 11
957313.214001
 21
7279686.091296
 31
0.0
210
0.0
220
0.0
230
1.0
  0
TEXT
  8
11
  6
CONTINUOUS
 62
     7
  5
26B
 10
957247.373
 20
7279697.345
 30
0.0
 40
8.0
  1
116.38'
 50
61.305183
  7
txt
 72
     4
 11
957253.769135
 21
7279717.361121
 31
0.0
210
0.0
220
0.0
230
1.0
  0
TEXT
  8
11
  6
CONTINUOUS
 62
     7
  5
26C
 10
957083.993
 20
7279811.453
 30
0.0
 40
8.0
  1
115'
 50
58.560569
  7
txt
 72
     4
 11
957086.214522
 21
7279822.755568
 31
0.0
210
0.0
220
0.0
230
1.0
  0
TEXT
  8
11
  6
CONTINUOUS
 62
     7
  5
26D
 10
957195.487
 20
7279945.897
 30
0.0
 40
8.0
  1
105'
 50
58.560483
  7
txt
 72
     4
 11
957198.431474
 21
7279958.382088
 31
0.0
210
0.0
220
0.0
230
1.0
  0
TEXT
  8
11
  6
CONTINUOUS
 62
     7
  5
26E
 10
957397.209
 20
7279821.386
 30
0.0
 40
8.0
  1
98.55'
 50
46.790792
  7
txt
 72
     4
 11
957407.619871
 21
7279838.311161
 31
0.0
210
0.0
220
0.0
230
1.0
  0
TEXT
  8
11
  6
CONTINUOUS
 62
     7
  5
26F
 10
957461.897
 20
7279806.085
 30
0.0
 40
8.0
  1
106.72'
 50
66.089994
  7
txt
 72
     4
 11
957467.175538
 21
7279827.860288
 31
0.0
210
0.0
220
0.0
230
1.0
  0
TEXT
  8
11
  6
CONTINUOUS
 62
     7
  5
270
 10
957531.238
 20
7279805.647
 30
0.0
 40
8.0
  1
113.29'
 50
82.311297
  7
txt
 72
     4
 11
957530.033932
 21
7279826.6257
 31
0.0
210
0.0
220
0.0
230
1.0
  0
TEXT
  8
11
  6
CONTINUOUS
 62
     7
  5
271
 10
957594.949
 20
7279805.943
 30
0.0
 40
8.0
  1
115'
 50
88.3189
  7
txt
 72
     4
 11
957591.267615
 21
7279816.857697
 31
0.0
210
0.0
220
0.0
230
1.0
  0
TEXT
  8
11
  6
CONTINUOUS
 62
     7
  5
272
 10
958103.316
 20
7279793.053
 30
0.0
 40
8.0
  1
115'
 50
88.3189
  7
txt
 72
     4
 11
958099.634615
 21
7279803.967697
 31
0.0
210
0.0
220
0.0
230
1.0
  0
TEXT
  8
11
  6
CONTINUOUS
 62
     7
  5
273
 10
958162.369
 20
7279789.847
 30
0.0
 40
8.0
  1
100'
 50
88.3189
  7
txt
 72
     4
 11
958158.727336
 21
7279802.115114
 31
0.0
210
0.0
220
0.0
230
1.0
  0
TEXT
  8
11
  6
CONTINUOUS
 62
     7
  5
274
 10
957359.72
 20
7279902.085
 30
0.0
 40
8.0
  1
96.42'
 50
328.560911
  7
txt
 72
     4
 11
957378.412958
 21
7279895.345517
 31
0.0
210
0.0
220
0.0
230
1.0
  0
TEXT
  8
11
  6
CONTINUOUS
 62
     7
  5
275
 10
957442.858
 20
7279861.013
 30
0.0
 40
8.0
  1
50'
 50
358.3189
  7
txt
 72
     4
 11
957452.577212
 21
7279864.729472
 31
0.0
210
0.0
220
0.0
230
1.0
  0
TEXT
  8
11
  6
CONTINUOUS
 62
     7
  5
276
 10
957495.778
 20
7279859.46
 30
0.0
 40
8.0
  1
50'
 50
358.3189
  7
txt
 72
     4
 11
957505.497212
 21
7279863.176472
 31
0.0
210
0.0
220
0.0
230
1.0
  0
TEXT
  8
11
  6
CONTINUOUS
 62
     7
  5
277
 10
957542.129
 20
7279858.099
 30
0.0
 40
8.0
  1
58.19'
 50
358.3189
  7
txt
 72
     4
 11
957560.284579
 21
7279861.567872
 31
0.0
210
0.0
220
0.0
230
1.0
  0
TEXT
  8
11
  6
CONTINUOUS
 62
     7
  5
278
 10
957233.455
 20
7279978.786
 30
0.0
 40
8.0
  1
99.56'
 50
328.560317
  7
txt
 72
     4
 11
957251.824529
 21
7279972.24401
 31
0.0
210
0.0
220
0.0
230
1.0
  0
TEXT
  8
11
  6
CONTINUOUS
 62
     7
  5
279
 10
957174.542
 20
7280015.022
 30
0.0
 40
8.0
  1
33.99'
 50
328.318517
  7
txt
 72
     4
 11
957193.044592
 21
7280008.303283
 31
0.0
210
0.0
220
0.0
230
1.0
  0
TEXT
  8
11
  6
CONTINUOUS
 62
     7
  5
27A
 10
957150.393
 20
7279924.801
 30
0.0
 40
8.0
  1
25'
 50
328.559522
  7
txt
 72
     4
 11
957160.702423
 21
7279923.186429
 31
0.0
210
0.0
220
0.0
230
1.0
  0
TEXT
  8
11
  6
CONTINUOUS
 62
     7
  5
27B
 10
957510.63
 20
7279926.725
 30
0.0
 40
8.0
  1
113.25'
 50
88.3189
  7
txt
 72
     4
 11
957507.242449
 21
7279947.651386
 31
0.0
210
0.0
220
0.0
230
1.0
  0
TEXT
  8
11
  6
CONTINUOUS
 62
     7
  5
27C
 10
957580.716
 20
7279928.616
 30
0.0
 40
8.0
  1
115'
 50
88.3189
  7
txt
 72
     4
 11
957577.034615
 21
7279939.530697
 31
0.0
210
0.0
220
0.0
230
1.0
  0
TEXT
  8
11
  6
CONTINUOUS
 62
     7
  5
27D
 10
958035.529
 20
7279915.559
 30
0.0
 40
8.0
  1
115'
 50
88.3189
  7
txt
 72
     4
 11
958031.847615
 21
7279926.473697
 31
0.0
210
0.0
220
0.0
230
1.0
  0
TEXT
  8
11
  6
CONTINUOUS
 62
     7
  5
27E
 10
958105.475
 20
7279912.716
 30
0.0
 40
8.0
  1
90'
 50
88.3189
  7
txt
 72
     4
 11
958101.752954
 21
7279922.245293
 31
0.0
210
0.0
220
0.0
230
1.0
  0
TEXT
  8
11
  6
CONTINUOUS
 62
     7
  5
27F
 10
958166.762
 20
7279939.523
 30
0.0
 40
8.0
  1
140'
 50
88.3189
  7
txt
 72
     4
 11
958163.126849
 21
7279952.013018
 31
0.0
210
0.0
220
0.0
230
1.0
  0
TEXT
  8
11
  6
CONTINUOUS
 62
     7
  5
280
 10
958169.551
 20
7280082.031
 30
0.0
 40
8.0
  1
140'
 50
88.3189
  7
txt
 72
     4
 11
958165.915849
 21
7280094.521018
 31
0.0
210
0.0
220
0.0
230
1.0
  0
TEXT
  8
11
  6
CONTINUOUS
 62
     7
  5
281
 10
958110.021
 20
7280089.685
 30
0.0
 40
8.0
  1
90'
 50
88.3189
  7
txt
 72
     4
 11
958106.298954
 21
7280099.214293
 31
0.0
210
0.0
220
0.0
230
1.0
  0
TEXT
  8
11
  6
CONTINUOUS
 62
     7
  5
282
 10
958045.025
 20
7280086.478
 30
0.0
 40
8.0
  1
115'
 50
88.3189
  7
txt
 72
     4
 11
958041.343615
 21
7280097.392697
 31
0.0
210
0.0
220
0.0
230
1.0
  0
TEXT
  8
11
  6
CONTINUOUS
 62
     7
  5
283
 10
957597.265
 20
7280101.62
 30
0.0
 40
8.0
  1
115'
 50
88.3189
  7
txt
 72
     4
 11
957593.583615
 21
7280112.534697
 31
0.0
210
0.0
220
0.0
230
1.0
  0
TEXT
  8
11
  6
CONTINUOUS
 62
     7
  5
284
 10
957250.186
 20
7280007.975
 30
0.0
 40
8.0
  1
106.82'
 50
328.320175
  7
txt
 72
     4
 11
957271.020516
 21
7279999.817847
 31
0.0
210
0.0
220
0.0
230
1.0
  0
TEXT
  8
11
  6
CONTINUOUS
 62
     7
  5
285
 10
957323.704
 20
7280054.022
 30
0.0
 40
8.0
  1
115'
 50
304.6959
  7
txt
 72
     4
 11
957333.141461
 21
7280047.417643
 31
0.0
210
0.0
220
0.0
230
1.0
  0
TEXT
  8
11
  6
CONTINUOUS
 62
     7
  5
286
 10
957382.693
 20
7280095.919
 30
0.0
 40
8.0
  1
111.8'
 50
295.645853
  7
txt
 72
     4
 11
957392.964611
 21
7280083.766437
 31
0.0
210
0.0
220
0.0
230
1.0
  0
TEXT
  8
11
  6
CONTINUOUS
 62
     7
  5
287
 10
957450.711
 20
7280119.566
 30
0.0
 40
8.0
  1
110.41'
 50
283.26325
  7
txt
 72
     4
 11
957459.091409
 21
7280101.447388
 31
0.0
210
0.0
220
0.0
230
1.0
  0
TEXT
  8
11
  6
CONTINUOUS
 62
     7
  5
288
 10
957520.86
 20
7280127.662
 30
0.0
 40
8.0
  1
110.41'
 50
272.613269
  7
txt
 72
     4
 11
957525.747574
 21
7280108.306717
 31
0.0
210
0.0
220
0.0
230
1.0
  0
TEXT
  8
11
  6
CONTINUOUS
 62
     7
  5
289
 10
957254.854
 20
7280048.819
 30
0.0
 40
8.0
  1
92.16'
 50
41.967894
  7
txt
 72
     4
 11
957265.456174
 21
7280063.734306
 31
0.0
210
0.0
220
0.0
230
1.0
  0
TEXT
  8
11
  6
CONTINUOUS
 62
     7
  5
28A
 10
957324.457
 20
7280100.245
 30
0.0
 40
8.0
  1
78'
 50
24.431494
  7
txt
 72
     4
 11
957331.605784
 21
7280107.885972
 31
0.0
210
0.0
220
0.0
230
1.0
  0
TEXT
  8
11
  6
CONTINUOUS
 62
     7
  5
28B
 10
957367.107
 20
7280118.622
 30
0.0
 40
8.0
  1
46.08'
 50
24.431494
  7
txt
 72
     4
 11
957383.316646
 21
7280130.379169
 31
0.0
210
0.0
220
0.0
230
1.0
  0
TEXT
  8
11
  6
CONTINUOUS
 62
     7
  5
28C
 10
957403.699
 20
7280136.979
 30
0.0
 40
8.0
  1
33.64'
 50
8.305078
  7
txt
 72
     4
 11
957422.568123
 21
7280143.775808
 31
0.0
210
0.0
220
0.0
230
1.0
  0
TEXT
  8
11
  6
CONTINUOUS
 62
     7
  5
28D
 10
957471.875
 20
7280146.247
 30
0.0
 40
8.0
  1
78'
 50
8.305078
  7
txt
 72
     4
 11
957480.864826
 21
7280151.60168
 31
0.0
210
0.0
220
0.0
230
1.0
  0
TEXT
  8
11
  6
CONTINUOUS
 62
     7
  5
28E
 10
957528.099
 20
7280153.099
 30
0.0
 40
8.0
  1
34'
 50
8.305078
  7
txt
 72
     4
 11
957537.244179
 21
7280158.476358
 31
0.0
210
0.0
220
0.0
230
1.0
  0
TEXT
  8
11
  6
CONTINUOUS
 62
     7
  5
28F
 10
957552.476
 20
7280157.925
 30
0.0
 40
8.0
  1
37.17'
 50
358.3189
  7
txt
 72
     4
 11
957570.88347
 21
7280161.386479
 31
0.0
210
0.0
220
0.0
230
1.0
  0
TEXT
  8
11
  6
CONTINUOUS
 62
     7
  5
290
 10
957538.625
 20
7280289.574
 30
0.0
 40
8.0
  1
65'
 50
358.3189
  7
txt
 72
     4
 11
957548.18628
 21
7280293.295107
 31
0.0
210
0.0
220
0.0
230
1.0
  0
TEXT
  8
11
  6
CONTINUOUS
 62
     7
  5
291
 10
957668.424
 20
7280284.852
 30
0.0
 40
8.0
  1
65'
 50
358.3189
  7
txt
 72
     4
 11
957677.98528
 21
7280288.573107
 31
0.0
210
0.0
220
0.0
230
1.0
  0
TEXT
  8
11
  6
CONTINUOUS
 62
     7
  5
292
 10
957734.432
 20
7280282.928
 30
0.0
 40
8.0
  1
66'
 50
358.3189
  7
txt
 72
     4
 11
957743.804361
 21
7280286.654652
 31
0.0
210
0.0
220
0.0
230
1.0
  0
TEXT
  8
11
  6
CONTINUOUS
 62
     7
  5
293
 10
958065.304
 20
7280273.217
 30
0.0
 40
8.0
  1
66'
 50
358.3189
  7
txt
 72
     4
 11
958074.676361
 21
7280276.943652
 31
0.0
210
0.0
220
0.0
230
1.0
  0
TEXT
  8
11
  6
CONTINUOUS
 62
     7
  5
294
 10
958067.447
 20
7280346.245
 30
0.0
 40
8.0
  1
66'
 50
358.3189
  7
txt
 72
     4
 11
958076.819361
 21
7280349.971652
 31
0.0
210
0.0
220
0.0
230
1.0
  0
TEXT
  8
11
  6
CONTINUOUS
 62
     7
  5
295
 10
957671.681
 20
7280357.86
 30
0.0
 40
8.0
  1
66'
 50
358.3189
  7
txt
 72
     4
 11
957681.053361
 21
7280361.586652
 31
0.0
210
0.0
220
0.0
230
1.0
  0
TEXT
  8
11
  6
CONTINUOUS
 62
     7
  5
296
 10
957681.041
 20
7280584.215
 30
0.0
 40
8.0
  1
66'
 50
358.3189
  7
txt
 72
     4
 11
957690.413361
 21
7280587.941652
 31
0.0
210
0.0
220
0.0
230
1.0
  0
TEXT
  8
11
  6
CONTINUOUS
 62
     7
  5
297
 10
957941.526
 20
7280575.663
 30
0.0
 40
8.0
  1
66'
 50
358.3189
  7
txt
 72
     4
 11
957950.898361
 21
7280579.389652
 31
0.0
210
0.0
220
0.0
230
1.0
  0
TEXT
  8
11
  6
CONTINUOUS
 62
     7
  5
298
 10
957946.41
 20
7280649.518
 30
0.0
 40
8.0
  1
66'
 50
358.3189
  7
txt
 72
     4
 11
957955.782361
 21
7280653.244652
 31
0.0
210
0.0
220
0.0
230
1.0
  0
TEXT
  8
11
  6
CONTINUOUS
 62
     7
  5
299
 10
957744.459
 20
7280655.445
 30
0.0
 40
8.0
  1
66'
 50
358.3189
  7
txt
 72
     4
 11
957753.831361
 21
7280659.171652
 31
0.0
210
0.0
220
0.0
230
1.0
  0
TEXT
  8
11
  6
CONTINUOUS
 62
     7
  5
29A
 10
957677.554
 20
7280657.408
 30
0.0
 40
8.0
  1
65'
 50
358.3189
  7
txt
 72
     4
 11
957687.11528
 21
7280661.129107
 31
0.0
210
0.0
220
0.0
230
1.0
  0
TEXT
  8
11
  6
CONTINUOUS
 62
     7
  5
29B
 10
957549.531
 20
7280661.166
 30
0.0
 40
8.0
  1
65'
 50
358.3189
  7
txt
 72
     4
 11
957559.09228
 21
7280664.887107
 31
0.0
210
0.0
220
0.0
230
1.0
  0
TEXT
  8
11
  6
CONTINUOUS
 62
     7
  5
29C
 10
958135.438
 20
7280271.152
 30
0.0
 40
8.0
  1
59'
 50
358.3189
  7
txt
 72
     4
 11
958144.99928
 21
7280274.873107
 31
0.0
210
0.0
220
0.0
230
1.0
  0
TEXT
  8
11
  6
CONTINUOUS
 62
     7
  5
29D
 10
958130.498
 20
7280178.305
 30
0.0
 40
8.0
  1
74'
 50
358.3189
  7
txt
 72
     4
 11
958140.469103
 21
7280182.014079
 31
0.0
210
0.0
220
0.0
230
1.0
  0
TEXT
  8
11
  6
CONTINUOUS
 62
     7
  5
29E
 10
958142.699
 20
7280439.752
 30
0.0
 40
8.0
  1
74'
 50
358.3189
  7
txt
 72
     4
 11
958152.670103
 21
7280443.461079
 31
0.0
210
0.0
220
0.0
230
1.0
  0
TEXT
  8
11
  6
CONTINUOUS
 62
     7
  5
29F
 10
958144.769
 20
7280479.398
 30
0.0
 40
8.0
  1
74'
 50
358.3189
  7
txt
 72
     4
 11
958154.740103
 21
7280483.107079
 31
0.0
210
0.0
220
0.0
230
1.0
  0
TEXT
  8
11
  6
CONTINUOUS
 62
     7
  5
2A0
 10
958153.669
 20
7280735.519
 30
0.0
 40
8.0
  1
74'
 50
358.3189
  7
txt
 72
     4
 11
958163.640103
 21
7280739.228079
 31
0.0
210
0.0
220
0.0
230
1.0
  0
TEXT
  8
11
  6
CONTINUOUS
 62
     7
  5
2A1
 10
958164.363
 20
7280615.85
 30
0.0
 40
8.0
  1
55'
 50
358.3189
  7
txt
 72
     4
 11
958174.114198
 21
7280619.565533
 31
0.0
210
0.0
220
0.0
230
1.0
  0
TEXT
  8
11
  6
CONTINUOUS
 62
     7
  5
2A2
 10
958130.383
 20
7280345.115
 30
0.0
 40
8.0
  1
59'
 50
358.3189
  7
txt
 72
     4
 11
958139.94428
 21
7280348.836107
 31
0.0
210
0.0
220
0.0
230
1.0
  0
TEXT
  8
11
  6
CONTINUOUS
 62
     7
  5
2A3
 10
957602.504
 20
7280471.65
 30
0.0
 40
8.0
  1
20'
 50
88.3189
  7
txt
 72
     4
 11
957598.787528
 21
7280481.369212
 31
0.0
210
0.0
220
0.0
230
1.0
  0
TEXT
  8
11
  6
CONTINUOUS
 62
     7
  5
2A4
 10
958150.658
 20
7280455.562
 30
0.0
 40
8.0
  1
20'
 50
88.3189
  7
txt
 72
     4
 11
958146.941528
 21
7280465.281212
 31
0.0
210
0.0
220
0.0
230
1.0
  0
TEXT
  8
11
  6
CONTINUOUS
 62
     7
  5
2A5
 10
957612.207
 20
7280617.766
 30
0.0
 40
8.0
  1
56'
 50
88.3189
  7
txt
 72
     4
 11
957608.485893
 21
7280627.32728
 31
0.0
210
0.0
220
0.0
230
1.0
  0
TEXT
  8
11
  6
CONTINUOUS
 62
     7
  5
2A6
 10
957619.811
 20
7280321.448
 30
0.0
 40
8.0
  1
56'
 50
88.3189
  7
txt
 72
     4
 11
957616.089893
 21
7280331.00928
 31
0.0
210
0.0
220
0.0
230
1.0
  0
TEXT
  8
11
  6
CONTINUOUS
 62
     7
  5
2A7
 10
958168.109
 20
7280305.356
 30
0.0
 40
8.0
  1
56'
 50
88.3189
  7
txt
 72
     4
 11
958164.387893
 21
7280314.91728
 31
0.0
210
0.0
220
0.0
230
1.0
  0
TEXT
  8
11
  6
CONTINUOUS
 62
     7
  5
2A8
 10
957537.383
 20
7280368.964
 30
0.0
 40
8.0
  1
56'
 50
358.3189
  7
txt
 72
     4
 11
957546.94428
 21
7280372.685107
 31
0.0
210
0.0
220
0.0
230
1.0
  0
TEXT
  8
11
  6
CONTINUOUS
 62
     7
  5
2A9
 10
957543.471
 20
7280576.413
 30
0.0
 40
8.0
  1
56'
 50
358.3189
  7
txt
 72
     4
 11
957553.03228
 21
7280580.134107
 31
0.0
210
0.0
220
0.0
230
1.0
  0
TEXT
  8
11
  6
CONTINUOUS
 62
     7
  5
2AA
 10
958176.333
 20
7280216.829
 30
0.0
 40
8.0
  1
97.5'
 50
88.3189
  7
txt
 72
     4
 11
958172.789291
 21
7280232.434677
 31
0.0
210
0.0
220
0.0
230
1.0
  0
TEXT
  8
11
  6
CONTINUOUS
 62
     7
  5
2AB
 10
958179.232
 20
7280383.796
 30
0.0
 40
8.0
  1
97.5'
 50
88.3189
  7
txt
 72
     4
 11
958175.688291
 21
7280399.401677
 31
0.0
210
0.0
220
0.0
230
1.0
  0
TEXT
  8
11
  6
CONTINUOUS
 62
     7
  5
2AC
 10
958120.844
 20
7280359.837
 30
0.0
 40
8.0
  1
112.5'
 50
88.3189
  7
txt
 72
     4
 11
958117.339103
 21
7280376.765107
 31
0.0
210
0.0
220
0.0
230
1.0
  0
TEXT
  8
11
  6
CONTINUOUS
 62
     7
  5
2AD
 10
957658.419
 20
7280400.063
 30
0.0
 40
8.0
  1
112.5'
 50
88.3189
  7
txt
 72
     4
 11
957654.914103
 21
7280416.991107
 31
0.0
210
0.0
220
0.0
230
1.0
  0
TEXT
  8
11
  6
CONTINUOUS
 62
     7
  5
2AE
 10
957573.631
 20
7280197.15
 30
0.0
 40
8.0
  1
112.5'
 50
88.3189
  7
txt
 72
     4
 11
957570.126103
 21
7280214.078107
 31
0.0
210
0.0
220
0.0
230
1.0
  0
TEXT
  8
11
  6
CONTINUOUS
 62
     7
  5
2AF
 10
957525.886
 20
7280259.226
 30
0.0
 40
8.0
  1
118.7'
 50
88.3189
  7
txt
 72
     4
 11
957522.382042
 21
7280276.186094
 31
0.0
210
0.0
220
0.0
230
1.0
  0
TEXT
  8
11
  6
CONTINUOUS
 62
     7
  5
2B0
 10
958114.608
 20
7280215.764
 30
0.0
 40
8.0
  1
112.5'
 50
88.3189
  7
txt
 72
     4
 11
958111.103103
 21
7280232.692107
 31
0.0
210
0.0
220
0.0
230
1.0
  0
TEXT
  8
11
  6
CONTINUOUS
 62
     7
  5
2B1
 10
957584.941
 20
7280400.779
 30
0.0
 40
8.0
  1
97.5'
 50
88.3189
  7
txt
 72
     4
 11
957581.397291
 21
7280416.384677
 31
0.0
210
0.0
220
0.0
230
1.0
  0
TEXT
  8
11
  6
CONTINUOUS
 62
     7
  5
2B2
 10
957589.341
 20
7280529.383
 30
0.0
 40
8.0
  1
95'
 50
88.3189
  7
txt
 72
     4
 11
957585.619893
 21
7280538.94428
 31
0.0
210
0.0
220
0.0
230
1.0
  0
TEXT
  8
11
  6
CONTINUOUS
 62
     7
  5
2B3
 10
957647.549
 20
7280533.594
 30
0.0
 40
8.0
  1
110'
 50
88.3189
  7
txt
 72
     4
 11
957643.866705
 21
7280544.47771
 31
0.0
210
0.0
220
0.0
230
1.0
  0
TEXT
  8
11
  6
CONTINUOUS
 62
     7
  5
2B4
 10
957992.02
 20
7280523.948
 30
0.0
 40
8.0
  1
110'
 50
88.3189
  7
txt
 72
     4
 11
957988.337705
 21
7280534.83171
 31
0.0
210
0.0
220
0.0
230
1.0
  0
TEXT
  8
11
  6
CONTINUOUS
 62
     7
  5
2B5
 10
957996.259
 20
7280688.279
 30
0.0
 40
8.0
  1
110'
 50
88.3189
  7
txt
 72
     4
 11
957992.576705
 21
7280699.16271
 31
0.0
210
0.0
220
0.0
230
1.0
  0
TEXT
  8
11
  6
CONTINUOUS
 62
     7
  5
2B6
 10
958058.307
 20
7280507.36
 30
0.0
 40
8.0
  1
102.3'
 50
88.3189
  7
txt
 72
     4
 11
958054.842764
 21
7280525.673511
 31
0.0
210
0.0
220
0.0
230
1.0
  0
TEXT
  8
11
  6
CONTINUOUS
 62
     7
  5
2B7
 10
958065.187
 20
7280680.297
 30
0.0
 40
8.0
  1
102.3'
 50
88.3189
  7
txt
 72
     4
 11
958061.722764
 21
7280698.610511
 31
0.0
210
0.0
220
0.0
230
1.0
  0
TEXT
  8
11
  6
CONTINUOUS
 62
     7
  5
2B8
 10
958125.064
 20
7280506.811
 30
0.0
 40
8.0
  1
98.77'
 50
88.3189
  7
txt
 72
     4
 11
958121.638547
 21
7280526.445942
 31
0.0
210
0.0
220
0.0
230
1.0
  0
TEXT
  8
11
  6
CONTINUOUS
 62
     7
  5
2B9
 10
958129.672
 20
7280670.526
 30
0.0
 40
8.0
  1
98.77'
 50
88.3189
  7
txt
 72
     4
 11
958126.246547
 21
7280690.160942
 31
0.0
210
0.0
220
0.0
230
1.0
  0
TEXT
  8
11
  6
CONTINUOUS
 62
     7
  5
2BA
 10
958183.701
 20
7280528.18
 30
0.0
 40
8.0
  1
138'
 50
88.3189
  7
txt
 72
     4
 11
958180.061214
 21
7280540.512086
 31
0.0
210
0.0
220
0.0
230
1.0
  0
TEXT
  8
11
  6
CONTINUOUS
 62
     7
  5
2BB
 10
958188.039
 20
7280678.137
 30
0.0
 40
8.0
  1
138'
 50
88.3189
  7
txt
 72
     4
 11
958184.399214
 21
7280690.469086
 31
0.0
210
0.0
220
0.0
230
1.0
  0
TEXT
  8
11
  6
CONTINUOUS
 62
     7
  5
2BC
 10
957609.161
 20
7280454.966
 30
0.0
 40
8.0
  1
73'
 50
358.3189
  7
txt
 72
     4
 11
957618.943184
 21
7280458.680624
 31
0.0
210
0.0
220
0.0
230
1.0
  0
TEXT
  8
11
  6
CONTINUOUS
 62
     7
  5
2BD
 10
957605.743
 20
7280492.96
 30
0.0
 40
8.0
  1
73'
 50
358.3189
  7
txt
 72
     4
 11
957615.525184
 21
7280496.674624
 31
0.0
210
0.0
220
0.0
230
1.0
  0
TEXT
  8
11
  6
CONTINUOUS
 62
     7
  5
2BE
 10
957609.122
 20
7280360.171
 30
0.0
 40
8.0
  1
58'
 50
358.3189
  7
txt
 72
     4
 11
957618.873198
 21
7280363.886533
 31
0.0
210
0.0
220
0.0
230
1.0
  0
TEXT
  8
11
  6
CONTINUOUS
 62
     7
  5
2BF
 10
957617.596
 20
7280587.429
 30
0.0
 40
8.0
  1
58'
 50
358.3189
  7
txt
 72
     4
 11
957627.347198
 21
7280591.144533
 31
0.0
210
0.0
220
0.0
230
1.0
  0
TEXT
  8
11
  6
CONTINUOUS
 62
     7
  5
2C0
 10
957993.64
 20
7280573.863
 30
0.0
 40
8.0
  1
59.58'
 50
358.3189
  7
txt
 72
     4
 11
958013.212969
 21
7280577.290272
 31
0.0
210
0.0
220
0.0
230
1.0
  0
TEXT
  8
11
  6
CONTINUOUS
 62
     7
  5
2C1
 10
957992.199
 20
7280647.735
 30
0.0
 40
8.0
  1
59.58'
 50
358.3189
  7
txt
 72
     4
 11
958011.771969
 21
7280651.162272
 31
0.0
210
0.0
220
0.0
230
1.0
  0
TEXT
  8
11
  6
CONTINUOUS
 62
     7
  5
2C2
 10
957552.524
 20
7280884.223
 30
0.0
 40
8.0
  1
60'
 50
358.3189
  7
txt
 72
     4
 11
957562.053293
 21
7280887.945046
 31
0.0
210
0.0
220
0.0
230
1.0
  0
TEXT
  8
11
  6
CONTINUOUS
 62
     7
  5
2C3
 10
958089.886
 20
7280870.264
 30
0.0
 40
8.0
  1
60'
 50
358.3189
  7
txt
 72
     4
 11
958099.415293
 21
7280873.986046
 31
0.0
210
0.0
220
0.0
230
1.0
  0
TEXT
  8
11
  6
CONTINUOUS
 62
     7
  5
2C4
 10
958097.604
 20
7280947.86
 30
0.0
 40
8.0
  1
60'
 50
358.3189
  7
txt
 72
     4
 11
958107.133293
 21
7280951.582046
 31
0.0
210
0.0
220
0.0
230
1.0
  0
TEXT
  8
11
  6
CONTINUOUS
 62
     7
  5
2C5
 10
957559.378
 20
7280963.462
 30
0.0
 40
8.0
  1
60'
 50
358.3189
  7
txt
 72
     4
 11
957568.907293
 21
7280967.184046
 31
0.0
210
0.0
220
0.0
230
1.0
  0
TEXT
  8
11
  6
CONTINUOUS
 62
     7
  5
2C6
 10
958151.877
 20
7280868.242
 30
0.0
 40
8.0
  1
45'
 50
358.3189
  7
txt
 72
     4
 11
958161.816117
 21
7280871.952018
 31
0.0
210
0.0
220
0.0
230
1.0
  0
TEXT
  8
11
  6
CONTINUOUS
 62
     7
  5
2C7
 10
958158.495
 20
7280945.878
 30
0.0
 40
8.0
  1
45'
 50
358.3189
  7
txt
 72
     4
 11
958168.434117
 21
7280949.588018
 31
0.0
210
0.0
220
0.0
230
1.0
  0
TEXT
  8
11
  6
CONTINUOUS
 62
     7
  5
2C8
 10
958193.787
 20
7280812.024
 30
0.0
 40
8.0
  1
97'
 50
88.3189
  7
txt
 72
     4
 11
958190.066832
 21
7280821.617266
 31
0.0
210
0.0
220
0.0
230
1.0
  0
TEXT
  8
11
  6
CONTINUOUS
 62
     7
  5
2C9
 10
958197.038
 20
7280990.962
 30
0.0
 40
8.0
  1
97'
 50
88.3189
  7
txt
 72
     4
 11
958193.317832
 21
7281000.555266
 31
0.0
210
0.0
220
0.0
230
1.0
  0
TEXT
  8
11
  6
CONTINUOUS
 62
     7
  5
2CA
 10
958146.247
 20
7280988.828
 30
0.0
 40
8.0
  1
112'
 50
88.3189
  7
txt
 72
     4
 11
958142.565615
 21
7280999.742697
 31
0.0
210
0.0
220
0.0
230
1.0
  0
TEXT
  8
11
  6
CONTINUOUS
 62
     7
  5
2CB
 10
958141.051
 20
7280811.793
 30
0.0
 40
8.0
  1
112'
 50
88.3189
  7
txt
 72
     4
 11
958137.369615
 21
7280822.707697
 31
0.0
210
0.0
220
0.0
230
1.0
  0
TEXT
  8
11
  6
CONTINUOUS
 62
     7
  5
2CC
 10
957546.376
 20
7280828.135
 30
0.0
 40
8.0
  1
112'
 50
88.3189
  7
txt
 72
     4
 11
957542.694615
 21
7280839.049697
 31
0.0
210
0.0
220
0.0
230
1.0
  0
TEXT
  8
11
  6
CONTINUOUS
 62
     7
  5
2CD
 10
957548.753
 20
7281008.134
 30
0.0
 40
8.0
  1
112'
 50
88.3189
  7
txt
 72
     4
 11
957545.071615
 21
7281019.048697
 31
0.0
210
0.0
220
0.0
230
1.0
  0
TEXT
  8
11
  6
CONTINUOUS
 62
     7
  5
2CE
 10
957558.863
 20
7280768.368
 30
0.0
 40
8.0
  1
20'
 50
88.3189
  7
txt
 72
     4
 11
957555.146528
 21
7280778.087212
 31
0.0
210
0.0
220
0.0
230
1.0
  0
TEXT
  8
11
  6
CONTINUOUS
 62
     7
  5
2CF
 10
958191.611
 20
7280749.797
 30
0.0
 40
8.0
  1
20'
 50
88.3189
  7
txt
 72
     4
 11
958187.894528
 21
7280759.516212
 31
0.0
210
0.0
220
0.0
230
1.0
  0
TEXT
  8
11
  6
CONTINUOUS
 62
     7
  5
2D0
 10
957569.561
 20
7281071.372
 30
0.0
 40
8.0
  1
20'
 50
88.3189
  7
txt
 72
     4
 11
957565.844528
 21
7281081.091212
 31
0.0
210
0.0
220
0.0
230
1.0
  0
TEXT
  8
11
  6
CONTINUOUS
 62
     7
  5
2D1
 10
958197.262
 20
7281054.755
 30
0.0
 40
8.0
  1
20'
 50
88.3189
  7
txt
 72
     4
 11
958193.545528
 21
7281064.474212
 31
0.0
210
0.0
220
0.0
230
1.0
  0
TEXT
  8
11
  6
CONTINUOUS
 62
     7
  5
2D2
 10
958184.646
 20
7280907.358
 30
0.0
 40
8.0
  1
60'
 50
88.3189
  7
txt
 72
     4
 11
958180.923954
 21
7280916.887293
 31
0.0
210
0.0
220
0.0
230
1.0
  0
TEXT
  8
11
  6
CONTINUOUS
 62
     7
  5
2D3
 10
957549.821
 20
7280920.469
 30
0.0
 40
8.0
  1
60'
 50
88.3189
  7
txt
 72
     4
 11
957546.098954
 21
7280929.998293
 31
0.0
210
0.0
220
0.0
230
1.0
  0
TEXT
  8
11
  6
CONTINUOUS
 62
     7
  5
2D4
 10
958094.775
 20
7280611.933
 30
0.0
 40
8.0
  1
R=50'
 50
358.3189
  7
txt
 72
     4
 11
958111.76708
 21
7280615.436019
 31
0.0
210
0.0
220
0.0
230
1.0
  0
TEXT
  8
11
  6
CONTINUOUS
 62
     7
  5
2D5
 10
958203.224
 20
7281368.461
 30
0.0
 40
8.0
  1
663.29'
 50
88.3189
  7
txt
 72
     4
 11
958199.902955
 21
7281391.65341
 31
0.0
210
0.0
220
0.0
230
1.0
  0
TEXT
  8
11
  6
CONTINUOUS
 62
     7
  5
2D6
 10
958209.98
 20
7281803.639
 30
0.0
 40
8.0
  1
60'
 50
88.3189
  7
txt
 72
     4
 11
958206.257954
 21
7281813.168293
 31
0.0
210
0.0
220
0.0
230
1.0
  0
TEXT
  8
11
  6
CONTINUOUS
 62
     7
  5
2D7
 10
958218.875
 20
7281892.715
 30
0.0
 40
8.0
  1
105'
 50
88.3189
  7
txt
 72
     4
 11
958215.234275
 21
7281905.0151
 31
0.0
210
0.0
220
0.0
230
1.0
  0
TEXT
  8
11
  6
CONTINUOUS
 62
     7
  5
2D8
 10
958220.913
 20
7281962.125
 30
0.0
 40
8.0
  1
10'
 50
88.3189
  7
txt
 72
     4
 11
958217.154929
 21
7281970.426822
 31
0.0
210
0.0
220
0.0
230
1.0
  0
TEXT
  8
11
  6
CONTINUOUS
 62
     7
  5
2D9
 10
958226.633
 20
7282094.788
 30
0.0
 40
8.0
  1
280'
 50
88.3189
  7
txt
 72
     4
 11
958223.033874
 21
7282108.50549
 31
0.0
210
0.0
220
0.0
230
1.0
  0
TEXT
  8
11
  6
CONTINUOUS
 62
     7
  5
2DA
 10
957941.737
 20
7282103.149
 30
0.0
 40
8.0
  1
280'
 50
88.3189
  7
txt
 72
     4
 11
957938.137874
 21
7282116.86649
 31
0.0
210
0.0
220
0.0
230
1.0
  0
TEXT
  8
11
  6
CONTINUOUS
 62
     7
  5
2DB
 10
957916.017
 20
7281855.228
 30
0.0
 40
8.0
  1
553.83'
 50
358.3189
  7
txt
 72
     4
 11
957939.778165
 21
7281858.532352
 31
0.0
210
0.0
220
0.0
230
1.0
  0
TEXT
  8
11
  6
CONTINUOUS
 62
     7
  5
2DC
 10
957913.682
 20
7281775.661
 30
0.0
 40
8.0
  1
553.83'
 50
358.3189
  7
txt
 72
     4
 11
957937.443165
 21
7281778.965352
 31
0.0
210
0.0
220
0.0
230
1.0
  0
TEXT
  8
11
  6
CONTINUOUS
 62
     7
  5
2DD
 10
958067.701
 20
7282244.654
 30
0.0
 40
8.0
  1
300.41'
 50
358.3189
  7
txt
 72
     4
 11
958090.170721
 21
7282247.996255
 31
0.0
210
0.0
220
0.0
230
1.0
  0
TEXT
  8
11
  6
CONTINUOUS
 62
     7
  5
2DE
 10
958059.91
 20
7281979.193
 30
0.0
 40
8.0
  1
300.41'
 50
358.3189
  7
txt
 72
     4
 11
958082.379721
 21
7281982.535255
 31
0.0
210
0.0
220
0.0
230
1.0
  0
TEXT
  8
11
  6
CONTINUOUS
 62
     7
  5
2DF
 10
957759.935
 20
7282251.315
 30
0.0
 40
8.0
  1
357.31'
 50
358.3189
  7
txt
 72
     4
 11
957782.309762
 21
7282254.660042
 31
0.0
210
0.0
220
0.0
230
1.0
  0
TEXT
  8
11
  6
CONTINUOUS
 62
     7
  5
2E0
 10
957504.924
 20
7282219.028
 30
0.0
 40
8.0
  1
159.8'
 50
23.318917
  7
txt
 72
     4
 11
957519.912531
 21
7282229.844749
 31
0.0
210
0.0
220
0.0
230
1.0
  0
TEXT
  8
11
  6
CONTINUOUS
 62
     7
  5
2E1
 10
957490.695
 20
7282257.804
 30
0.0
 40
8.0
  1
164.31'
 50
23.319025
  7
txt
 72
     4
 11
957508.22908
 21
7282269.718075
 31
0.0
210
0.0
220
0.0
230
1.0
  0
TEXT
  8
11
  6
CONTINUOUS
 62
     7
  5
2E2
 10
957908.526
 20
7282288.771
 30
0.0
 40
8.0
  1
662.17
 50
358.3189
  7
txt
 72
     4
 11
957927.563199
 21
7282292.213997
 31
0.0
210
0.0
220
0.0
230
1.0
  0
TEXT
  8
11
  6
CONTINUOUS
 62
     7
  5
2E3
 10
957607.691
 20
7281879.941
 30
0.0
 40
8.0
  1
R=148.31'
 50
328.328367
  7
txt
 72
     4
 11
957633.861196
 21
7281868.49581
 31
0.0
210
0.0
220
0.0
230
1.0
  0
TEXT
  8
11
  6
CONTINUOUS
 62
     7
  5
2E4
 10
957565.874
 20
7281835.668
 30
0.0
 40
8.0
  1
R=208.13'
 50
326.211358
  7
txt
 72
     4
 11
957592.599196
 21
7281822.597641
 31
0.0
210
0.0
220
0.0
230
1.0
  0
TEXT
  8
11
  6
CONTINUOUS
 62
     7
  5
2E5
 10
957473.199
 20
7281991.066
 30
0.0
 40
8.0
  1
162'
 50
293.318886
  7
txt
 72
     4
 11
957481.634714
 21
7281981.601134
 31
0.0
210
0.0
220
0.0
230
1.0
  0
TEXT
  8
11
  6
CONTINUOUS
 62
     7
  5
2E6
 10
957335.396
 20
7282312.888
 30
0.0
 40
8.0
  1
563'
 50
293.318886
  7
txt
 72
     4
 11
957344.392631
 21
7282302.12188
 31
0.0
210
0.0
220
0.0
230
1.0
  0
TEXT
  8
11
  6
CONTINUOUS
 62
     7
  5
2E7
 10
956734.35
 20
7282102.874
 30
0.0
 40
8.0
  1
563'
 50
293.318953
  7
txt
 72
     4
 11
956743.346643
 21
7282092.10789
 31
0.0
210
0.0
220
0.0
230
1.0
  0
TEXT
  8
11
  6
CONTINUOUS
 62
     7
  5
2E8
 10
956830.76
 20
7281808.302
 30
0.0
 40
8.0
  1
30'
 50
20.828864
  7
txt
 72
     4
 11
956838.315904
 21
7281815.456268
 31
0.0
210
0.0
220
0.0
230
1.0
  0
TEXT
  8
11
  6
CONTINUOUS
 62
     7
  5
2E9
 10
956622.318
 20
7282293.716
 30
0.0
 40
8.0
  1
30'
 50
19.677828
  7
txt
 72
     4
 11
956630.016095
 21
7282300.717041
 31
0.0
210
0.0
220
0.0
230
1.0
  0
TEXT
  8
11
  6
CONTINUOUS
 62
     7
  5
2EA
 10
956654.673
 20
7282379.515
 30
0.0
 40
8.0
  1
30'
 50
292.308853
  7
txt
 72
     4
 11
956662.020033
 21
7282372.146395
 31
0.0
210
0.0
220
0.0
230
1.0
  0
TEXT
  8
11
  6
CONTINUOUS
 62
     7
  5
2EB
 10
957203.606
 20
7282615.388
 30
0.0
 40
8.0
  1
30'
 50
297.721811
  7
txt
 72
     4
 11
957211.615376
 21
7282608.745326
 31
0.0
210
0.0
220
0.0
230
1.0
  0
TEXT
  8
11
  6
CONTINUOUS
 62
     7
  5
2EC
 10
957532.981
 20
7281943.383
 30
0.0
 40
8.0
  1
60'
 50
22.154081
  7
txt
 72
     4
 11
957540.193451
 21
7281950.638453
 31
0.0
210
0.0
220
0.0
230
1.0
  0
TEXT
  8
11
  6
CONTINUOUS
 62
     7
  5
2ED
 10
957228.014
 20
7282653.308
 30
0.0
 40
8.0
  1
60'
 50
15.089506
  7
txt
 72
     4
 11
957236.064029
 21
7282659.621327
 31
0.0
210
0.0
220
0.0
230
1.0
  0
TEXT
  8
11
  6
CONTINUOUS
 62
     7
  5
2EE
 10
957712.54
 20
7281812.756
 30
0.0
 40
8.0
  1
60'
 50
88.3189
  7
txt
 72
     4
 11
957708.817954
 21
7281822.285293
 31
0.0
210
0.0
220
0.0
230
1.0
  0
TEXT
  8
11
  6
CONTINUOUS
 62
     7
  5
2EF
 10
956932.506
 20
7282457.87
 30
0.0
 40
8.0
  1
622'
 50
23.318825
  7
txt
 72
     4
 11
956943.27213
 21
7282466.866619
 31
0.0
210
0.0
220
0.0
230
1.0
  0
TEXT
  8
11
  6
CONTINUOUS
 62
     7
  5
2F0
 10
957153.325
 20
7281946.721
 30
0.0
 40
8.0
  1
652'
 50
23.319
  7
txt
 72
     4
 11
957164.091102
 21
7281955.717652
 31
0.0
210
0.0
220
0.0
230
1.0
  0
TEXT
  8
11
  6
CONTINUOUS
 62
     7
  5
2F1
 10
957174.107
 20
7282930.733
 30
0.0
 40
8.0
  1
60'
 50
109.458583
  7
txt
 72
     4
 11
957167.198761
 21
7282938.27868
 31
0.0
210
0.0
220
0.0
230
1.0
  0
TEXT
  8
11
  6
CONTINUOUS
 62
     7
  5
2F2
 10
957749.94
 20
7283179.715
 30
0.0
 40
8.0
  1
60'
 50
112.387181
  7
txt
 72
     4
 11
957742.655264
 21
7283186.897874
 31
0.0
210
0.0
220
0.0
230
1.0
  0
TEXT
  8
11
  6
CONTINUOUS
 62
     7
  5
2F3
 10
957950.135
 20
7283224.755
 30
0.0
 40
8.0
  1
60'
 50
88.3189
  7
txt
 72
     4
 11
957946.412954
 21
7283234.284293
 31
0.0
210
0.0
220
0.0
230
1.0
  0
TEXT
  8
11
  6
CONTINUOUS
 62
     7
  5
2F4
 10
957036.055
 20
7283092.504
 30
0.0
 40
8.0
  1
60'
 50
358.3189
  7
txt
 72
     4
 11
957045.584293
 21
7283096.226046
 31
0.0
210
0.0
220
0.0
230
1.0
  0
TEXT
  8
11
  6
CONTINUOUS
 62
     7
  5
2F5
 10
956753.503
 20
7283549.685
 30
0.0
 40
8.0
  1
60'
 50
358.3189
  7
txt
 72
     4
 11
956763.032293
 21
7283553.407046
 31
0.0
210
0.0
220
0.0
230
1.0
  0
TEXT
  8
11
  6
CONTINUOUS
 62
     7
  5
2F6
 10
958057.838
 20
7283182.833
 30
0.0
 40
8.0
  1
380.78'
 50
358.3189
  7
txt
 72
     4
 11
958081.598166
 21
7283186.137382
 31
0.0
210
0.0
220
0.0
230
1.0
  0
TEXT
  8
11
  6
CONTINUOUS
 62
     7
  5
2F7
 10
958089.411
 20
7283263.052
 30
0.0
 40
8.0
  1
325.78'
 50
358.3189
  7
txt
 72
     4
 11
958113.202152
 21
7283266.355472
 31
0.0
210
0.0
220
0.0
230
1.0
  0
TEXT
  8
11
  6
CONTINUOUS
 62
     7
  5
2F8
 10
957470.411
 20
7283018.482
 30
0.0
 40
8.0
  1
704.15'
 50
23.710572
  7
txt
 72
     4
 11
957489.333688
 21
7283031.161419
 31
0.0
210
0.0
220
0.0
230
1.0
  0
TEXT
  8
11
  6
CONTINUOUS
 62
     7
  5
2F9
 10
957428.843
 20
7283088.74
 30
0.0
 40
8.0
  1
689.15'
 50
23.710561
  7
txt
 72
     4
 11
957447.246551
 21
7283101.191415
 31
0.0
210
0.0
220
0.0
230
1.0
  0
TEXT
  8
11
  6
CONTINUOUS
 62
     7
  5
2FA
 10
957804.121
 20
7283230.316
 30
0.0
 40
8.0
  1
R=325.6'
 50
12.252867
  7
txt
 72
     4
 11
957829.401992
 21
7283239.899608
 31
0.0
210
0.0
220
0.0
230
1.0
  0
TEXT
  8
11
  6
CONTINUOUS
 62
     7
  5
2FB
 10
957824.02
 20
7283194.575
 30
0.0
 40
8.0
  1
R=205.6'
 50
10.339197
  7
txt
 72
     4
 11
957849.576427
 21
7283203.303475
 31
0.0
210
0.0
220
0.0
230
1.0
  0
TEXT
  8
11
  6
CONTINUOUS
 62
     7
  5
2FC
 10
957941.638
 20
7283391.261
 30
0.0
 40
8.0
  1
272.23'
 50
88.3189
  7
txt
 72
     4
 11
957938.334528
 21
7283415.052152
 31
0.0
210
0.0
220
0.0
230
1.0
  0
TEXT
  8
11
  6
CONTINUOUS
 62
     7
  5
2FD
 10
958262.491
 20
7283378.234
 30
0.0
 40
8.0
  1
257.23'
 50
88.3189
  7
txt
 72
     4
 11
958259.187528
 21
7283402.025152
 31
0.0
210
0.0
220
0.0
230
1.0
  0
TEXT
  8
11
  6
CONTINUOUS
 62
     7
  5
2FE
 10
957105.564
 20
7283044.528
 30
0.0
 40
8.0
  1
155'
 50
293.677172
  7
txt
 72
     4
 11
957114.134634
 21
7283034.942979
 31
0.0
210
0.0
220
0.0
230
1.0
  0
TEXT
  8
11
  6
CONTINUOUS
 62
     7
  5
2FF
 10
956887.008
 20
7283440.041
 30
0.0
 40
8.0
  1
R=1618.7'
 50
305.200211
  7
txt
 72
     4
 11
956906.379868
 21
7283419.519041
 31
0.0
210
0.0
220
0.0
230
1.0
  0
TEXT
  8
11
  6
CONTINUOUS
 62
     7
  5
300
 10
956821.459
 20
7283403.085
 30
0.0
 40
8.0
  1
R=1588.7'
 50
305.592028
  7
txt
 72
     4
 11
956841.905461
 21
7283381.390024
 31
0.0
210
0.0
220
0.0
230
1.0
  0
TEXT
  8
11
  6
CONTINUOUS
 62
     7
  5
301
 10
957088.699
 20
7282884.071
 30
0.0
 40
8.0
  1
502'
 50
293.3189
  7
txt
 72
     4
 11
957097.758177
 21
7282873.159788
 31
0.0
210
0.0
220
0.0
230
1.0
  0
TEXT
  8
11
  6
CONTINUOUS
 62
     7
  5
302
 10
958241.132
 20
7282612.078
 30
0.0
 40
8.0
  1
927.68'
 50
88.3189
  7
txt
 72
     4
 11
958237.817439
 21
7282635.491315
 31
0.0
210
0.0
220
0.0
230
1.0
  0
TEXT
  8
11
  6
CONTINUOUS
 62
     7
  5
304
 10
953005.675
 20
7283667.534
 30
0.0
 40
8.0
  1
15'
 50
268.3189
  7
ROMANS
 72
     1
 11
953005.401202
 21
7283658.205017
 31
0.0
210
0.0
220
0.0
230
1.0
  0
TEXT
  8
11
  6
CONTINUOUS
 62
     7
  5
305
 10
954588.622
 20
7283498.249
 30
0.0
 40
8.0
  1
50'
 50
20.690136
  7
txt
 72
     4
 11
954596.195205
 21
7283505.384952
 31
0.0
210
0.0
220
0.0
230
1.0
  0
TEXT
  8
11
  6
CONTINUOUS
 62
     7
  5
306
 10
954675.599
 20
7283579.781
 30
0.0
 40
8.0
  1
53'
 50
60.823528
  7
txt
 72
     4
 11
954676.805047
 21
7283590.146158
 31
0.0
210
0.0
220
0.0
230
1.0
  0
TEXT
  8
11
  6
CONTINUOUS
 62
     7
  5
307
 10
954583.257
 20
7283449.309
 30
0.0
 40
8.0
  1
77.57'
 50
60.822975
  7
txt
 72
     4
 11
954589.391381
 21
7283468.500492
 31
0.0
210
0.0
220
0.0
230
1.0
  0
TEXT
  8
11
  6
CONTINUOUS
 62
     7
  5
308
 10
954551.623
 20
7283431.573
 30
0.0
 40
8.0
  1
37.6'
 50
20.690497
  7
txt
 72
     4
 11
954564.705335
 21
7283440.789699
 31
0.0
210
0.0
220
0.0
230
1.0
  0
TEXT
  8
11
  6
CONTINUOUS
 62
     7
  5
309
 10
958229.305
 20
7282253.669
 30
0.0
 40
8.0
  1
20'
 50
88.3189
  7
txt
 72
     4
 11
958225.588528
 21
7282263.388212
 31
0.0
210
0.0
220
0.0
230
1.0
  0
TEXT
  8
11
  6
CONTINUOUS
 62
     7
  5
30A
 10
957604.46
 20
7282270.715
 30
0.0
 40
8.0
  1
20'
 50
88.3189
  7
txt
 72
     4
 11
957600.743528
 21
7282280.434212
 31
0.0
210
0.0
220
0.0
230
1.0
  0
TEXT
  8
11
  6
CONTINUOUS
 62
     7
  5
30B
 10
957875.747
 20
7280578.493
 30
0.0
 40
8.0
  1
66'
 50
358.3189
  7
txt
 72
     4
 11
957885.119361
 21
7280582.219652
 31
0.0
210
0.0
220
0.0
230
1.0
  0
TEXT
  8
11
  6
CONTINUOUS
 62
     7
  5
30C
 10
957614.847
 20
7280659.639
 30
0.0
 40
8.0
  1
65'
 50
358.3189
  7
txt
 72
     4
 11
957624.40828
 21
7280663.360107
 31
0.0
210
0.0
220
0.0
230
1.0
  0
TEXT
  8
11
  6
CONTINUOUS
 62
     7
  5
30D
 10
957603.353
 20
7280288.166
 30
0.0
 40
8.0
  1
65'
 50
358.3189
  7
txt
 72
     4
 11
957612.91428
 21
7280291.887107
 31
0.0
210
0.0
220
0.0
230
1.0
  0
TEXT
  8
11
  6
CONTINUOUS
 62
     7
  5
30E
 10
957735.596
 20
7280051.788
 30
0.0
 40
8.0
  1
65'
 50
358.3189
  7
txt
 72
     4
 11
957745.15728
 21
7280055.509107
 31
0.0
210
0.0
220
0.0
230
1.0
  0
TEXT
  8
11
  6
CONTINUOUS
 62
     7
  5
30F
 10
957796.89
 20
7280049.995
 30
0.0
 40
8.0
  1
65'
 50
358.3189
  7
txt
 72
     4
 11
957806.45128
 21
7280053.716107
 31
0.0
210
0.0
220
0.0
230
1.0
  0
TEXT
  8
11
  6
CONTINUOUS
 62
     7
  5
310
 10
957864.517
 20
7280048.01
 30
0.0
 40
8.0
  1
65'
 50
358.3189
  7
txt
 72
     4
 11
957874.07828
 21
7280051.731107
 31
0.0
210
0.0
220
0.0
230
1.0
  0
TEXT
  8
11
  6
CONTINUOUS
 62
     7
  5
311
 10
957926.728
 20
7280046.185
 30
0.0
 40
8.0
  1
65'
 50
358.3189
  7
txt
 72
     4
 11
957936.28928
 21
7280049.906107
 31
0.0
210
0.0
220
0.0
230
1.0
  0
TEXT
  8
11
  6
CONTINUOUS
 62
     7
  5
312
 10
957984.999
 20
7279747.477
 30
0.0
 40
8.0
  1
64'
 50
358.3189
  7
txt
 72
     4
 11
957994.749198
 21
7279751.192562
 31
0.0
210
0.0
220
0.0
230
1.0
  0
TEXT
  8
11
  6
CONTINUOUS
 62
     7
  5
313
 10
957917.595
 20
7279749.456
 30
0.0
 40
8.0
  1
64'
 50
358.3189
  7
txt
 72
     4
 11
957927.345198
 21
7279753.171562
 31
0.0
210
0.0
220
0.0
230
1.0
  0
TEXT
  8
11
  6
CONTINUOUS
 62
     7
  5
314
 10
957856.556
 20
7279749.923
 30
0.0
 40
8.0
  1
64'
 50
358.3189
  7
txt
 72
     4
 11
957866.306198
 21
7279753.638562
 31
0.0
210
0.0
220
0.0
230
1.0
  0
TEXT
  8
11
  6
CONTINUOUS
 62
     7
  5
315
 10
957665.551
 20
7279755.946
 30
0.0
 40
8.0
  1
62'
 50
358.3189
  7
txt
 72
     4
 11
957675.11228
 21
7279759.667107
 31
0.0
210
0.0
220
0.0
230
1.0
  0
TEXT
  8
11
  6
CONTINUOUS
 62
     7
  5
316
 10
956806.383
 20
7278257.482
 30
0.0
 40
8.0
  1
95.95'
 50
358.3189
  7
txt
 72
     4
 11
956825.76605
 21
7278260.914846
 31
0.0
210
0.0
220
0.0
230
1.0
  0
TEXT
  8
11
  6
CONTINUOUS
 62
     7
  5
317
 10
957874.54
 20
7278543.049
 30
0.0
 40
8.0
  1
219.97'
 50
88.3189
  7
txt
 72
     4
 11
957871.183839
 21
7278565.044925
 31
0.0
210
0.0
220
0.0
230
1.0
  0
TEXT
  8
15
  6
CONTINUOUS
 62
    30
  5
31A
 10
953225.774
 20
7283541.989
 30
0.0
 40
50.0
  1
BYRD
 50
28.3189
  7
ROMANC
 72
     4
 11
953308.526145
 21
7283614.980391
 31
0.0
210
0.0
220
0.0
230
1.0
  0
TEXT
  8
19
  6
CONTINUOUS
 62
     1
  5
31C
 10
958165.575
 20
7278700.453
 30
0.0
 40
24.0
  1
N. MARTIN LUTHER KING, JR. BLVD.
 50
88.3189
  7
ROMANC
 72
     4
 11
958164.476101
 21
7279072.057179
 31
0.0
210
0.0
220
0.0
230
1.0
  0
TEXT
  8
19
  6
CONTINUOUS
 62
     1
  5
31D
 10
957682.374
 20
7280610.417
 30
0.0
 40
24.0
  1
E AMHERST ST.
 50
358.3189
  7
ROMANC
 72
     4
 11
957843.656743
 21
7280617.688655
 31
0.0
210
0.0
220
0.0
230
1.0
  0
TEXT
  8
19
  6
CONTINUOUS
 62
     1
  5
31E
 10
953374.228
 20
7283363.547
 30
0.0
 40
24.0
  1
 
 50
47.908375
  7
ROMANC
 72
     4
 11
953370.685659
 21
7283377.527409
 31
0.0
210
0.0
220
0.0
230
1.0
  0
TEXT
  8
19
  6
CONTINUOUS
 62
     1
  5
31F
 10
958258.774
 20
7281933.246
 30
0.0
 40
24.0
  1
N. MARTIN LUTHER KING, JR. BLVD.
 50
88.3189
  7
ROMANC
 72
     4
 11
958257.675101
 21
7282304.850179
 31
0.0
210
0.0
220
0.0
230
1.0
  0
LINE
  8
21
  6
DASHDOT
 62
     7
  5
321
 10
956996.895
 20
7282880.607
 30
0.0
 11
957088.457
 21
7282920.82
 31
0.0
  0
LINE
  8
21
  6
DASHDOT
 62
     7
  5
322
 10
956996.895
 20
7282880.607
 30
0.0
 11
956917.294
 21
7283065.274
 31
0.0
  0
ARC
  8
21
  6
DASHDOT
 62
     7
  5
323
 10
955550.196195
 20
7282475.974912
 30
0.0
 40
1488.7
 50
23.318867
 51
37.433414
210
0.0
220
0.0
230
1.0
  0
LINE
  8
21
  6
DASHDOT
 62
     7
  5
324
 10
956732.948
 20
7283380.045
 30
0.0
 11
956580.872
 21
7283574.502
 31
0.0
  0
LINE
  8
21
  6
DASHDOT
 62
     7
  5
325
 10
957543.201
 20
7281070.59
 30
0.0
 11
957539.916
 21
7280958.638
 31
0.0
  0
LINE
  8
21
  6
DASHDOT
 62
     7
  5
326
 10
957538.155
 20
7280898.664
 30
0.0
 11
957534.87
 21
7280786.712
 31
0.0
  0
LINE
  8
21
  6
DASHDOT
 62
     7
  5
327
 10
957534.283
 20
7280766.72
 30
0.0
 11
957531.056
 21
7280656.768
 31
0.0
  0
LINE
  8
21
  6
DASHDOT
 62
     7
  5
328
 10
957520.656
 20
7280302.42
 30
0.0
 11
957517.218
 21
7280184.342
 31
0.0
  0
LINE
  8
21
  6
DASHDOT
 62
     7
  5
329
 10
957634.876
 20
7280001.44
 30
0.0
 11
957631.502
 21
7279886.489
 31
0.0
  0
LINE
  8
21
  6
DASHDOT
 62
     7
  5
32A
 10
958172.525
 20
7280015.673
 30
0.0
 11
958147.285
 21
7280016.414
 31
0.0
  0
LINE
  8
21
  6
DASHDOT
 62
     7
  5
32B
 10
958172.231
 20
7280005.678
 30
0.0
 11
958146.991
 21
7280006.418
 31
0.0
  0
LINE
  8
21
  6
DASHDOT
 62
     7
  5
32C
 10
958190.024
 20
7280611.917
 30
0.0
 11
958134.985
 21
7280613.532
 31
0.0
  0
LINE
  8
21
  6
DASHDOT
 62
     7
  5
32D
 10
958189.877
 20
7280606.919
 30
0.0
 11
958134.838
 21
7280608.534
 31
0.0
  0
TEXT
  8
22
  6
CONTINUOUS
 62
     3
  5
32F
 10
958143.018
 20
7280598.771
 30
0.0
 40
8.0
  1
5' UUE
 50
358.3189
  7
txt
 72
     4
 11
958160.8917
 21
7280602.248144
 31
0.0
210
0.0
220
0.0
230
1.0
  0
TEXT
  8
22
  6
CONTINUOUS
 62
     3
  5
330
 10
957546.532
 20
7280789.72
 30
0.0
 40
8.0
  1
5' UUE
 50
88.3189
  7
txt
 72
     4
 11
957543.054856
 21
7280807.5937
 31
0.0
210
0.0
220
0.0
230
1.0
  0
TEXT
  8
22
  6
CONTINUOUS
 62
     3
  5
331
 10
957553.742
 20
7281030.467
 30
0.0
 40
8.0
  1
5' UUE
 50
88.3189
  7
txt
 72
     4
 11
957550.264856
 21
7281048.3407
 31
0.0
210
0.0
220
0.0
230
1.0
  0
TEXT
  8
22
  6
CONTINUOUS
 62
     3
  5
332
 10
957543.679
 20
7280724.587
 30
0.0
 40
8.0
  1
5' UUE
 50
88.3189
  7
txt
 72
     4
 11
957540.201856
 21
7280742.4607
 31
0.0
210
0.0
220
0.0
230
1.0
  0
TEXT
  8
22
  6
CONTINUOUS
 62
     3
  5
333
 10
957512.835
 20
7280206.378
 30
0.0
 40
8.0
  1
5' UUE
 50
88.3189
  7
txt
 72
     4
 11
957509.357856
 21
7280224.2517
 31
0.0
210
0.0
220
0.0
230
1.0
  0
TEXT
  8
22
  6
CONTINUOUS
 62
     3
  5
334
 10
957631.731
 20
7279949.553
 30
0.0
 40
8.0
  1
2' UUE
 50
88.3189
  7
txt
 72
     4
 11
957628.253856
 21
7279967.4267
 31
0.0
210
0.0
220
0.0
230
1.0
  0
TEXT
  8
22
  6
CONTINUOUS
 62
     3
  5
335
 10
958181.986
 20
7279949.901
 30
0.0
 40
8.0
  1
20' UUE & DRAIN.
 50
88.3189
  7
txt
 72
     4
 11
958179.567669
 21
7280003.851166
 31
0.0
210
0.0
220
0.0
230
1.0
  0
LINE
  8
21
  6
DASHDOT
 62
     7
  5
336
 10
957650.869
 20
7280000.971
 30
0.0
 11
957647.495
 21
7279886.02
 31
0.0
  0
LINE
  8
21
  6
DASHDOT
 62
     7
  5
337
 10
957646.908
 20
7279866.029
 30
0.0
 11
957643.535
 21
7279751.078
 31
0.0
  0
LINE
  8
21
  6
DASHDOT
 62
     7
  5
338
 10
957652.868
 20
7280000.912
 30
0.0
 11
957649.494
 21
7279885.961
 31
0.0
  0
TEXT
  8
22
  6
CONTINUOUS
 62
     3
  5
339
 10
957662.505
 20
7279947.59
 30
0.0
 40
8.0
  1
2' UUE
 50
88.3189
  7
txt
 72
     4
 11
957659.027856
 21
7279965.4637
 31
0.0
210
0.0
220
0.0
230
1.0
  0
TEXT
  8
22
  6
CONTINUOUS
 62
     3
  5
33A
 10
957661.734
 20
7279768.302
 30
0.0
 40
8.0
  1
2' UUE
 50
88.3189
  7
txt
 72
     4
 11
957658.256856
 21
7279786.1757
 31
0.0
210
0.0
220
0.0
230
1.0
  0
LINE
  8
21
  6
DASHDOT
 62
     7
  5
33B
 10
957593.567
 20
7278372.041
 30
0.0
 11
957029.751
 21
7278720.91
 31
0.0
  0
LINE
  8
21
  6
DASHDOT
 62
     7
  5
33C
 10
957567.275
 20
7278364.79
 30
0.0
 11
957019.226
 21
7278703.902
 31
0.0
  0
TEXT
  8
22
  6
CONTINUOUS
 62
     3
  5
33D
 10
957199.762
 20
7278594.545
 30
0.0
 40
8.0
  1
20' SANITARY SEWER EASMENT
 50
328.252261
  7
txt
 72
     4
 11
957284.730467
 21
7278546.673372
 31
0.0
210
0.0
220
0.0
230
1.0
  0
TEXT
  8
22
  6
CONTINUOUS
 62
     3
  5
33E
 10
956867.178
 20
7283275.348
 30
0.0
 40
8.0
  1
DRAINAGE EASEMENT
 50
298.776283
  7
txt
 72
     4
 11
956901.642754
 21
7283220.904585
 31
0.0
210
0.0
220
0.0
230
1.0
  0
LINE
  8
21
  6
DASHDOT
 62
     7
  5
33F
 10
957575.331
 20
7280188.267
 30
0.0
 11
957576.211
 21
7280218.254
 31
0.0
  0
LINE
  8
21
  6
DASHDOT
 62
     7
  5
340
 10
957576.211
 20
7280218.254
 30
0.0
 11
957578.21
 21
7280218.196
 31
0.0
  0
LINE
  8
21
  6
DASHDOT
 62
     7
  5
341
 10
957406.528
 20
7279851.628
 30
0.0
 11
957427.07
 21
7279873.495
 31
0.0
  0
LINE
  8
21
  6
DASHDOT
 62
     7
  5
342
 10
957406.528
 20
7279851.628
 30
0.0
 11
957407.986
 21
7279850.259
 31
0.0
  0
TEXT
  8
22
  6
CONTINUOUS
 62
     3
  5
343
 10
957392.163
 20
7279841.465
 30
0.0
 40
5.0
  1
2x30 GWE
 50
46.790192
  7
txt
 72
     4
 11
957403.670064
 21
7279857.365959
 31
0.0
210
0.0
220
0.0
230
1.0
  0
TEXT
  8
22
  6
CONTINUOUS
 62
     3
  5
344
 10
957575.93
 20
7280169.957
 30
0.0
 40
5.0
  1
2x30 GWE
 50
88.3189
  7
txt
 72
     4
 11
957574.002199
 21
7280189.489962
 31
0.0
210
0.0
220
0.0
230
1.0
  0
TEXT
  8
19
  6
CONTINUOUS
 62
     1
  5
345
 10
957559.181
 20
7280406.143
 30
0.0
 40
24.0
  1
N OAK
 50
88.3189
  7
ROMANC
 72
     4
 11
957549.168023
 21
7280474.021962
 31
0.0
210
0.0
220
0.0
230
1.0
  0
TEXT
  8
19
  6
CONTINUOUS
 62
     1
  5
346
 10
957811.062
 20
7281807.729
 30
0.0
 40
24.0
  1
E CORNELL ST
 50
358.3189
  7
ROMANC
 72
     4
 11
957962.143135
 21
7281815.300064
 31
0.0
210
0.0
220
0.0
230
1.0
  0
POLYLINE
  8
1
  6
HIDDEN
 62
   253
  5
348
 66
     1
 10
0.0
 20
0.0
 30
0.0
 70
     1
  0
VERTEX
  8
1
  6
HIDDEN
 62
   253
  5
349
 10
958210.325
 20
7283617.328
 30
0.0
  0
VERTEX
  8
1
  6
HIDDEN
 62
   253
  5
34A
 10
953051.614
 20
7283773.894
 30
0.0
  0
VERTEX
  8
1
  6
HIDDEN
 62
   253
  5
34B
 10
952886.71
 20
7278494.18
 30
0.0
  0
VERTEX
  8
1
  6
HIDDEN
 62
   253
  5
34C
 10
958064.942
 20
7278340.325
 30
0.0
  0
SEQEND
  8
1
  6
HIDDEN
 62
   253
  5
34D
  0
TEXT
  8
15
  6
CONTINUOUS
 62
    30
  5
34E
 10
953579.95
 20
7281422.26
 30
0.0
 40
50.0
  1
MACKENZIE
 50
28.3189
  7
ROMANC
 72
     4
 11
953777.416764
 21
7281557.06767
 31
0.0
210
0.0
220
0.0
230
1.0
  0
TEXT
  8
15
  6
CONTINUOUS
 62
    30
  5
34F
 10
953587.632
 20
7281341.202
 30
0.0
 40
50.0
  1
STATE PARK
 50
28.3189
  7
ROMANC
 72
     4
 11
953812.995254
 21
7281491.042254
 31
0.0
210
0.0
220
0.0
230
1.0
  0
TEXT
  8
10
  6
CONTINUOUS
 62
   134
  5
350
 10
956993.931
 20
7282193.953
 30
0.0
 40
13.999
  1
1
 50
358.3189
  7
txt
 72
     4
 11
956996.339407
 21
7282200.885329
 31
0.0
210
0.0
220
0.0
230
1.0
  0
TEXT
  8
10
  6
CONTINUOUS
 62
   134
  5
351
 10
958073.751
 20
7282105.391
 30
0.0
 40
13.999
  1
C
 50
358.3189
  7
txt
 72
     4
 11
958078.969197
 21
7282112.240864
 31
0.0
210
0.0
220
0.0
230
1.0
  0
TEXT
  8
10
  6
CONTINUOUS
 62
   134
  5
352
 10
957676.222
 20
7282131.437
 30
0.0
 40
13.999
  1
UNSUBDIVIDED
 50
358.3189
  7
txt
 72
     4
 11
957753.442194
 21
7282136.173667
 31
0.0
210
0.0
220
0.0
230
1.0
  0
TEXT
  8
10
  6
CONTINUOUS
 62
   134
  5
353
 10
957681.424
 20
7282691.086
 30
0.0
 40
13.999
  1
UNSUBDIVIDED
 50
358.3189
  7
txt
 72
     4
 11
957758.644194
 21
7282695.822667
 31
0.0
210
0.0
220
0.0
230
1.0
  0
TEXT
  8
10
  6
CONTINUOUS
 62
   134
  5
354
 10
957212.884
 20
7283351.139
 30
0.0
 40
13.999
  1
UNSUBDIVIDED
 50
358.3189
  7
txt
 72
     4
 11
957290.104194
 21
7283355.875667
 31
0.0
210
0.0
220
0.0
230
1.0
  0
TEXT
  8
19
  6
CONTINUOUS
 62
     1
  5
355
 10
957448.581
 20
7283044.037
 30
0.0
 40
24.0
  1
E  EMORY ST
 50
23.710572
  7
ROMANC
 72
     4
 11
957576.19821
 21
7283113.191452
 31
0.0
210
0.0
220
0.0
230
1.0
  0
TEXT
  8
19
  6
CONTINUOUS
 62
     1
  5
356
 10
957235.656
 20
7282605.115
 30
0.0
 40
24.0
  1
N IVORY AVE
 50
293.318889
  7
ROMANC
 72
     4
 11
957304.123271
 21
7282476.59458
 31
0.0
210
0.0
220
0.0
230
1.0
  0
TEXT
  8
15
  6
CONTINUOUS
 62
    30
  5
357
 10
956845.461
 20
7282256.626
 30
0.0
 40
50.0
  1
HUNT
 50
28.3189
  7
ROMANC
 72
     4
 11
956932.371781
 21
7282331.858356
 31
0.0
210
0.0
220
0.0
230
1.0
  0
TEXT
  8
15
  6
CONTINUOUS
 62
    30
  5
358
 10
956843.611
 20
7282170.433
 30
0.0
 40
50.0
  1
SCHOOL
 50
28.3189
  7
ROMANC
 72
     4
 11
956967.949505
 21
7282265.834037
 31
0.0
210
0.0
220
0.0
230
1.0
  0
TEXT
  8
15
  6
CONTINUOUS
 62
    30
  5
359
 10
957901.134
 20
7283310.49
 30
0.0
 40
50.0
  1
MACKENZIE
 50
28.3189
  7
ROMANC
 72
     4
 11
958098.600764
 21
7283445.29767
 31
0.0
210
0.0
220
0.0
230
1.0
  0
TEXT
  8
15
  6
CONTINUOUS
 62
    30
  5
35A
 10
958000.308
 20
7283278.736
 30
0.0
 40
50.0
  1
MANORS
 50
28.3189
  7
ROMANC
 72
     4
 11
958134.17862
 21
7283379.273609
 31
0.0
210
0.0
220
0.0
230
1.0
  0
TEXT
  8
10
  6
CONTINUOUS
 62
   134
  5
35B
 10
958098.06
 20
7283377.817
 30
0.0
 40
13.999
  1
B
 50
358.3189
  7
txt
 72
     4
 11
958102.94734
 21
7283384.676575
 31
0.0
210
0.0
220
0.0
230
1.0
  0
TEXT
  8
19
  6
CONTINUOUS
 62
     1
  5
35C
 10
953239.46
 20
7283209.608
 30
0.0
 40
24.0
  1
MUNICIPAL DR
 50
48.3189
  7
ROMANC
 72
     4
 11
953330.836484
 21
7283330.280402
 31
0.0
210
0.0
220
0.0
230
1.0
  0
TEXT
  8
19
  6
CONTINUOUS
 62
     1
  5
35D
 10
957583.958
 20
7278316.862
 30
0.0
 40
24.0
  1
PARKWAY  DR
 50
15.856644
  7
ROMANC
 72
     4
 11
957729.825465
 21
7278370.768815
 31
0.0
210
0.0
220
0.0
230
1.0
  0
TEXT
  8
15
  6
CONTINUOUS
 62
    30
  5
35E
 10
957811.459
 20
7281969.58
 30
0.0
 40
50.0
  1
MACKENZIE
 50
28.3189
  7
ROMANC
 72
     4
 11
958008.925764
 21
7282104.38767
 31
0.0
210
0.0
220
0.0
230
1.0
  0
TEXT
  8
15
  6
CONTINUOUS
 62
    30
  5
35F
 10
957910.633
 20
7281937.826
 30
0.0
 40
50.0
  1
MANORS
 50
28.3189
  7
ROMANC
 72
     4
 11
958044.50362
 21
7282038.363609
 31
0.0
210
0.0
220
0.0
230
1.0
  0
TEXT
  8
19
  6
CONTINUOUS
 62
     1
  5
360
 10
957725.52
 20
7280910.808
 30
0.0
 40
24.0
  1
E AUBURN ST
 50
358.3189
  7
ROMANC
 72
     4
 11
957873.767355
 21
7280918.462233
 31
0.0
210
0.0
220
0.0
230
1.0
  0
TEXT
  8
19
  6
CONTINUOUS
 62
     1
  5
361
 10
957756.447
 20
7280315.324
 30
0.0
 40
24.0
  1
E 1ST ST
 50
358.3189
  7
ROMANC
 72
     4
 11
957849.163267
 21
7280324.608023
 31
0.0
210
0.0
220
0.0
230
1.0
  0
TEXT
  8
19
  6
CONTINUOUS
 62
     1
  5
362
 10
957710.79
 20
7280009.798
 30
0.0
 40
24.0
  1
E 1ST PL
 50
358.3189
  7
ROMANC
 72
     4
 11
957805.205535
 21
7280019.032151
 31
0.0
210
0.0
220
0.0
230
1.0
  0
TEXT
  8
19
  6
CONTINUOUS
 62
     1
  5
363
 10
957717.94
 20
7279706.511
 30
0.0
 40
24.0
  1
E 2ND ST
 50
358.3189
  7
ROMANC
 72
     4
 11
957818.68481
 21
7279715.559392
 31
0.0
210
0.0
220
0.0
230
1.0
  0
TEXT
  8
15
  6
CONTINUOUS
 62
    30
  5
364
 10
957678.187
 20
7280098.105
 30
0.0
 40
50.0
  1
MACKENZIE
 50
28.3189
  7
ROMANC
 72
     4
 11
957875.653764
 21
7280232.91267
 31
0.0
210
0.0
220
0.0
230
1.0
  0
TEXT
  8
15
  6
CONTINUOUS
 62
    30
  5
365
 10
957777.361
 20
7280066.351
 30
0.0
 40
50.0
  1
MANORS
 50
28.3189
  7
ROMANC
 72
     4
 11
957911.23162
 21
7280166.888609
 31
0.0
210
0.0
220
0.0
230
1.0
  0
TEXT
  8
10
  6
CONTINUOUS
 62
   134
  5
366
 10
956230.115
 20
7281213.949
 30
0.0
 40
13.999
  1
UNSUBDIVIDED
 50
358.3189
  7
txt
 72
     4
 11
956307.335194
 21
7281218.685667
 31
0.0
210
0.0
220
0.0
230
1.0
  0
TEXT
  8
10
  6
CONTINUOUS
 62
   134
  5
367
 10
953091.68
 20
7283440.494
 30
0.0
 40
13.999
  1
UNSUBDIVIDED
 50
358.3189
  7
ROMANS
210
0.0
220
0.0
230
1.0
  0
TEXT
  8
10
  6
CONTINUOUS
 62
   134
  5
368
 10
953357.026
 20
7283583.969
 30
0.0
 40
13.999
  1
1
 50
358.3189
  7
ROMANS
210
0.0
220
0.0
230
1.0
  0
TEXT
  8
11
  6
CONTINUOUS
 62
     7
  5
369
 10
953310.866
 20
7283269.414
 30
0.0
 40
8.0
  1
1019.98'
 50
47.908375
  7
txt
 72
     4
 11
953324.25883
 21
7283290.207811
 31
0.0
210
0.0
220
0.0
230
1.0
  0
TEXT
  8
11
  6
CONTINUOUS
 62
     7
  5
36A
 10
953317.376
 20
7283239.006
 30
0.0
 40
8.0
  1
S40%%d24'38"W
 50
47.908375
  7
txt
 72
     4
 11
953342.038889
 21
7283272.276298
 31
0.0
210
0.0
220
0.0
230
1.0
  0
TEXT
  8
11
  6
CONTINUOUS
 62
     7
  5
36B
 10
954642.137
 20
7283584.53
 30
0.0
 40
8.0
  1
52'
 50
293.601819
  7
ROMANS
 72
     1
 11
954645.874129
 21
7283575.976789
 31
0.0
210
0.0
220
0.0
230
1.0
  0
TEXT
  8
11
  6
CONTINUOUS
 62
     7
  5
36C
 10
954475.987
 20
7283551.556
 30
0.0
 40
8.0
  1
N25%%d17'00"W
 50
293.602333
  7
txt
 72
     4
 11
954495.437618
 21
7283517.030588
 31
0.0
210
0.0
220
0.0
230
1.0
  0
TEXT
  8
11
  6
CONTINUOUS
 62
     7
  5
36D
 10
954500.182
 20
7283543.036
 30
0.0
 40
8.0
  1
206.15'
 50
293.602333
  7
txt
 72
     4
 11
954512.661491
 21
7283524.465095
 31
0.0
210
0.0
220
0.0
230
1.0
  0
TEXT
  8
11
  6
CONTINUOUS
 62
     7
  5
36E
 10
954538.877
 20
7283570.322
 30
0.0
 40
8.0
  1
135.01'
 50
293.602358
  7
txt
 72
     4
 11
954550.864824
 21
7283552.876374
 31
0.0
210
0.0
220
0.0
230
1.0
  0
TEXT
  8
11
  6
CONTINUOUS
 62
     7
  5
36F
 10
954587.178
 20
7283590.13
 30
0.0
 40
8.0
  1
113.38'
 50
293.602269
  7
ROMANS
 72
     1
 11
954597.320962
 21
7283566.916185
 31
0.0
210
0.0
220
0.0
230
1.0
  0
TEXT
  8
11
  6
CONTINUOUS
 62
     7
  5
370
 10
954623.427
 20
7283484.519
 30
0.0
 40
8.0
  1
S27%%d29'43"W
 50
60.823528
  7
txt
 72
     4
 11
954639.876233
 21
7283522.184947
 31
0.0
210
0.0
220
0.0
230
1.0
  0
TEXT
  8
11
  6
CONTINUOUS
 62
     7
  5
371
 10
954627.438
 20
7283525.592
 30
0.0
 40
8.0
  1
63.64'
 50
60.823528
  7
txt
 72
     4
 11
954633.434233
 21
7283544.536458
 31
0.0
210
0.0
220
0.0
230
1.0
  0
TEXT
  8
15
  6
CONTINUOUS
 62
    30
  5
372
 10
954198.599
 20
7283276.342
 30
0.0
 40
50.0
  1
MEADOWBROOK
 50
28.3189
  7
ROMANC
 72
     4
 11
954462.951667
 21
7283447.192483
 31
0.0
210
0.0
220
0.0
230
1.0
  0
TEXT
  8
15
  6
CONTINUOUS
 62
    30
  5
373
 10
954399.215
 20
7283314.019
 30
0.0
 40
50.0
  1
VILLA
 50
28.3189
  7
ROMANC
 72
     4
 11
954492.363735
 21
7283392.612803
 31
0.0
210
0.0
220
0.0
230
1.0
  0
TEXT
  8
11
  6
CONTINUOUS
 62
     7
  5
374
 10
955109.527
 20
7282438.937
 30
0.0
 40
8.0
  1
299.45'
 50
98.460031
  7
txt
 72
     4
 11
955102.118515
 21
7282461.557204
 31
0.0
210
0.0
220
0.0
230
1.0
  0
TEXT
  8
11
  6
CONTINUOUS
 62
     7
  5
375
 10
955139.506
 20
7281853.237
 30
0.0
 40
8.0
  1
440.09'
 50
275.541758
  7
txt
 72
     4
 11
955145.783574
 21
7281829.956421
 31
0.0
210
0.0
220
0.0
230
1.0
  0
TEXT
  8
11
  6
CONTINUOUS
 62
     7
  5
376
 10
955131.886
 20
7281952.062
 30
0.0
 40
8.0
  1
S05%%d00'28"E   
 50
275.541758
  7
txt
 72
     4
 11
955140.786641
 21
7281901.746374
 31
0.0
210
0.0
220
0.0
230
1.0
  0
TEXT
  8
11
  6
CONTINUOUS
 62
     7
  5
377
 10
955415.985
 20
7281719.642
 30
0.0
 40
8.0
  1
322.55'
 50
274.309464
  7
txt
 72
     4
 11
955421.751134
 21
7281696.35545
 31
0.0
210
0.0
220
0.0
230
1.0
  0
TEXT
  8
11
  6
CONTINUOUS
 62
     7
  5
378
 10
955308.824
 20
7280840.973
 30
0.0
 40
8.0
  1
428.44'
 50
280.158125
  7
txt
 72
     4
 11
955317.032869
 21
7280817.838116
 31
0.0
210
0.0
220
0.0
230
1.0
  0
TEXT
  8
11
  6
CONTINUOUS
 62
     7
  5
379
 10
955520.438
 20
7280243.907
 30
0.0
 40
8.0
  1
192.49'
 50
303.427239
  7
txt
 72
     4
 11
955535.920991
 21
7280227.711226
 31
0.0
210
0.0
220
0.0
230
1.0
  0
TEXT
  8
11
  6
CONTINUOUS
 62
     7
  5
37A
 10
956436.567
 20
7279280.227
 30
0.0
 40
8.0
  1
566.94'
 50
333.2109
  7
txt
 72
     4
 11
956459.145869
 21
7279273.307915
 31
0.0
210
0.0
220
0.0
230
1.0
  0
TEXT
  8
11
  6
CONTINUOUS
 62
     7
  5
37B
 10
956793.189
 20
7279153.658
 30
0.0
 40
8.0
  1
127.64'
 50
354.178039
  7
txt
 72
     4
 11
956815.7459
 21
7279155.378758
 31
0.0
210
0.0
220
0.0
230
1.0
  0
TEXT
  8
11
  6
CONTINUOUS
 62
     7
  5
37C
 10
957465.832
 20
7278711.336
 30
0.0
 40
8.0
  1
840.36'
 50
355.224747
  7
txt
 72
     4
 11
957489.703999
 21
7278713.355728
 31
0.0
210
0.0
220
0.0
230
1.0
  0
TEXT
  8
11
  6
CONTINUOUS
 62
     7
  5
37D
 10
957449.15
 20
7278696.685
 30
0.0
 40
8.0
  1
N86%%d54'21"W
 50
355.224747
  7
txt
 72
     4
 11
957488.803031
 21
7278697.386422
 31
0.0
210
0.0
220
0.0
230
1.0
  0
TEXT
  8
11
  6
CONTINUOUS
 62
     7
  5
37E
 10
957191.656
 20
7278547.124
 30
0.0
 40
8.0
  1
497.55'
 50
304.797517
  7
txt
 72
     4
 11
957208.456633
 21
7278529.958028
 31
0.0
210
0.0
220
0.0
230
1.0
  0
TEXT
  8
11
  6
CONTINUOUS
 62
     7
  5
37F
 10
957165.159
 20
7278546.063
 30
0.0
 40
8.0
  1
S36%%d28'43"E
 50
304.797517
  7
txt
 72
     4
 11
957191.015151
 21
7278515.86664
 31
0.0
210
0.0
220
0.0
230
1.0
  0
TEXT
  8
10
  6
CONTINUOUS
 62
   134
  5
380
 10
958060.527
 20
7279361.706
 30
0.0
 40
13.999
  1
A
 50
358.3189
  7
txt
 72
     4
 11
958066.130031
 21
7279368.54457
 31
0.0
210
0.0
220
0.0
230
1.0
  0
TEXT
  8
11
  6
CONTINUOUS
 62
     7
  5
381
 10
957526.066
 20
7279684.543
 30
0.0
 40
8.0
  1
38.91'
 50
353.3189
  7
txt
 72
     4
 11
957544.454824
 21
7279686.416308
 31
0.0
210
0.0
220
0.0
230
1.0
  0
TEXT
  8
11
  6
CONTINUOUS
 62
     7
  5
382
 10
957476.576
 20
7279689.008
 30
0.0
 40
8.0
  1
61.38'
 50
353.3189
  7
txt
 72
     4
 11
957494.964824
 21
7279690.881308
 31
0.0
210
0.0
220
0.0
230
1.0
  0
TEXT
  8
11
  6
CONTINUOUS
 62
     7
  5
383
 10
957416.797
 20
7279703.018
 30
0.0
 40
8.0
  1
61.91'
 50
343.3189
  7
txt
 72
     4
 11
957433.693338
 21
7279702.130657
 31
0.0
210
0.0
220
0.0
230
1.0
  0
TEXT
  8
11
  6
CONTINUOUS
 62
     7
  5
384
 10
957357.428
 20
7279721.271
 30
0.0
 40
8.0
  1
61.91'
 50
343.3189
  7
txt
 72
     4
 11
957374.324338
 21
7279720.383657
 31
0.0
210
0.0
220
0.0
230
1.0
  0
TEXT
  8
11
  6
CONTINUOUS
 62
     7
  5
385
 10
957295.291
 20
7279750.386
 30
0.0
 40
8.0
  1
61.38'
 50
333.3189
  7
txt
 72
     4
 11
957313.211551
 21
7279745.856986
 31
0.0
210
0.0
220
0.0
230
1.0
  0
TEXT
  8
11
  6
CONTINUOUS
 62
     7
  5
386
 10
957249.522
 20
7279775.744
 30
0.0
 40
8.0
  1
38.92'
 50
328.3189
  7
txt
 72
     4
 11
957268.186324
 21
7279768.925621
 31
0.0
210
0.0
220
0.0
230
1.0
  0
TEXT
  8
11
  6
CONTINUOUS
 62
     7
  5
387
 10
957523.146
 20
7279761.064
 30
0.0
 40
8.0
  1
51.1'
 50
358.3189
  7
txt
 72
     4
 11
957536.075829
 21
7279764.686243
 31
0.0
210
0.0
220
0.0
230
1.0
  0
TEXT
  8
11
  6
CONTINUOUS
 62
     7
  5
388
 10
957454.953
 20
7279771.326
 30
0.0
 40
8.0
  1
71.96'
 50
348.3189
  7
txt
 72
     4
 11
957473.28039
 21
7279771.621478
 31
0.0
210
0.0
220
0.0
230
1.0
  0
TEXT
  8
11
  6
CONTINUOUS
 62
     7
  5
389
 10
957380.89
 20
7279793.564
 30
0.0
 40
8.0
  1
71.95'
 50
338.3189
  7
txt
 72
     4
 11
957399.166824
 21
7279790.602277
 31
0.0
210
0.0
220
0.0
230
1.0
  0
TEXT
  8
11
  6
CONTINUOUS
 62
     7
  5
38A
 10
957320.121
 20
7279868.671
 30
0.0
 40
8.0
  1
53.3'
 50
56.309892
  7
txt
 72
     4
 11
957325.476087
 21
7279883.914712
 31
0.0
210
0.0
220
0.0
230
1.0
  0
TEXT
  8
11
  6
CONTINUOUS
 62
     7
  5
38B
 10
957312.913
 20
7279824.798
 30
0.0
 40
8.0
  1
74.96'
 50
338.3189
  7
txt
 72
     4
 11
957332.505648
 21
7279821.31315
 31
0.0
210
0.0
220
0.0
230
1.0
  0
TEXT
  8
11
  6
CONTINUOUS
 62
     7
  5
38C
 10
957271.596
 20
7279920.365
 30
0.0
 40
8.0
  1
53.12'
 50
52.894031
  7
txt
 72
     4
 11
957279.407532
 21
7279937.321759
 31
0.0
210
0.0
220
0.0
230
1.0
  0
TEXT
  8
11
  6
CONTINUOUS
 62
     7
  5
38D
 10
957319.422
 20
7279971.335
 30
0.0
 40
8.0
  1
54.63'
 50
43.3189
  7
txt
 72
     4
 11
957330.976238
 21
7279987.728291
 31
0.0
210
0.0
220
0.0
230
1.0
  0
TEXT
  8
11
  6
CONTINUOUS
 62
     7
  5
38E
 10
957365.453
 20
7280009.319
 30
0.0
 40
8.0
  1
56.92'
 50
26.3189
  7
txt
 72
     4
 11
957380.955594
 21
7280021.449814
 31
0.0
210
0.0
220
0.0
230
1.0
  0
TEXT
  8
11
  6
CONTINUOUS
 62
     7
  5
38F
 10
957418.892
 20
7280036.562
 30
0.0
 40
8.0
  1
57.81'
 50
18.3189
  7
txt
 72
     4
 11
957434.97604
 21
7280046.100708
 31
0.0
210
0.0
220
0.0
230
1.0
  0
TEXT
  8
11
  6
CONTINUOUS
 62
     7
  5
390
 10
957476.585
 20
7280051.394
 30
0.0
 40
8.0
  1
57.51'
 50
10.3189
  7
txt
 72
     4
 11
957493.840043
 21
7280058.601412
 31
0.0
210
0.0
220
0.0
230
1.0
  0
TEXT
  8
11
  6
CONTINUOUS
 62
     7
  5
391
 10
957527.579
 20
7280056.858
 30
0.0
 40
8.0
  1
23.57'
 50
42.3189
  7
txt
 72
     4
 11
957539.440502
 21
7280073.068016
 31
0.0
210
0.0
220
0.0
230
1.0
  0
TEXT
  8
11
  6
CONTINUOUS
 62
     7
  5
392
 10
958065.754
 20
7280058.272
 30
0.0
 40
8.0
  1
50'
 50
22.3189
  7
txt
 72
     4
 11
958073.121316
 21
7280065.620325
 31
0.0
210
0.0
220
0.0
230
1.0
  0
TEXT
  8
11
  6
CONTINUOUS
 62
     7
  5
393
 10
958125.392
 20
7280059.078
 30
0.0
 40
8.0
  1
71.42
 50
317.327094
  7
txt
 72
     4
 11
958139.496453
 21
7280051.515565
 31
0.0
210
0.0
220
0.0
230
1.0
  0
TEXT
  8
11
  6
CONTINUOUS
 62
     7
  5
394
 10
958124.264
 20
7279956.392
 30
0.0
 40
8.0
  1
71.42
 50
42.197561
  7
txt
 72
     4
 11
958133.057195
 21
7279969.763826
 31
0.0
210
0.0
220
0.0
230
1.0
  0
TEXT
  8
11
  6
CONTINUOUS
 62
     7
  5
395
 10
958057.02
 20
7279954.321
 30
0.0
 40
8.0
  1
50'
 50
358.3189
  7
txt
 72
     4
 11
958066.739212
 21
7279958.037472
 31
0.0
210
0.0
220
0.0
230
1.0
  0
TEXT
  8
11
  6
CONTINUOUS
 62
     7
  5
396
 10
957400.577
 20
7279952.549
 30
0.0
 40
8.0
  1
156.77'
 50
29.692042
  7
txt
 72
     4
 11
957417.801743
 21
7279966.975229
 31
0.0
210
0.0
220
0.0
230
1.0
  0
TEXT
  8
11
  6
CONTINUOUS
 62
     7
  5
397
 10
958021.943
 20
7280667.936
 30
0.0
 40
8.0
  1
10.03'
 50
313.3189
  7
txt
 72
     4
 11
958037.320239
 21
7280657.459259
 31
0.0
210
0.0
220
0.0
230
1.0
  0
TEXT
  8
11
  6
CONTINUOUS
 62
     7
  5
398
 10
958023.506
 20
7280551.172
 30
0.0
 40
8.0
  1
10.03'
 50
43.3189
  7
txt
 72
     4
 11
958033.982741
 21
7280566.549239
 31
0.0
210
0.0
220
0.0
230
1.0
  0
TEXT
  8
11
  6
CONTINUOUS
 62
     7
  5
399
 10
958066.552
 20
7280665.412
 30
0.0
 40
8.0
  1
72.22'
 50
358.3189
  7
txt
 72
     4
 11
958086.344874
 21
7280668.832818
 31
0.0
210
0.0
220
0.0
230
1.0
  0
TEXT
  8
11
  6
CONTINUOUS
 62
     7
  5
39A
 10
958061.414
 20
7280551.819
 30
0.0
 40
8.0
  1
72.22'
 50
358.3189
  7
txt
 72
     4
 11
958081.206874
 21
7280555.239818
 31
0.0
210
0.0
220
0.0
230
1.0
  0
TEXT
  8
11
  6
CONTINUOUS
 62
     7
  5
39B
 10
958127.803
 20
7280648.043
 30
0.0
 40
8.0
  1
43.1'
 50
298.263461
  7
txt
 72
     4
 11
958138.156739
 21
7280637.231862
 31
0.0
210
0.0
220
0.0
230
1.0
  0
TEXT
  8
11
  6
CONTINUOUS
 62
     7
  5
39C
 10
958131.481
 20
7280569.378
 30
0.0
 40
8.0
  1
43.1'
 50
57.059806
  7
txt
 72
     4
 11
958135.967832
 21
7280583.65907
 31
0.0
210
0.0
220
0.0
230
1.0
  0
TEXT
  8
11
  6
CONTINUOUS
 62
     7
  5
39D
 10
957581.486
 20
7281843.999
 30
0.0
 40
8.0
  1
222.56'
 50
326.211358
  7
txt
 72
     4
 11
957603.21133
 21
7281834.274324
 31
0.0
210
0.0
220
0.0
230
1.0
  0
TEXT
  8
11
  6
CONTINUOUS
 62
     7
  5
39E
 10
957625.841
 20
7281886.607
 30
0.0
 40
8.0
  1
158.4'
 50
328.328367
  7
txt
 72
     4
 11
957643.622188
 21
7281880.337232
 31
0.0
210
0.0
220
0.0
230
1.0
  0
TEXT
  8
11
  6
CONTINUOUS
 62
     7
  5
39F
 10
957129.148
 20
7281913.341
 30
0.0
 40
8.0
  1
S65%%d00'00"W
 50
23.318922
  7
txt
 72
     4
 11
957164.809653
 21
7281933.069099
 31
0.0
210
0.0
220
0.0
230
1.0
  0
TEXT
  8
11
  6
CONTINUOUS
 62
     7
  5
3A0
 10
956692.929
 20
7282080.029
 30
0.0
 40
8.0
  1
608'
 50
293.319083
  7
txt
 72
     4
 11
956701.913001
 21
7282069.292297
 31
0.0
210
0.0
220
0.0
230
1.0
  0
TEXT
  8
11
  6
CONTINUOUS
 62
     7
  5
3A1
 10
956699.942
 20
7282117.775
 30
0.0
 40
8.0
  1
N25%%d00'01"W
 50
293.319083
  7
txt
 72
     4
 11
956719.196761
 21
7282083.211707
 31
0.0
210
0.0
220
0.0
230
1.0
  0
TEXT
  8
11
  6
CONTINUOUS
 62
     7
  5
3A2
 10
957490.21
 20
7282234.024
 30
0.0
 40
8.0
  1
N65%%d00'00"E
 50
23.318944
  7
txt
 72
     4
 11
957524.657632
 21
7282253.2288
 31
0.0
210
0.0
220
0.0
230
1.0
  0
TEXT
  8
11
  6
CONTINUOUS
 62
     7
  5
3A3
 10
957516.24
 20
7282093.619
 30
0.0
 40
8.0
  1
292.71'
 50
293.318989
  7
txt
 72
     4
 11
957528.652834
 21
7282074.927836
 31
0.0
210
0.0
220
0.0
230
1.0
  0
TEXT
  8
11
  6
CONTINUOUS
 62
     7
  5
3A4
 10
957269.396
 20
7282665.106
 30
0.0
 40
8.0
  1
729.49'
 50
293.318903
  7
txt
 72
     4
 11
957282.369328
 21
7282645.114482
 31
0.0
210
0.0
220
0.0
230
1.0
  0
TEXT
  8
11
  6
CONTINUOUS
 62
     7
  5
3A5
 10
957125.853
 20
7282794.336
 30
0.0
 40
8.0
  1
N25%%d00'00"W
 50
293.3189
  7
txt
 72
     4
 11
957145.656296
 21
7282758.499859
 31
0.0
210
0.0
220
0.0
230
1.0
  0
TEXT
  8
11
  6
CONTINUOUS
 62
     7
  5
3A6
 10
957828.136
 20
7283178.314
 30
0.0
 40
8.0
  1
128.09'
 50
10.339197
  7
txt
 72
     4
 11
957849.074646
 21
7283186.200019
 31
0.0
210
0.0
220
0.0
230
1.0
  0
TEXT
  8
11
  6
CONTINUOUS
 62
     7
  5
3A7
 10
957804.735
 20
7283250.791
 30
0.0
 40
8.0
  1
154.43'
 50
13.289883
  7
txt
 72
     4
 11
957825.823874
 21
7283259.882337
 31
0.0
210
0.0
220
0.0
230
1.0
  0
TEXT
  8
11
  6
CONTINUOUS
 62
     7
  5
3A8
 10
957423.416
 20
7283068.287
 30
0.0
 40
8.0
  1
N64%%d36'30"E
 50
23.710561
  7
txt
 72
     4
 11
957457.817629
 21
7283087.764598
 31
0.0
210
0.0
220
0.0
230
1.0
  0
TEXT
  8
11
  6
CONTINUOUS
 62
     7
  5
3A9
 10
956913.069
 20
7283261.25
 30
0.0
 40
8.0
  1
390.38'
 50
299.644344
  7
txt
 72
     4
 11
956928.13526
 21
7283242.863417
 31
0.0
210
0.0
220
0.0
230
1.0
  0
TEXT
  8
11
  6
CONTINUOUS
 62
     7
  5
3AA
 10
956985.548
 20
7283296.027
 30
0.0
 40
8.0
  1
405.41'
 50
299.779886
  7
txt
 72
     4
 11
957000.235546
 21
7283278.413859
 31
0.0
210
0.0
220
0.0
230
1.0
  0
LINE
  8
6
  6
CONTINUOUS
 62
     7
  5
3AB
 10
953681.396
 20
7283754.78
 30
0.0
 11
953036.661
 21
7283003.428
 31
0.0
  0
ENDSEC
  0
EOF
