  0
SECTION
  2
HEADER
  9
$ACADVER
  1
AC1009
  9
$INSBASE
 10
0.0
 20
0.0
 30
0.0
  9
$EXTMIN
 10
884417.971
 20
7285677.996
 30
0.0
  9
$EXTMAX
 10
889859.857
 20
7291119.882
 30
0.0
  9
$LIMMIN
 10
0.0
 20
0.0
  9
$LIMMAX
 10
12.0
 20
9.0
  9
$ORTHOMODE
 70
     0
  9
$REGENMODE
 70
     1
  9
$FILLMODE
 70
     1
  9
$QTEXTMODE
 70
     0
  9
$MIRRTEXT
 70
     1
  9
$DRAGMODE
 70
     2
  9
$LTSCALE
 40
1.0
  9
$OSMODE
 70
     0
  9
$ATTMODE
 70
     1
  9
$TEXTSIZE
 40
0.2
  9
$TRACEWID
 40
0.05
  9
$TEXTSTYLE
  7
STANDARD
  9
$CLAYER
  8
0
  9
$CELTYPE
  6
CONTINUOUS
  9
$CECOLOR
 62
   256
  9
$DIMSCALE
 40
1.0
  9
$DIMASZ
 40
0.18
  9
$DIMEXO
 40
0.0625
  9
$DIMDLI
 40
0.38
  9
$DIMRND
 40
0.0
  9
$DIMDLE
 40
0.0
  9
$DIMEXE
 40
0.18
  9
$DIMTP
 40
0.0
  9
$DIMTM
 40
0.0
  9
$DIMTXT
 40
0.18
  9
$DIMCEN
 40
0.09
  9
$DIMTSZ
 40
0.0
  9
$DIMTOL
 70
     0
  9
$DIMLIM
 70
     0
  9
$DIMTIH
 70
     1
  9
$DIMTOH
 70
     1
  9
$DIMSE1
 70
     0
  9
$DIMSE2
 70
     0
  9
$DIMTAD
 70
     0
  9
$DIMZIN
 70
     0
  9
$DIMBLK
  1

  9
$DIMASO
 70
     1
  9
$DIMSHO
 70
     1
  9
$DIMPOST
  1

  9
$DIMAPOST
  1

  9
$DIMALT
 70
     0
  9
$DIMALTD
 70
     2
  9
$DIMALTF
 40
25.4
  9
$DIMLFAC
 40
1.0
  9
$DIMTOFL
 70
     0
  9
$DIMTVP
 40
0.0
  9
$DIMTIX
 70
     0
  9
$DIMSOXD
 70
     0
  9
$DIMSAH
 70
     0
  9
$DIMBLK1
  1

  9
$DIMBLK2
  1

  9
$DIMSTYLE
  2
STANDARD
  9
$DIMCLRD
 70
     0
  9
$DIMCLRE
 70
     0
  9
$DIMCLRT
 70
     0
  9
$DIMTFAC
 40
1.0
  9
$DIMGAP
 40
0.09
  9
$LUNITS
 70
     2
  9
$LUPREC
 70
     4
  9
$AXISMODE
 70
     0
  9
$AXISUNIT
 10
0.0
 20
0.0
  9
$SKETCHINC
 40
0.1
  9
$FILLETRAD
 40
0.0
  9
$AUNITS
 70
     0
  9
$AUPREC
 70
     0
  9
$MENU
  1
acad
  9
$ELEVATION
 40
0.0
  9
$PELEVATION
 40
0.0
  9
$THICKNESS
 40
0.0
  9
$LIMCHECK
 70
     0
  9
$BLIPMODE
 70
     1
  9
$CHAMFERA
 40
0.0
  9
$CHAMFERB
 40
0.0
  9
$SKPOLY
 70
     0
  9
$TDCREATE
 40
2453013.905451389
  9
$TDUPDATE
 40
2453013.905451389
  9
$TDINDWG
 40
0.0000000000
  9
$TDUSRTIMER
 40
0.0000000000
  9
$USRTIMER
 70
     1
  9
$ANGBASE
 50
0.0
  9
$ANGDIR
 70
     0
  9
$PDMODE
 70
     0
  9
$PDSIZE
 40
0.0
  9
$PLINEWID
 40
0.0
  9
$COORDS
 70
     0
  9
$SPLFRAME
 70
     0
  9
$SPLINETYPE
 70
     6
  9
$SPLINESEGS
 70
    10
  9
$ATTDIA
 70
     0
  9
$ATTREQ
 70
     1
  9
$HANDLING
 70
     1
  9
$HANDSEED
  5
ED
  9
$SURFTAB1
 70
     6
  9
$SURFTAB2
 70
     6
  9
$SURFTYPE
 70
     6
  9
$SURFU
 70
     6
  9
$SURFV
 70
     6
  9
$UCSNAME
  2

  9
$UCSORG
 10
0.0
 20
0.0
 30
0.0
  9
$UCSXDIR
 10
1.0
 20
0.0
 30
0.0
  9
$UCSYDIR
 10
0.0
 20
1.0
 30
0.0
  9
$PUCSNAME
  2

  9
$PUCSORG
 10
0.0
 20
0.0
 30
0.0
  9
$PUCSXDIR
 10
1.0
 20
0.0
 30
0.0
  9
$PUCSYDIR
 10
0.0
 20
1.0
 30
0.0
  9
$USERI1
 70
     0
  9
$USERI2
 70
     0
  9
$USERI3
 70
     0
  9
$USERI4
 70
     0
  9
$USERI5
 70
     0
  9
$USERR1
 40
0.0
  9
$USERR2
 40
0.0
  9
$USERR3
 40
0.0
  9
$USERR4
 40
0.0
  9
$USERR5
 40
0.0
  9
$WORLDVIEW
 70
     1
  9
$SHADEDGE
 70
     3
  9
$SHADEDIF
 70
    70
  9
$TILEMODE
 70
     1
  9
$MAXACTVP
 70
    16
  9
$PINSBASE
 10
0.0
 20
0.0
 30
0.0
  9
$PLIMCHECK
 70
     0
  9
$PEXTMIN
 10
-1.000000E+20
 20
-1.000000E+20
 30
-1.000000E+20
  9
$PEXTMAX
 10
-1.000000E+20
 20
-1.000000E+20
 30
-1.000000E+20
  9
$PLIMMIN
 10
0.0
 20
0.0
  9
$PLIMMAX
 10
12.0
 20
9.0
  9
$UNITMODE
 70
     0
  9
$VISRETAIN
 70
     0
  9
$PLINEGEN
 70
     1
  9
$PSLTSCALE
 70
     0
  9
$TREEDEPTH
 70
  3020
  9
$DWGCODEPAGE
  3
ansi_1252
  0
ENDSEC
  0
SECTION
  2
TABLES
  0
TABLE
  2
VPORT
 70
     1
  0
VPORT
  2
*ACTIVE
 70
     0
 10
0.0
 20
0.0
 11
1.0
 21
1.0
 12
0.0
 22
0.0
 13
0.0
 23
0.0
 14
0.0
 24
0.0
 15
0.0
 25
0.0
 16
0.0
 26
0.0
 36
1.0
 17
886881.31286
 27
7288269.0895
 37
0.0
 40
5318.235
 41
1.095768
 42
50.0
 43
0.004
 44
0.0
 50
0.0
 51
0.0
 71
     0
 72
   100
 73
     1
 74
     0
 75
     0
 76
     0
 77
     0
 78
     0
  0
ENDTAB
  0
TABLE
  2
LTYPE
 70
     7
  0
LTYPE
  2
CONTINUOUS
 70
     0
  3
Solid line
 72
    65
 73
     0
 40
0.0
  0
LTYPE
  2
DOT
 70
    64
  3
. . . . . . . . . . . . . . . . . . . . . . . . . . . . . . . . .
 72
    65
 73
     2
 40
0.25
 49
0.0
 49
-0.25
  0
LTYPE
  2
HIDDEN
 70
    64
  3
__ __ __ __ __ __ __ __ __ __ __ __ __ __ __ __ __ __ __ __ __ 
 72
    65
 73
     2
 40
0.375
 49
0.25
 49
-0.125
  0
LTYPE
  2
DASHED
 70
    64
  3
__ __ __ __ __ __ __ __ __ __ __ __ __ __ __ __ __ __ __ __ __
 72
    65
 73
     2
 40
0.75
 49
0.5
 49
-0.25
  0
LTYPE
  2
DASHDOT
 70
    64
  3
__ . __ . __ . __ . __ . __ . __ . __ . __ . __ . __ . __ . _
 72
    65
 73
     4
 40
1.0
 49
0.5
 49
-0.25
 49
0.0
 49
-0.25
  0
LTYPE
  2
DIVIDE
 70
    64
  3
____ . . ____ . . ____ . . ____ . . ____ . . ____ . . ____ . .
 72
    65
 73
     6
 40
1.25
 49
0.5
 49
-0.25
 49
0.0
 49
-0.25
 49
0.0
 49
-0.25
  0
LTYPE
  2
CENTER
 70
    64
  3
____ _ ____ _ ____ _ ____ _ ____ _ ____ _ ____ _ ____ _ ____ _
 72
    65
 73
     4
 40
2.0
 49
1.25
 49
-0.25
 49
0.25
 49
-0.25
  0
ENDTAB
  0
TABLE
  2
LAYER
 70
    11
  0
LAYER
  2
0
 70
     0
 62
     7
  6
CONTINUOUS
  0
LAYER
  2
CONSTRUCTION_CLASS
 70
     0
 62
     7
  6
CONTINUOUS
  0
LAYER
  2
PATTERN_CLASS
 70
     0
 62
     7
  6
CONTINUOUS
  0
LAYER
  2
6
 70
    64
 62
     7
  6
CONTINUOUS
  0
LAYER
  2
7
 70
    64
 62
     7
  6
CONTINUOUS
  0
LAYER
  2
25
 70
    64
 62
     7
  6
CONTINUOUS
  0
LAYER
  2
27
 70
    64
 62
     7
  6
CONTINUOUS
  0
LAYER
  2
10
 70
    64
 62
     7
  6
CONTINUOUS
  0
LAYER
  2
18
 70
    64
 62
     7
  6
CONTINUOUS
  0
LAYER
  2
15
 70
    64
 62
     7
  6
CONTINUOUS
  0
LAYER
  2
1
 70
    64
 62
     7
  6
CONTINUOUS
  0
ENDTAB
  0
TABLE
  2
STYLE
 70
     3
  0
STYLE
  2
STANDARD
 70
     0
 40
0.0
 41
1.0
 50
0.0
 71
     0
 42
0.0
  3
txt
  4

  0
STYLE
  2
txt
 70
     0
 40
0.2
 41
1.0
 50
0.0
 71
     0
 42
0.2
  3
TXT
  4

  0
STYLE
  2
ROMANC
 70
     0
 40
0.2
 41
1.0
 50
0.0
 71
     0
 42
0.2
  3
ROMANC
  4

  0
ENDTAB
  0
TABLE
  2
VIEW
 70
     0
  0
ENDTAB
  0
TABLE
  2
UCS
 70
     0
  0
ENDTAB
  0
TABLE
  2
APPID
 70
     1
  0
APPID
  2
ACAD
 70
     0
  0
ENDTAB
  0
TABLE
  2
DIMSTYLE
 70
     1
  0
DIMSTYLE
  2
STANDARD
 70
     0
  3

  4

  5

  6

  7

 40
1.0
 41
0.18
 42
0.0625
 43
0.38
 44
0.18
 45
0.0
 46
0.0
 47
0.0
 48
0.0
140
0.18
141
0.09
142
0.0
143
25.4
144
1.0
145
0.0
146
1.0
147
0.09
 71
     0
 72
     0
 73
     1
 74
     1
 75
     0
 76
     0
 77
     0
 78
     0
170
     0
171
     2
172
     0
173
     0
174
     0
175
     0
176
     0
177
     0
178
     0
  0
ENDTAB
  0
ENDSEC
  0
SECTION
  2
BLOCKS
  0
ENDSEC
  0
SECTION
  2
ENTITIES
  0
POINT
  8
6
  6
HIDDEN
 62
   253
  5
29
 10
889695.409
 20
7285677.996
 30
0.0
  0
LINE
  8
7
  6
CONTINUOUS
 62
     3
  5
2B
 10
887018.112
 20
7285794.537
 30
0.0
 11
887016.92
 21
7285761.459
 31
0.0
  0
LINE
  8
25
  6
CENTER
 62
     3
  5
2D
 10
886999.361
 20
7285826.748
 30
0.0
 11
886996.916
 21
7285762.083
 31
0.0
  0
LINE
  8
25
  6
CENTER
 62
     3
  5
2E
 10
887055.752
 20
7289690.74
 30
0.0
 11
889760.669
 21
7289586.07
 31
0.0
  0
LINE
  8
7
  6
CONTINUOUS
 62
     3
  5
2F
 10
889496.586
 20
7289554.86
 30
0.0
 11
887215.727
 21
7289640.822
 31
0.0
  0
LINE
  8
7
  6
CONTINUOUS
 62
     3
  5
30
 10
889760.195
 20
7289565.019
 30
0.0
 11
887216.483
 21
7289660.889
 31
0.0
  0
LINE
  8
7
  6
CONTINUOUS
 62
     3
  5
31
 10
887116.198
 20
7288408.252
 30
0.0
 11
887347.833
 21
7288398.492
 31
0.0
  0
LINE
  8
7
  6
CONTINUOUS
 62
     3
  5
32
 10
887117.998
 20
7288422.245
 30
0.0
 11
887348.425
 21
7288412.536
 31
0.0
  0
LINE
  8
7
  6
CONTINUOUS
 62
     3
  5
33
 10
887090.135
 20
7289541.298
 30
0.0
 11
887050.33
 21
7288451.183
 31
0.0
  0
LINE
  8
7
  6
CONTINUOUS
 62
     3
  5
34
 10
887070.069
 20
7289542.031
 30
0.0
 11
887015.341
 21
7288043.253
 31
0.0
  0
LINE
  8
25
  6
CENTER
 62
     3
  5
35
 10
887055.752
 20
7289690.74
 30
0.0
 11
886904.627
 21
7285827.967
 31
0.0
  0
LINE
  8
7
  6
CONTINUOUS
 62
     3
  5
36
 10
887038.179
 20
7285793.814
 30
0.0
 11
887036.99
 21
7285760.834
 31
0.0
  0
LINE
  8
7
  6
CONTINUOUS
 62
     3
  5
37
 10
887035.405
 20
7288042.471
 30
0.0
 11
886952.897
 21
7286053.777
 31
0.0
  0
LINE
  8
7
  6
CONTINUOUS
 62
     3
  5
38
 10
887015.342
 20
7288043.303
 30
0.0
 11
886932.836
 21
7286054.609
 31
0.0
  0
ARC
  8
7
  6
CONTINUOUS
 62
     3
  5
39
 10
886896.410528
 20
7285798.422679
 30
0.0
 40
141.843636
 50
358.153442
 51
36.105039
210
0.0
220
0.0
230
1.0
  0
LINE
  8
7
  6
CONTINUOUS
 62
     3
  5
3A
 10
886962.372
 20
7285931.731
 30
0.0
 11
886994.009
 21
7285871.426
 31
0.0
  0
LINE
  8
7
  6
CONTINUOUS
 62
     3
  5
3B
 10
886980.154
 20
7285941.059
 30
0.0
 11
887011.79
 21
7285880.755
 31
0.0
  0
ARC
  8
7
  6
CONTINUOUS
 62
     3
  5
3C
 10
886896.410528
 20
7285798.422679
 30
0.0
 40
121.763636
 50
358.153442
 51
36.105039
210
0.0
220
0.0
230
1.0
  0
LINE
  8
25
  6
CENTER
 62
     3
  5
3D
 10
886904.627
 20
7285827.967
 30
0.0
 11
886999.361
 21
7285826.748
 31
0.0
  0
ARC
  8
7
  6
CONTINUOUS
 62
     3
  5
3E
 10
887223.403052
 20
7286059.498296
 30
0.0
 40
270.546699
 50
181.083289
 51
206.023128
210
0.0
220
0.0
230
1.0
  0
ARC
  8
7
  6
CONTINUOUS
 62
     3
  5
3F
 10
887223.403052
 20
7286059.498296
 30
0.0
 40
290.626699
 50
181.083289
 51
206.023128
210
0.0
220
0.0
230
1.0
  0
LINE
  8
7
  6
CONTINUOUS
 62
     3
  5
40
 10
887047.881
 20
7288384.126
 30
0.0
 11
887035.407
 21
7288042.521
 31
0.0
  0
LINE
  8
7
  6
CONTINUOUS
 62
     3
  5
41
 10
887079.306
 20
7288398.495
 30
0.0
 11
887116.198
 21
7288408.252
 31
0.0
  0
LINE
  8
7
  6
CONTINUOUS
 62
     3
  5
42
 10
887047.881
 20
7288384.126
 30
0.0
 11
887079.306
 21
7288398.495
 31
0.0
  0
LINE
  8
7
  6
CONTINUOUS
 62
     3
  5
43
 10
887092.843
 20
7288428.588
 30
0.0
 11
887117.998
 21
7288422.245
 31
0.0
  0
LINE
  8
7
  6
CONTINUOUS
 62
     3
  5
44
 10
887050.33
 20
7288451.183
 30
0.0
 11
887092.843
 21
7288428.588
 31
0.0
  0
ARC
  8
7
  6
CONTINUOUS
 62
     3
  5
45
 10
887199.362428
 20
7289532.414695
 30
0.0
 40
109.578192
 50
81.953894
 51
175.565106
210
0.0
220
0.0
230
1.0
  0
ARC
  8
7
  6
CONTINUOUS
 62
     3
  5
46
 10
887199.362428
 20
7289532.414695
 30
0.0
 40
129.658192
 50
81.953894
 51
175.565106
210
0.0
220
0.0
230
1.0
  0
LINE
  8
7
  6
CONTINUOUS
 62
   230
  5
47
 10
887719.746
 20
7288480.387
 30
0.0
 11
887720.914
 21
7288507.875
 31
0.0
  0
LINE
  8
27
  6
CONTINUOUS
 62
     5
  5
49
 10
888868.848
 20
7288766.715
 30
0.0
 11
888836.769
 21
7287763.063
 31
0.0
  0
LINE
  8
27
  6
CONTINUOUS
 62
     5
  5
4A
 10
888716.338
 20
7288772.603
 30
0.0
 11
888619.936
 21
7285711.508
 31
0.0
  0
LINE
  8
7
  6
CONTINUOUS
 62
   230
  5
4B
 10
887352.53
 20
7288497.21
 30
0.0
 11
887350.907
 21
7288460.312
 31
0.0
  0
LINE
  8
7
  6
CONTINUOUS
 62
     3
  5
4C
 10
889532.244
 20
7289534.998
 30
0.0
 11
889366.847
 21
7288117.852
 31
0.0
  0
LINE
  8
7
  6
CONTINUOUS
 62
     3
  5
4D
 10
889515.775
 20
7289532.467
 30
0.0
 11
889350.176
 21
7288113.588
 31
0.0
  0
LINE
  8
7
  6
CONTINUOUS
 62
     3
  5
4E
 10
889153.882
 20
7286130.705
 30
0.0
 11
889136.982
 21
7285695.397
 31
0.0
  0
LINE
  8
7
  6
CONTINUOUS
 62
     3
  5
4F
 10
889172.97
 20
7286234.145
 30
0.0
 11
889152.036
 21
7285694.928
 31
0.0
  0
LINE
  8
27
  6
CONTINUOUS
 62
     5
  5
50
 10
889173.579
 20
7288071.055
 30
0.0
 11
889283.385
 21
7288095.254
 31
0.0
  0
ARC
  8
7
  6
CONTINUOUS
 62
     3
  5
51
 10
889228.280534
 20
7287091.643566
 30
0.0
 40
25.1
 50
87.958125
 51
178.382186
210
0.0
220
0.0
230
1.0
  0
ARC
  8
7
  6
CONTINUOUS
 62
     3
  5
52
 10
889230.123034
 20
7287156.87934
 30
0.0
 40
25.1
 50
178.382186
 51
267.958125
210
0.0
220
0.0
230
1.0
  0
ARC
  8
7
  6
CONTINUOUS
 62
     3
  5
53
 10
889203.472483
 20
7286282.369341
 30
0.0
 40
28.88549
 50
258.945731
 51
154.795953
210
0.0
220
0.0
230
1.0
  0
ARC
  8
7
  6
CONTINUOUS
 62
     3
  5
54
 10
889204.394873
 20
7286281.74628
 30
0.0
 40
48.545115
 50
264.026533
 51
78.052917
210
0.0
220
0.0
230
1.0
  0
ARC
  8
7
  6
CONTINUOUS
 62
     3
  5
55
 10
889272.472201
 20
7287675.319172
 30
0.0
 40
80.639398
 50
111.185275
 51
129.279894
210
0.0
220
0.0
230
1.0
  0
LINE
  8
27
  6
CONTINUOUS
 62
     5
  5
56
 10
889178.981
 20
7288046.542
 30
0.0
 11
889288.786
 21
7288070.742
 31
0.0
  0
LINE
  8
7
  6
CONTINUOUS
 62
     3
  5
57
 10
889203.191
 20
7287092.353
 30
0.0
 11
889182.983
 21
7286376.903
 31
0.0
  0
LINE
  8
7
  6
CONTINUOUS
 62
     3
  5
58
 10
889206.476
 20
7287742.092
 30
0.0
 11
889166.957
 21
7286342.9
 31
0.0
  0
LINE
  8
27
  6
CONTINUOUS
 62
     5
  5
59
 10
888830.798
 20
7287576.245
 30
0.0
 11
888789.508
 21
7286284.377
 31
0.0
  0
ARC
  8
7
  6
CONTINUOUS
 62
     3
  5
5A
 10
889202.92191
 20
7286282.090372
 30
0.0
 40
28.510288
 50
153.817469
 51
259.924214
210
0.0
220
0.0
230
1.0
  0
ARC
  8
7
  6
CONTINUOUS
 62
     3
  5
5B
 10
889105.748989
 20
7286313.14262
 30
0.0
 40
62.278817
 50
265.211556
 51
314.642408
210
0.0
220
0.0
230
1.0
  0
ARC
  8
7
  6
CONTINUOUS
 62
     3
  5
5C
 10
888814.594792
 20
7286283.574555
 30
0.0
 40
25.1
 50
178.169342
 51
268.520622
210
0.0
220
0.0
230
1.0
  0
LINE
  8
27
  6
CONTINUOUS
 62
     5
  5
5D
 10
888787.423
 20
7286219.148
 30
0.0
 11
888771.047
 21
7285706.8
 31
0.0
  0
LINE
  8
7
  6
CONTINUOUS
 62
     3
  5
5E
 10
888813.947
 20
7286258.483
 30
0.0
 11
889107.737
 21
7286250.895
 31
0.0
  0
LINE
  8
7
  6
CONTINUOUS
 62
     3
  5
5F
 10
888813.158
 20
7286243.438
 30
0.0
 11
889157.914
 21
7286234.535
 31
0.0
  0
ARC
  8
7
  6
CONTINUOUS
 62
     3
  5
60
 10
888812.509985
 20
7286218.346637
 30
0.0
 40
25.1
 50
88.520622
 51
178.169342
210
0.0
220
0.0
230
1.0
  0
POLYLINE
  8
10
  6
CONTINUOUS
 62
     2
  5
62
 66
     1
 10
0.0
 20
0.0
 30
0.0
  0
VERTEX
  8
10
  6
CONTINUOUS
 62
     2
  5
63
 10
889143.639
 20
7286151.544
 30
0.0
  0
VERTEX
  8
10
  6
CONTINUOUS
 62
     2
  5
64
 10
889119.557
 20
7286152.355
 30
0.0
  0
VERTEX
  8
10
  6
CONTINUOUS
 62
     2
  5
65
 10
889118.88
 20
7286132.287
 30
0.0
  0
VERTEX
  8
10
  6
CONTINUOUS
 62
     2
  5
66
 10
889142.963
 20
7286131.475
 30
0.0
  0
VERTEX
  8
10
  6
CONTINUOUS
 62
     2
  5
67
 10
889143.639
 20
7286151.544
 30
0.0
  0
SEQEND
  8
10
  6
CONTINUOUS
 62
     2
  5
68
  0
LINE
  8
7
  6
CONTINUOUS
 62
     3
  5
69
 10
889142.963
 20
7286131.475
 30
0.0
 11
889142.949
 21
7286131.073
 31
0.0
  0
LINE
  8
7
  6
CONTINUOUS
 62
     3
  5
6A
 10
889142.949
 20
7286131.073
 30
0.0
 11
889153.882
 21
7286130.705
 31
0.0
  0
LINE
  8
7
  6
CONTINUOUS
 62
     3
  5
6B
 10
889143.095
 20
7286135.388
 30
0.0
 11
889154.05
 21
7286135.019
 31
0.0
  0
LINE
  8
7
  6
CONTINUOUS
 62
     3
  5
6C
 10
889172.97
 20
7286234.145
 30
0.0
 11
889206.948
 21
7286233.269
 31
0.0
  0
LINE
  8
7
  6
CONTINUOUS
 62
     3
  5
6D
 10
889157.917
 20
7286234.632
 30
0.0
 11
889154.05
 21
7286135.019
 31
0.0
  0
ARC
  8
7
  6
CONTINUOUS
 62
     3
  5
6E
 10
889235.42667
 20
7286377.304091
 30
0.0
 40
52.444611
 50
176.325569
 51
246.416203
210
0.0
220
0.0
230
1.0
  0
LINE
  8
7
  6
CONTINUOUS
 62
     3
  5
6F
 10
889166.957
 20
7286342.9
 30
0.0
 11
889149.511
 21
7286268.831
 31
0.0
  0
LINE
  8
7
  6
CONTINUOUS
 62
   230
  5
70
 10
887498.778
 20
7288287.438
 30
0.0
 11
887525.013
 21
7288286.274
 31
0.0
  0
LINE
  8
7
  6
CONTINUOUS
 62
     3
  5
71
 10
887390.492
 20
7288432.038
 30
0.0
 11
887433.945
 21
7288429.583
 31
0.0
  0
LINE
  8
7
  6
CONTINUOUS
 62
     3
  5
72
 10
887348.425
 20
7288412.536
 30
0.0
 11
887390.492
 21
7288432.038
 31
0.0
  0
LINE
  8
7
  6
CONTINUOUS
 62
     3
  5
73
 10
887388.539
 20
7288372.004
 30
0.0
 11
887433.824
 21
7288372.207
 31
0.0
  0
LINE
  8
7
  6
CONTINUOUS
 62
     3
  5
74
 10
887347.833
 20
7288398.492
 30
0.0
 11
887388.539
 21
7288372.004
 31
0.0
  0
LINE
  8
10
  6
CONTINUOUS
 62
     2
  5
75
 10
887433.436
 20
7288371.519
 30
0.0
 11
887446.849
 21
7288371.008
 31
0.0
  0
LINE
  8
10
  6
CONTINUOUS
 62
     2
  5
76
 10
887449.079
 20
7288429.451
 30
0.0
 11
887433.945
 21
7288429.583
 31
0.0
  0
LINE
  8
10
  6
CONTINUOUS
 62
     2
  5
77
 10
887446.849
 20
7288371.008
 30
0.0
 11
887449.079
 21
7288429.451
 31
0.0
  0
LINE
  8
10
  6
CONTINUOUS
 62
     2
  5
78
 10
887433.945
 20
7288429.583
 30
0.0
 11
887433.436
 21
7288371.519
 31
0.0
  0
LINE
  8
7
  6
CONTINUOUS
 62
   230
  5
79
 10
887348.13
 20
7288397.167
 30
0.0
 11
887347.185
 21
7288375.681
 31
0.0
  0
CIRCLE
  8
7
  6
CONTINUOUS
 62
   230
  5
7A
 10
887348.920547
 20
7288415.131646
 30
0.0
 40
2.51
210
0.0
220
0.0
230
1.0
  0
CIRCLE
  8
7
  6
CONTINUOUS
 62
   230
  5
7B
 10
887348.075371
 20
7288395.913782
 30
0.0
 40
2.51
210
0.0
220
0.0
230
1.0
  0
LINE
  8
7
  6
CONTINUOUS
 62
   230
  5
7C
 10
887342.293
 20
7288335.26
 30
0.0
 11
887348.521
 21
7288317.675
 31
0.0
  0
LINE
  8
7
  6
CONTINUOUS
 62
   230
  5
7D
 10
887342.128
 20
7288379.277
 30
0.0
 11
887348.356
 21
7288361.694
 31
0.0
  0
LINE
  8
7
  6
CONTINUOUS
 62
   230
  5
7E
 10
887347.973
 20
7288463.815
 30
0.0
 11
887354.201
 21
7288446.231
 31
0.0
  0
LINE
  8
7
  6
CONTINUOUS
 62
   230
  5
7F
 10
887489.448
 20
7288298.837
 30
0.0
 11
887495.676
 21
7288281.253
 31
0.0
  0
LINE
  8
7
  6
CONTINUOUS
 62
   230
  5
80
 10
887435.748
 20
7288298.636
 30
0.0
 11
887441.976
 21
7288281.051
 31
0.0
  0
LINE
  8
7
  6
CONTINUOUS
 62
   230
  5
81
 10
887367.508
 20
7288301.9
 30
0.0
 11
887373.737
 21
7288284.316
 31
0.0
  0
LINE
  8
7
  6
CONTINUOUS
 62
   230
  5
82
 10
887350.444
 20
7288449.77
 30
0.0
 11
887348.865
 21
7288413.877
 31
0.0
  0
LINE
  8
7
  6
CONTINUOUS
 62
   230
  5
83
 10
887444.059
 20
7288289.864
 30
0.0
 11
887487.357
 21
7288287.944
 31
0.0
  0
LINE
  8
7
  6
CONTINUOUS
 62
   230
  5
84
 10
887379.053
 20
7288292.748
 30
0.0
 11
887433.602
 21
7288290.328
 31
0.0
  0
LINE
  8
7
  6
CONTINUOUS
 62
   230
  5
85
 10
887344.868
 20
7288322.971
 30
0.0
 11
887343.608
 21
7288294.32
 31
0.0
  0
LINE
  8
7
  6
CONTINUOUS
 62
   230
  5
86
 10
887346.76
 20
7288366.018
 30
0.0
 11
887345.331
 21
7288333.513
 31
0.0
  0
LINE
  8
7
  6
CONTINUOUS
 62
   230
  5
87
 10
887343.608
 20
7288294.32
 30
0.0
 11
887362.235
 21
7288293.494
 31
0.0
  0
LINE
  8
10
  6
CONTINUOUS
 62
     2
  5
88
 10
887672.5
 20
7288408.994
 30
0.0
 11
887673.478
 21
7288439.098
 31
0.0
  0
LINE
  8
10
  6
CONTINUOUS
 62
     2
  5
89
 10
887662.465
 20
7288409.32
 30
0.0
 11
887672.5
 21
7288408.994
 31
0.0
  0
LINE
  8
10
  6
CONTINUOUS
 62
     2
  5
8A
 10
887663.443
 20
7288439.424
 30
0.0
 11
887662.465
 21
7288409.32
 31
0.0
  0
LINE
  8
10
  6
CONTINUOUS
 62
     2
  5
8B
 10
887673.478
 20
7288439.098
 30
0.0
 11
887663.443
 21
7288439.424
 31
0.0
  0
LINE
  8
7
  6
CONTINUOUS
 62
   230
  5
8C
 10
887524.856
 20
7288294.83
 30
0.0
 11
887531.085
 21
7288277.247
 31
0.0
  0
LINE
  8
7
  6
CONTINUOUS
 62
   230
  5
8D
 10
887533.936
 20
7288285.836
 30
0.0
 11
887552.564
 21
7288285.011
 31
0.0
  0
LINE
  8
7
  6
CONTINUOUS
 62
   230
  5
8E
 10
887553.695
 20
7288294.781
 30
0.0
 11
887559.923
 21
7288277.197
 31
0.0
  0
LINE
  8
7
  6
CONTINUOUS
 62
   230
  5
8F
 10
887565.239
 20
7288285.629
 30
0.0
 11
887619.789
 21
7288283.209
 31
0.0
  0
LINE
  8
7
  6
CONTINUOUS
 62
   230
  5
90
 10
887621.934
 20
7288291.516
 30
0.0
 11
887628.163
 21
7288273.932
 31
0.0
  0
LINE
  8
7
  6
CONTINUOUS
 62
   230
  5
91
 10
887630.245
 20
7288282.745
 30
0.0
 11
887673.543
 21
7288280.825
 31
0.0
  0
LINE
  8
7
  6
CONTINUOUS
 62
   230
  5
92
 10
887675.635
 20
7288291.718
 30
0.0
 11
887681.863
 21
7288274.133
 31
0.0
  0
LINE
  8
7
  6
CONTINUOUS
 62
   230
  5
93
 10
887684.964
 20
7288280.319
 30
0.0
 11
887711.201
 21
7288279.155
 31
0.0
  0
LINE
  8
7
  6
CONTINUOUS
 62
   230
  5
94
 10
887711.201
 20
7288279.155
 30
0.0
 11
887711.89
 21
7288295.387
 31
0.0
  0
LINE
  8
7
  6
CONTINUOUS
 62
   230
  5
95
 10
887709.025
 20
7288308.57
 30
0.0
 11
887715.253
 21
7288290.986
 31
0.0
  0
LINE
  8
7
  6
CONTINUOUS
 62
   230
  5
96
 10
887712.412
 20
7288307.688
 30
0.0
 11
887714.278
 21
7288351.62
 31
0.0
  0
LINE
  8
7
  6
CONTINUOUS
 62
   230
  5
97
 10
887714.091
 20
7288365.813
 30
0.0
 11
887720.319
 21
7288348.229
 31
0.0
  0
LINE
  8
7
  6
CONTINUOUS
 62
   230
  5
98
 10
887714.688
 20
7288361.285
 30
0.0
 11
887716.601
 21
7288406.338
 31
0.0
  0
LINE
  8
7
  6
CONTINUOUS
 62
   230
  5
99
 10
887713.89
 20
7288419.515
 30
0.0
 11
887720.118
 21
7288401.931
 31
0.0
  0
LINE
  8
7
  6
CONTINUOUS
 62
   230
  5
9A
 10
887717.124
 20
7288418.639
 30
0.0
 11
887719.214
 21
7288467.843
 31
0.0
  0
LINE
  8
7
  6
CONTINUOUS
 62
   230
  5
9B
 10
887718.937
 20
7288482.04
 30
0.0
 11
887725.166
 21
7288464.456
 31
0.0
  0
ARC
  8
27
  6
CONTINUOUS
 62
     5
  5
9C
 10
888852.931586
 20
7287765.53323
 30
0.0
 40
16.350072
 50
188.689733
 51
268.237153
210
0.0
220
0.0
230
1.0
  0
LINE
  8
27
  6
CONTINUOUS
 62
     5
  5
9D
 10
888896.74
 20
7287759.392
 30
0.0
 11
888852.428
 21
7287749.191
 31
0.0
  0
LINE
  8
7
  6
CONTINUOUS
 62
     3
  5
9E
 10
889221.419
 20
7287737.739
 30
0.0
 11
889205.033
 21
7287157.588
 31
0.0
  0
LINE
  8
27
  6
CONTINUOUS
 62
     5
  5
9F
 10
889206.476
 20
7287742.092
 30
0.0
 11
888911.654
 21
7287674.767
 31
0.0
  0
ARC
  8
27
  6
CONTINUOUS
 62
     5
  5
A0
 10
888962.883162
 20
7287550.284256
 30
0.0
 40
134.612024
 50
112.369061
 51
168.880647
210
0.0
220
0.0
230
1.0
  0
SOLID
  8
18
  6
CONTINUOUS
 62
    30
  5
A2
 10
888614.234
 20
7287931.022
 30
0.0
 11
888630.666
 21
7287930.468
 31
0.0
 12
888613.219
 22
7287900.919
 32
0.0
 13
888629.651
 23
7287900.365
 33
0.0
  0
SOLID
  8
18
  6
CONTINUOUS
 62
    30
  5
A3
 10
888630.328
 20
7287920.433
 30
0.0
 11
888902.081
 21
7287911.271
 31
0.0
 12
888629.989
 22
7287910.399
 32
0.0
 13
888901.744
 23
7287901.237
 33
0.0
  0
SOLID
  8
18
  6
CONTINUOUS
 62
    30
  5
A4
 10
888902.081
 20
7287911.271
 30
0.0
 11
888919.777
 21
7287910.674
 31
0.0
 12
888901.744
 22
7287901.237
 32
0.0
 13
888919.439
 23
7287900.639
 33
0.0
  0
TEXT
  8
18
  6
CONTINUOUS
 62
    30
  5
A6
 10
888545.821
 20
7287878.064
 30
0.0
 40
30.12
  1
MAIA
 50
88.068819
  7
txt
210
0.0
220
0.0
230
1.0
  0
LINE
  8
27
  6
CONTINUOUS
 62
     5
  5
A7
 10
888890.314
 20
7287788.281
 30
0.0
 11
888980.876
 21
7287935.565
 31
0.0
  0
ARC
  8
27
  6
CONTINUOUS
 62
     5
  5
A8
 10
889247.822027
 20
7287760.663507
 30
0.0
 40
319.151336
 50
103.539389
 51
146.626906
210
0.0
220
0.0
230
1.0
  0
LINE
  8
27
  6
CONTINUOUS
 62
     5
  5
A9
 10
888906.19
 20
7287766.18
 30
0.0
 11
889002.258
 21
7287922.417
 31
0.0
  0
ARC
  8
27
  6
CONTINUOUS
 62
     5
  5
AA
 10
888877.485381
 20
7287796.169503
 30
0.0
 40
15.06
 50
282.963961
 51
328.413325
210
0.0
220
0.0
230
1.0
  0
ARC
  8
27
  6
CONTINUOUS
 62
     5
  5
AB
 10
888893.360589
 20
7287774.067569
 30
0.0
 40
15.06
 50
282.963961
 51
328.413325
210
0.0
220
0.0
230
1.0
  0
LINE
  8
27
  6
CONTINUOUS
 62
     5
  5
AC
 10
888880.864
 20
7287781.493
 30
0.0
 11
888837.036
 21
7287771.404
 31
0.0
  0
ARC
  8
27
  6
CONTINUOUS
 62
     5
  5
AD
 10
889247.822027
 20
7287760.663507
 30
0.0
 40
294.051336
 50
103.539389
 51
146.626906
210
0.0
220
0.0
230
1.0
  0
LINE
  8
27
  6
CONTINUOUS
 62
     5
  5
AE
 10
889733.204
 20
7287862.377
 30
0.0
 11
889243.33
 21
7287750.509
 31
0.0
  0
ARC
  8
7
  6
CONTINUOUS
 62
     3
  5
AF
 10
889680.358542
 20
7287152.908429
 30
0.0
 40
37.173839
 50
267.702036
 51
342.414236
210
0.0
220
0.0
230
1.0
  0
LINE
  8
7
  6
CONTINUOUS
 62
     3
  5
B0
 10
889734.887
 20
7287162.554
 30
0.0
 11
889715.795
 21
7287141.677
 31
0.0
  0
ARC
  8
7
  6
CONTINUOUS
 62
     3
  5
B1
 10
889868.569224
 20
7287493.344805
 30
0.0
 40
428.441108
 50
246.652525
 51
250.2135
210
0.0
220
0.0
230
1.0
  0
LINE
  8
7
  6
CONTINUOUS
 62
     3
  5
B2
 10
889229.175
 20
7287116.728
 30
0.0
 11
889698.775
 21
7287099.985
 31
0.0
  0
LINE
  8
7
  6
CONTINUOUS
 62
     3
  5
B3
 10
889229.229
 20
7287131.796
 30
0.0
 11
889679.2
 21
7287115.752
 31
0.0
  0
ARC
  8
7
  6
CONTINUOUS
 62
     3
  5
B4
 10
889763.208124
 20
7287121.009978
 30
0.0
 40
27.714472
 50
143.652061
 51
167.852672
210
0.0
220
0.0
230
1.0
  0
ARC
  8
7
  6
CONTINUOUS
 62
     3
  5
B5
 10
889780.65724
 20
7287129.017201
 30
0.0
 40
44.919978
 50
182.309725
 51
205.242794
210
0.0
220
0.0
230
1.0
  0
ARC
  8
7
  6
CONTINUOUS
 62
     3
  5
B6
 10
889762.735858
 20
7287121.85683
 30
0.0
 40
49.313039
 50
115.132883
 51
124.383072
210
0.0
220
0.0
230
1.0
  0
ARC
  8
7
  6
CONTINUOUS
 62
     3
  5
B7
 10
889772.7623
 20
7287136.101494
 30
0.0
 40
67.308282
 50
222.998528
 51
239.9226
210
0.0
220
0.0
230
1.0
  0
LINE
  8
27
  6
CONTINUOUS
 62
     5
  5
B8
 10
889701.888
 20
7287936.107
 30
0.0
 11
889766.205
 21
7287949.965
 31
0.0
  0
ARC
  8
27
  6
CONTINUOUS
 62
     5
  5
B9
 10
889336.506047
 20
7287804.370311
 30
0.0
 40
295.712788
 50
60.585256
 51
100.156628
210
0.0
220
0.0
230
1.0
  0
ARC
  8
27
  6
CONTINUOUS
 62
     5
  5
BA
 10
889336.506047
 20
7287804.370311
 30
0.0
 40
270.612788
 50
60.585256
 51
100.156628
210
0.0
220
0.0
230
1.0
  0
LINE
  8
7
  6
CONTINUOUS
 62
     3
  5
BB
 10
889366.847
 20
7288117.852
 30
0.0
 11
889378.333
 21
7288097.11
 31
0.0
  0
LINE
  8
7
  6
CONTINUOUS
 62
     3
  5
BC
 10
889350.176
 20
7288113.588
 30
0.0
 11
889339.902
 21
7288100.063
 31
0.0
  0
LINE
  8
27
  6
CONTINUOUS
 62
     5
  5
BD
 10
889509.733
 20
7288044.138
 30
0.0
 11
889527.82
 21
7288002.817
 31
0.0
  0
LINE
  8
27
  6
CONTINUOUS
 62
     5
  5
BE
 10
889482.916
 20
7288061.255
 30
0.0
 11
889509.733
 21
7288044.138
 31
0.0
  0
ARC
  8
27
  6
CONTINUOUS
 62
     5
  5
BF
 10
889693.477135
 20
7288151.233207
 30
0.0
 40
215.290876
 50
231.764939
 51
272.238964
210
0.0
220
0.0
230
1.0
  0
LINE
  8
27
  6
CONTINUOUS
 62
     5
  5
C0
 10
889469.411
 20
7288040.098
 30
0.0
 11
889560.236
 21
7287982.127
 31
0.0
  0
LINE
  8
27
  6
CONTINUOUS
 62
     5
  5
C1
 10
889733.204
 20
7287862.377
 30
0.0
 11
889763.689
 21
7287869.241
 31
0.0
  0
LINE
  8
7
  6
CONTINUOUS
 62
   230
  5
C2
 10
887500.039
 20
7288526.012
 30
0.0
 11
887506.267
 21
7288508.428
 31
0.0
  0
LINE
  8
7
  6
CONTINUOUS
 62
   230
  5
C3
 10
887347.787
 20
7288513.115
 30
0.0
 11
887354.015
 21
7288495.531
 31
0.0
  0
LINE
  8
7
  6
CONTINUOUS
 62
   230
  5
C4
 10
887390.871
 20
7288527.363
 30
0.0
 11
887397.099
 21
7288509.779
 31
0.0
  0
LINE
  8
7
  6
CONTINUOUS
 62
   230
  5
C5
 10
887445.452
 20
7288527.568
 30
0.0
 11
887451.68
 21
7288509.984
 31
0.0
  0
LINE
  8
7
  6
CONTINUOUS
 62
   230
  5
C6
 10
887388.626
 20
7288520.332
 30
0.0
 11
887353.604
 21
7288521.611
 31
0.0
  0
LINE
  8
7
  6
CONTINUOUS
 62
   230
  5
C7
 10
887443.268
 20
7288518.336
 30
0.0
 11
887400.195
 21
7288519.909
 31
0.0
  0
LINE
  8
7
  6
CONTINUOUS
 62
   230
  5
C8
 10
887497.839
 20
7288516.342
 30
0.0
 11
887453.888
 21
7288517.948
 31
0.0
  0
LINE
  8
7
  6
CONTINUOUS
 62
   230
  5
C9
 10
887353.604
 20
7288521.611
 30
0.0
 11
887353.071
 21
7288509.509
 31
0.0
  0
LINE
  8
7
  6
CONTINUOUS
 62
   230
  5
CA
 10
887534.063
 20
7288523.38
 30
0.0
 11
887540.292
 21
7288505.796
 31
0.0
  0
LINE
  8
7
  6
CONTINUOUS
 62
   230
  5
CB
 10
887720.914
 20
7288507.875
 30
0.0
 11
887694.575
 21
7288508.837
 31
0.0
  0
LINE
  8
7
  6
CONTINUOUS
 62
   230
  5
CC
 10
887686.225
 20
7288518.893
 30
0.0
 11
887692.454
 21
7288501.309
 31
0.0
  0
LINE
  8
7
  6
CONTINUOUS
 62
   230
  5
CD
 10
887684.026
 20
7288509.223
 30
0.0
 11
887640.075
 21
7288510.829
 31
0.0
  0
LINE
  8
7
  6
CONTINUOUS
 62
   230
  5
CE
 10
887631.638
 20
7288520.448
 30
0.0
 11
887637.867
 21
7288502.865
 31
0.0
  0
LINE
  8
7
  6
CONTINUOUS
 62
   230
  5
CF
 10
887629.455
 20
7288511.217
 30
0.0
 11
887586.382
 21
7288512.79
 31
0.0
  0
LINE
  8
7
  6
CONTINUOUS
 62
   230
  5
D0
 10
887577.057
 20
7288520.244
 30
0.0
 11
887583.286
 21
7288502.659
 31
0.0
  0
LINE
  8
7
  6
CONTINUOUS
 62
   230
  5
D1
 10
887574.813
 20
7288513.212
 30
0.0
 11
887539.79
 21
7288514.492
 31
0.0
  0
LINE
  8
7
  6
CONTINUOUS
 62
   230
  5
D2
 10
887534.727
 20
7288514.995
 30
0.0
 11
887508.389
 21
7288515.957
 31
0.0
  0
LINE
  8
27
  6
CONTINUOUS
 62
     5
  5
D3
 10
888716.338
 20
7288772.603
 30
0.0
 11
888868.848
 21
7288766.715
 31
0.0
  0
LINE
  8
7
  6
CONTINUOUS
 62
     3
  5
D4
 10
889759.438
 20
7289544.954
 30
0.0
 11
889552.944
 21
7289552.736
 31
0.0
  0
LINE
  8
10
  6
CONTINUOUS
 62
     2
  5
D5
 10
889657.49
 20
7289486.089
 30
0.0
 11
889657.078
 21
7289473.857
 31
0.0
  0
LINE
  8
10
  6
CONTINUOUS
 62
     2
  5
D6
 10
889668.278
 20
7289485.726
 30
0.0
 11
889657.49
 21
7289486.089
 31
0.0
  0
LINE
  8
10
  6
CONTINUOUS
 62
     2
  5
D7
 10
889667.866
 20
7289473.493
 30
0.0
 11
889668.278
 21
7289485.726
 31
0.0
  0
LINE
  8
10
  6
CONTINUOUS
 62
     2
  5
D8
 10
889657.078
 20
7289473.857
 30
0.0
 11
889667.866
 21
7289473.493
 31
0.0
  0
ARC
  8
7
  6
CONTINUOUS
 62
     3
  5
D9
 10
889552.188103
 20
7289532.670228
 30
0.0
 40
20.08
 50
87.841622
 51
173.343081
210
0.0
220
0.0
230
1.0
  0
ARC
  8
7
  6
CONTINUOUS
 62
     3
  5
DA
 10
889495.830372
 20
7289534.794273
 30
0.0
 40
20.08
 50
353.343083
 51
87.841625
210
0.0
220
0.0
230
1.0
  0
LINE
  8
7
  6
CONTINUOUS
 62
     3
  5
DB
 10
889759.42
 20
7289544.954
 30
0.0
 11
889815.836
 21
7289542.726
 31
0.0
  0
LINE
  8
7
  6
CONTINUOUS
 62
     3
  5
DC
 10
889760.213
 20
7289565.018
 30
0.0
 11
889816.462
 21
7289562.797
 31
0.0
  0
LINE
  8
25
  6
CENTER
 62
     3
  5
DD
 10
889760.669
 20
7289586.07
 30
0.0
 11
889817.121
 21
7289583.966
 31
0.0
  0
TEXT
  8
15
  6
CONTINUOUS
 62
    30
  5
E0
 10
887540.829
 20
7289138.567
 30
0.0
 40
50.0
  1
REESE A.F.B.
 50
28.215208
  7
ROMANC
210
0.0
220
0.0
230
1.0
  0
TEXT
  8
15
  6
CONTINUOUS
 62
    30
  5
E1
 10
887492.4
 20
7285824.948
 30
0.0
 40
50.0
  1
REESE A.F.B.
 50
28.215208
  7
ROMANC
210
0.0
220
0.0
230
1.0
  0
TEXT
  8
15
  6
CONTINUOUS
 62
    30
  5
E2
 10
889160.293
 20
7287371.315
 30
0.0
 40
50.0
  1
REESE A.F.B.
 50
28.215208
  7
ROMANC
210
0.0
220
0.0
230
1.0
  0
POLYLINE
  8
1
  6
HIDDEN
 62
   253
  5
E4
 66
     1
 10
0.0
 20
0.0
 30
0.0
 70
     1
  0
VERTEX
  8
1
  6
HIDDEN
 62
   253
  5
E5
 10
889695.409
 20
7285677.996
 30
0.0
  0
VERTEX
  8
1
  6
HIDDEN
 62
   253
  5
E6
 10
884417.971
 20
7285842.444
 30
0.0
  0
VERTEX
  8
1
  6
HIDDEN
 62
   253
  5
E7
 10
884582.419
 20
7291119.882
 30
0.0
  0
VERTEX
  8
1
  6
HIDDEN
 62
   253
  5
E8
 10
889859.857
 20
7290955.434
 30
0.0
  0
SEQEND
  8
1
  6
HIDDEN
 62
   253
  5
E9
  0
ENDSEC
  0
EOF
