  0
SECTION
  2
HEADER
  9
$ACADVER
  1
AC1009
  9
$INSBASE
 10
0.0
 20
0.0
 30
0.0
  9
$EXTMIN
 10
884253.522
 20
7280400.558
 30
0.0
  9
$EXTMAX
 10
889695.408
 20
7285842.444
 30
0.0
  9
$LIMMIN
 10
0.0
 20
0.0
  9
$LIMMAX
 10
12.0
 20
9.0
  9
$ORTHOMODE
 70
     0
  9
$REGENMODE
 70
     1
  9
$FILLMODE
 70
     1
  9
$QTEXTMODE
 70
     0
  9
$MIRRTEXT
 70
     1
  9
$DRAGMODE
 70
     2
  9
$LTSCALE
 40
1.0
  9
$OSMODE
 70
     0
  9
$ATTMODE
 70
     1
  9
$TEXTSIZE
 40
0.2
  9
$TRACEWID
 40
0.05
  9
$TEXTSTYLE
  7
STANDARD
  9
$CLAYER
  8
0
  9
$CELTYPE
  6
CONTINUOUS
  9
$CECOLOR
 62
   256
  9
$DIMSCALE
 40
1.0
  9
$DIMASZ
 40
0.18
  9
$DIMEXO
 40
0.0625
  9
$DIMDLI
 40
0.38
  9
$DIMRND
 40
0.0
  9
$DIMDLE
 40
0.0
  9
$DIMEXE
 40
0.18
  9
$DIMTP
 40
0.0
  9
$DIMTM
 40
0.0
  9
$DIMTXT
 40
0.18
  9
$DIMCEN
 40
0.09
  9
$DIMTSZ
 40
0.0
  9
$DIMTOL
 70
     0
  9
$DIMLIM
 70
     0
  9
$DIMTIH
 70
     1
  9
$DIMTOH
 70
     1
  9
$DIMSE1
 70
     0
  9
$DIMSE2
 70
     0
  9
$DIMTAD
 70
     0
  9
$DIMZIN
 70
     0
  9
$DIMBLK
  1

  9
$DIMASO
 70
     1
  9
$DIMSHO
 70
     1
  9
$DIMPOST
  1

  9
$DIMAPOST
  1

  9
$DIMALT
 70
     0
  9
$DIMALTD
 70
     2
  9
$DIMALTF
 40
25.4
  9
$DIMLFAC
 40
1.0
  9
$DIMTOFL
 70
     0
  9
$DIMTVP
 40
0.0
  9
$DIMTIX
 70
     0
  9
$DIMSOXD
 70
     0
  9
$DIMSAH
 70
     0
  9
$DIMBLK1
  1

  9
$DIMBLK2
  1

  9
$DIMSTYLE
  2
STANDARD
  9
$DIMCLRD
 70
     0
  9
$DIMCLRE
 70
     0
  9
$DIMCLRT
 70
     0
  9
$DIMTFAC
 40
1.0
  9
$DIMGAP
 40
0.09
  9
$LUNITS
 70
     2
  9
$LUPREC
 70
     4
  9
$AXISMODE
 70
     0
  9
$AXISUNIT
 10
0.0
 20
0.0
  9
$SKETCHINC
 40
0.1
  9
$FILLETRAD
 40
0.0
  9
$AUNITS
 70
     0
  9
$AUPREC
 70
     0
  9
$MENU
  1
acad
  9
$ELEVATION
 40
0.0
  9
$PELEVATION
 40
0.0
  9
$THICKNESS
 40
0.0
  9
$LIMCHECK
 70
     0
  9
$BLIPMODE
 70
     1
  9
$CHAMFERA
 40
0.0
  9
$CHAMFERB
 40
0.0
  9
$SKPOLY
 70
     0
  9
$TDCREATE
 40
2453013.905416667
  9
$TDUPDATE
 40
2453013.905416667
  9
$TDINDWG
 40
0.0000000000
  9
$TDUSRTIMER
 40
0.0000000000
  9
$USRTIMER
 70
     1
  9
$ANGBASE
 50
0.0
  9
$ANGDIR
 70
     0
  9
$PDMODE
 70
     0
  9
$PDSIZE
 40
0.0
  9
$PLINEWID
 40
0.0
  9
$COORDS
 70
     0
  9
$SPLFRAME
 70
     0
  9
$SPLINETYPE
 70
     6
  9
$SPLINESEGS
 70
    10
  9
$ATTDIA
 70
     0
  9
$ATTREQ
 70
     1
  9
$HANDLING
 70
     1
  9
$HANDSEED
  5
228
  9
$SURFTAB1
 70
     6
  9
$SURFTAB2
 70
     6
  9
$SURFTYPE
 70
     6
  9
$SURFU
 70
     6
  9
$SURFV
 70
     6
  9
$UCSNAME
  2

  9
$UCSORG
 10
0.0
 20
0.0
 30
0.0
  9
$UCSXDIR
 10
1.0
 20
0.0
 30
0.0
  9
$UCSYDIR
 10
0.0
 20
1.0
 30
0.0
  9
$PUCSNAME
  2

  9
$PUCSORG
 10
0.0
 20
0.0
 30
0.0
  9
$PUCSXDIR
 10
1.0
 20
0.0
 30
0.0
  9
$PUCSYDIR
 10
0.0
 20
1.0
 30
0.0
  9
$USERI1
 70
     0
  9
$USERI2
 70
     0
  9
$USERI3
 70
     0
  9
$USERI4
 70
     0
  9
$USERI5
 70
     0
  9
$USERR1
 40
0.0
  9
$USERR2
 40
0.0
  9
$USERR3
 40
0.0
  9
$USERR4
 40
0.0
  9
$USERR5
 40
0.0
  9
$WORLDVIEW
 70
     1
  9
$SHADEDGE
 70
     3
  9
$SHADEDIF
 70
    70
  9
$TILEMODE
 70
     1
  9
$MAXACTVP
 70
    16
  9
$PINSBASE
 10
0.0
 20
0.0
 30
0.0
  9
$PLIMCHECK
 70
     0
  9
$PEXTMIN
 10
-1.000000E+20
 20
-1.000000E+20
 30
-1.000000E+20
  9
$PEXTMAX
 10
-1.000000E+20
 20
-1.000000E+20
 30
-1.000000E+20
  9
$PLIMMIN
 10
0.0
 20
0.0
  9
$PLIMMAX
 10
12.0
 20
9.0
  9
$UNITMODE
 70
     0
  9
$VISRETAIN
 70
     0
  9
$PLINEGEN
 70
     1
  9
$PSLTSCALE
 70
     0
  9
$TREEDEPTH
 70
  3020
  9
$DWGCODEPAGE
  3
ansi_1252
  0
ENDSEC
  0
SECTION
  2
TABLES
  0
TABLE
  2
VPORT
 70
     1
  0
VPORT
  2
*ACTIVE
 70
     0
 10
0.0
 20
0.0
 11
1.0
 21
1.0
 12
0.0
 22
0.0
 13
0.0
 23
0.0
 14
0.0
 24
0.0
 15
0.0
 25
0.0
 16
0.0
 26
0.0
 36
1.0
 17
886763.175414
 27
7283033.9155
 37
0.0
 40
5402.763
 41
1.095768
 42
50.0
 43
0.004
 44
0.0
 50
0.0
 51
0.0
 71
     0
 72
   100
 73
     1
 74
     0
 75
     0
 76
     0
 77
     0
 78
     0
  0
ENDTAB
  0
TABLE
  2
LTYPE
 70
     7
  0
LTYPE
  2
CONTINUOUS
 70
     0
  3
Solid line
 72
    65
 73
     0
 40
0.0
  0
LTYPE
  2
DOT
 70
    64
  3
. . . . . . . . . . . . . . . . . . . . . . . . . . . . . . . . .
 72
    65
 73
     2
 40
0.25
 49
0.0
 49
-0.25
  0
LTYPE
  2
HIDDEN
 70
    64
  3
__ __ __ __ __ __ __ __ __ __ __ __ __ __ __ __ __ __ __ __ __ 
 72
    65
 73
     2
 40
0.375
 49
0.25
 49
-0.125
  0
LTYPE
  2
DASHED
 70
    64
  3
__ __ __ __ __ __ __ __ __ __ __ __ __ __ __ __ __ __ __ __ __
 72
    65
 73
     2
 40
0.75
 49
0.5
 49
-0.25
  0
LTYPE
  2
DASHDOT
 70
    64
  3
__ . __ . __ . __ . __ . __ . __ . __ . __ . __ . __ . __ . _
 72
    65
 73
     4
 40
1.0
 49
0.5
 49
-0.25
 49
0.0
 49
-0.25
  0
LTYPE
  2
DIVIDE
 70
    64
  3
____ . . ____ . . ____ . . ____ . . ____ . . ____ . . ____ . .
 72
    65
 73
     6
 40
1.25
 49
0.5
 49
-0.25
 49
0.0
 49
-0.25
 49
0.0
 49
-0.25
  0
LTYPE
  2
CENTER
 70
    64
  3
____ _ ____ _ ____ _ ____ _ ____ _ ____ _ ____ _ ____ _ ____ _
 72
    65
 73
     4
 40
2.0
 49
1.25
 49
-0.25
 49
0.25
 49
-0.25
  0
ENDTAB
  0
TABLE
  2
LAYER
 70
    13
  0
LAYER
  2
0
 70
     0
 62
     7
  6
CONTINUOUS
  0
LAYER
  2
CONSTRUCTION_CLASS
 70
     0
 62
     7
  6
CONTINUOUS
  0
LAYER
  2
PATTERN_CLASS
 70
     0
 62
     7
  6
CONTINUOUS
  0
LAYER
  2
6
 70
    64
 62
     7
  6
CONTINUOUS
  0
LAYER
  2
7
 70
    64
 62
     7
  6
CONTINUOUS
  0
LAYER
  2
27
 70
    64
 62
     7
  6
CONTINUOUS
  0
LAYER
  2
25
 70
    64
 62
     7
  6
CONTINUOUS
  0
LAYER
  2
20
 70
    64
 62
     7
  6
CONTINUOUS
  0
LAYER
  2
10
 70
    64
 62
     7
  6
CONTINUOUS
  0
LAYER
  2
18
 70
    64
 62
     7
  6
CONTINUOUS
  0
LAYER
  2
19
 70
    64
 62
     7
  6
CONTINUOUS
  0
LAYER
  2
15
 70
    64
 62
     7
  6
CONTINUOUS
  0
LAYER
  2
1
 70
    64
 62
     7
  6
CONTINUOUS
  0
ENDTAB
  0
TABLE
  2
STYLE
 70
     2
  0
STYLE
  2
STANDARD
 70
     0
 40
0.0
 41
1.0
 50
0.0
 71
     0
 42
0.0
  3
txt
  4

  0
STYLE
  2
ROMANC
 70
     0
 40
0.2
 41
1.0
 50
0.0
 71
     0
 42
0.2
  3
ROMANC
  4

  0
ENDTAB
  0
TABLE
  2
VIEW
 70
     0
  0
ENDTAB
  0
TABLE
  2
UCS
 70
     0
  0
ENDTAB
  0
TABLE
  2
APPID
 70
     1
  0
APPID
  2
ACAD
 70
     0
  0
ENDTAB
  0
TABLE
  2
DIMSTYLE
 70
     1
  0
DIMSTYLE
  2
STANDARD
 70
     0
  3

  4

  5

  6

  7

 40
1.0
 41
0.18
 42
0.0625
 43
0.38
 44
0.18
 45
0.0
 46
0.0
 47
0.0
 48
0.0
140
0.18
141
0.09
142
0.0
143
25.4
144
1.0
145
0.0
146
1.0
147
0.09
 71
     0
 72
     0
 73
     1
 74
     1
 75
     0
 76
     0
 77
     0
 78
     0
170
     0
171
     2
172
     0
173
     0
174
     0
175
     0
176
     0
177
     0
178
     0
  0
ENDTAB
  0
ENDSEC
  0
SECTION
  2
BLOCKS
  0
ENDSEC
  0
SECTION
  2
ENTITIES
  0
POINT
  8
6
  6
HIDDEN
 62
   253
  5
29
 10
889530.96
 20
7280400.558
 30
0.0
  0
LINE
  8
7
  6
CONTINUOUS
 62
     3
  5
2B
 10
889019.054
 20
7283600.84
 30
0.0
 11
889020.038
 21
7282185.215
 31
0.0
  0
LINE
  8
7
  6
CONTINUOUS
 62
     3
  5
2C
 10
889003.994
 20
7283600.83
 30
0.0
 11
889006.101
 21
7280566.97
 31
0.0
  0
LINE
  8
27
  6
CONTINUOUS
 62
     5
  5
2E
 10
888726.017
 20
7284457.741
 30
0.0
 11
888590.679
 21
7280682.725
 31
0.0
  0
LINE
  8
27
  6
CONTINUOUS
 62
     5
  5
2F
 10
888617.508
 20
7285634.445
 30
0.0
 11
888431.096
 21
7280434.83
 31
0.0
  0
LINE
  8
7
  6
CONTINUOUS
 62
     3
  5
30
 10
886929.485
 20
7282778.221
 30
0.0
 11
886846.801
 21
7280484.198
 31
0.0
  0
LINE
  8
7
  6
CONTINUOUS
 62
     3
  5
31
 10
887016.919
 20
7285761.46
 30
0.0
 11
886826.731
 21
7280484.823
 31
0.0
  0
LINE
  8
25
  6
CENTER
 62
     3
  5
33
 10
886996.915
 20
7285762.083
 30
0.0
 11
886797.398
 21
7280485.737
 31
0.0
  0
LINE
  8
7
  6
CONTINUOUS
 62
     3
  5
34
 10
889006.118
 20
7280543.784
 30
0.0
 11
889006.207
 21
7280416.91
 31
0.0
  0
LINE
  8
7
  6
CONTINUOUS
 62
     3
  5
35
 10
889021.184
 20
7280535.099
 30
0.0
 11
889021.266
 21
7280416.44
 31
0.0
  0
POLYLINE
  8
7
  6
CONTINUOUS
 62
     3
  5
36
 66
     1
 10
0.0
 20
0.0
 30
0.0
  0
VERTEX
  8
7
  6
CONTINUOUS
 62
     3
  5
37
 10
889021.134
 20
7280607.558
 30
0.0
  0
VERTEX
  8
7
  6
CONTINUOUS
 62
     3
  5
38
 10
889050.968
 20
7280604.196
 30
0.0
  0
VERTEX
  8
7
  6
CONTINUOUS
 62
     3
  5
39
 10
889076.067
 20
7280601.161
 30
0.0
  0
VERTEX
  8
7
  6
CONTINUOUS
 62
     3
  5
3A
 10
889096.997
 20
7280598.399
 30
0.0
  0
VERTEX
  8
7
  6
CONTINUOUS
 62
     3
  5
3B
 10
889114.322
 20
7280595.855
 30
0.0
  0
VERTEX
  8
7
  6
CONTINUOUS
 62
     3
  5
3C
 10
889128.605
 20
7280593.477
 30
0.0
  0
VERTEX
  8
7
  6
CONTINUOUS
 62
     3
  5
3D
 10
889140.411
 20
7280591.211
 30
0.0
  0
VERTEX
  8
7
  6
CONTINUOUS
 62
     3
  5
3E
 10
889150.303
 20
7280589.003
 30
0.0
  0
VERTEX
  8
7
  6
CONTINUOUS
 62
     3
  5
3F
 10
889158.844
 20
7280586.8
 30
0.0
  0
VERTEX
  8
7
  6
CONTINUOUS
 62
     3
  5
40
 10
889166.517
 20
7280584.555
 30
0.0
  0
VERTEX
  8
7
  6
CONTINUOUS
 62
     3
  5
41
 10
889173.462
 20
7280582.254
 30
0.0
  0
VERTEX
  8
7
  6
CONTINUOUS
 62
     3
  5
42
 10
889179.738
 20
7280579.886
 30
0.0
  0
VERTEX
  8
7
  6
CONTINUOUS
 62
     3
  5
43
 10
889185.403
 20
7280577.444
 30
0.0
  0
VERTEX
  8
7
  6
CONTINUOUS
 62
     3
  5
44
 10
889190.516
 20
7280574.92
 30
0.0
  0
VERTEX
  8
7
  6
CONTINUOUS
 62
     3
  5
45
 10
889195.136
 20
7280572.305
 30
0.0
  0
VERTEX
  8
7
  6
CONTINUOUS
 62
     3
  5
46
 10
889199.321
 20
7280569.589
 30
0.0
  0
VERTEX
  8
7
  6
CONTINUOUS
 62
     3
  5
47
 10
889203.128
 20
7280566.766
 30
0.0
  0
VERTEX
  8
7
  6
CONTINUOUS
 62
     3
  5
48
 10
889206.607
 20
7280563.828
 30
0.0
  0
VERTEX
  8
7
  6
CONTINUOUS
 62
     3
  5
49
 10
889209.772
 20
7280560.778
 30
0.0
  0
VERTEX
  8
7
  6
CONTINUOUS
 62
     3
  5
4A
 10
889212.625
 20
7280557.62
 30
0.0
  0
VERTEX
  8
7
  6
CONTINUOUS
 62
     3
  5
4B
 10
889215.171
 20
7280554.356
 30
0.0
  0
VERTEX
  8
7
  6
CONTINUOUS
 62
     3
  5
4C
 10
889217.412
 20
7280550.993
 30
0.0
  0
VERTEX
  8
7
  6
CONTINUOUS
 62
     3
  5
4D
 10
889219.352
 20
7280547.532
 30
0.0
  0
VERTEX
  8
7
  6
CONTINUOUS
 62
     3
  5
4E
 10
889220.996
 20
7280543.98
 30
0.0
  0
VERTEX
  8
7
  6
CONTINUOUS
 62
     3
  5
4F
 10
889222.346
 20
7280540.339
 30
0.0
  0
VERTEX
  8
7
  6
CONTINUOUS
 62
     3
  5
50
 10
889223.413
 20
7280536.62
 30
0.0
  0
VERTEX
  8
7
  6
CONTINUOUS
 62
     3
  5
51
 10
889224.232
 20
7280532.852
 30
0.0
  0
VERTEX
  8
7
  6
CONTINUOUS
 62
     3
  5
52
 10
889224.844
 20
7280529.075
 30
0.0
  0
VERTEX
  8
7
  6
CONTINUOUS
 62
     3
  5
53
 10
889225.293
 20
7280525.327
 30
0.0
  0
VERTEX
  8
7
  6
CONTINUOUS
 62
     3
  5
54
 10
889225.619
 20
7280521.642
 30
0.0
  0
VERTEX
  8
7
  6
CONTINUOUS
 62
     3
  5
55
 10
889225.865
 20
7280518.059
 30
0.0
  0
VERTEX
  8
7
  6
CONTINUOUS
 62
     3
  5
56
 10
889226.073
 20
7280514.616
 30
0.0
  0
VERTEX
  8
7
  6
CONTINUOUS
 62
     3
  5
57
 10
889226.285
 20
7280511.35
 30
0.0
  0
VERTEX
  8
7
  6
CONTINUOUS
 62
     3
  5
58
 10
889226.54
 20
7280508.285
 30
0.0
  0
VERTEX
  8
7
  6
CONTINUOUS
 62
     3
  5
59
 10
889226.869
 20
7280505.392
 30
0.0
  0
VERTEX
  8
7
  6
CONTINUOUS
 62
     3
  5
5A
 10
889227.298
 20
7280502.632
 30
0.0
  0
VERTEX
  8
7
  6
CONTINUOUS
 62
     3
  5
5B
 10
889227.855
 20
7280499.965
 30
0.0
  0
VERTEX
  8
7
  6
CONTINUOUS
 62
     3
  5
5C
 10
889228.57
 20
7280497.348
 30
0.0
  0
VERTEX
  8
7
  6
CONTINUOUS
 62
     3
  5
5D
 10
889229.468
 20
7280494.743
 30
0.0
  0
VERTEX
  8
7
  6
CONTINUOUS
 62
     3
  5
5E
 10
889230.578
 20
7280492.107
 30
0.0
  0
VERTEX
  8
7
  6
CONTINUOUS
 62
     3
  5
5F
 10
889231.927
 20
7280489.402
 30
0.0
  0
VERTEX
  8
7
  6
CONTINUOUS
 62
     3
  5
60
 10
889233.573
 20
7280486.562
 30
0.0
  0
VERTEX
  8
7
  6
CONTINUOUS
 62
     3
  5
61
 10
889235.698
 20
7280483.431
 30
0.0
  0
VERTEX
  8
7
  6
CONTINUOUS
 62
     3
  5
62
 10
889238.51
 20
7280479.827
 30
0.0
  0
VERTEX
  8
7
  6
CONTINUOUS
 62
     3
  5
63
 10
889242.222
 20
7280475.57
 30
0.0
  0
VERTEX
  8
7
  6
CONTINUOUS
 62
     3
  5
64
 10
889264.796
 20
7280451.738
 30
0.0
  0
SEQEND
  8
7
  6
CONTINUOUS
 62
     3
  5
65
  0
LINE
  8
7
  6
CONTINUOUS
 62
     3
  5
66
 10
889243.714
 20
7280441.076
 30
0.0
 11
889298.255
 21
7280407.809
 31
0.0
  0
LINE
  8
20
  6
HIDDEN
 62
   204
  5
68
 10
889073.806
 20
7282120.589
 30
0.0
 11
889303.262
 21
7282104.603
 31
0.0
  0
LINE
  8
20
  6
HIDDEN
 62
   204
  5
69
 10
889066.749
 20
7282135.171
 30
0.0
 11
889304.239
 21
7282118.625
 31
0.0
  0
LINE
  8
7
  6
CONTINUOUS
 62
     3
  5
6A
 10
889020.118
 20
7282070.476
 30
0.0
 11
889021.134
 21
7280607.558
 31
0.0
  0
ARC
  8
7
  6
CONTINUOUS
 62
     3
  5
6B
 10
888662.274369
 20
7279817.442342
 30
0.0
 40
815.466819
 50
77.135036
 51
84.431508
210
0.0
220
0.0
230
1.0
  0
ARC
  8
7
  6
CONTINUOUS
 62
     3
  5
6C
 10
888662.274369
 20
7279817.442342
 30
0.0
 40
835.546819
 50
77.135036
 51
84.431508
210
0.0
220
0.0
230
1.0
  0
ARC
  8
7
  6
CONTINUOUS
 62
     3
  5
6D
 10
888605.729431
 20
7280682.185474
 30
0.0
 40
15.06
 50
177.946761
 51
262.570356
210
0.0
220
0.0
230
1.0
  0
ARC
  8
7
  6
CONTINUOUS
 62
     3
  5
6E
 10
888603.922912
 20
7280631.796023
 30
0.0
 40
15.06
 50
82.570356
 51
177.946761
210
0.0
220
0.0
230
1.0
  0
LINE
  8
27
  6
CONTINUOUS
 62
     5
  5
6F
 10
888588.873
 20
7280632.335
 30
0.0
 11
888581.624
 21
7280430.14
 31
0.0
  0
LINE
  8
7
  6
CONTINUOUS
 62
     3
  5
70
 10
888605.87
 20
7280646.73
 30
0.0
 11
888741.08
 21
7280629.098
 31
0.0
  0
LINE
  8
7
  6
CONTINUOUS
 62
     3
  5
71
 10
888603.782
 20
7280667.252
 30
0.0
 11
888743.676
 21
7280649.009
 31
0.0
  0
LINE
  8
7
  6
CONTINUOUS
 62
     3
  5
72
 10
888935.873
 20
7280584.271
 30
0.0
 11
889006.118
 21
7280543.784
 31
0.0
  0
LINE
  8
7
  6
CONTINUOUS
 62
     3
  5
73
 10
888945.901
 20
7280601.667
 30
0.0
 11
889006.101
 21
7280566.97
 31
0.0
  0
ARC
  8
7
  6
CONTINUOUS
 62
     3
  5
74
 10
888819.13194
 20
7280366.663537
 30
0.0
 40
246.939876
 50
61.719272
 51
83.981364
210
0.0
220
0.0
230
1.0
  0
ARC
  8
7
  6
CONTINUOUS
 62
     3
  5
75
 10
888819.13194
 20
7280366.663537
 30
0.0
 40
267.019876
 50
61.719272
 51
83.981364
210
0.0
220
0.0
230
1.0
  0
LINE
  8
7
  6
CONTINUOUS
 62
     3
  5
76
 10
889021.184
 20
7280535.099
 30
0.0
 11
889049.637
 21
7280518.7
 31
0.0
  0
LINE
  8
7
  6
CONTINUOUS
 62
     3
  5
77
 10
889050.753
 20
7280541.233
 30
0.0
 11
889059.664
 21
7280536.097
 31
0.0
  0
LINE
  8
10
  6
CONTINUOUS
 62
     2
  5
79
 10
889159.853
 20
7280556.463
 30
0.0
 11
889164.47
 21
7280567.974
 31
0.0
  0
LINE
  8
10
  6
CONTINUOUS
 62
     2
  5
7A
 10
889185.073
 20
7280549.629
 30
0.0
 11
889159.853
 21
7280556.463
 31
0.0
  0
LINE
  8
10
  6
CONTINUOUS
 62
     2
  5
7B
 10
889189.008
 20
7280561.87
 30
0.0
 11
889185.073
 21
7280549.629
 31
0.0
  0
LINE
  8
10
  6
CONTINUOUS
 62
     2
  5
7C
 10
889164.47
 20
7280567.974
 30
0.0
 11
889189.008
 21
7280561.87
 31
0.0
  0
POLYLINE
  8
7
  6
CONTINUOUS
 62
     3
  5
7D
 66
     1
 10
0.0
 20
0.0
 30
0.0
  0
VERTEX
  8
7
  6
CONTINUOUS
 62
     3
  5
7E
 10
889050.753
 20
7280541.233
 30
0.0
  0
VERTEX
  8
7
  6
CONTINUOUS
 62
     3
  5
7F
 10
889043.493
 20
7280553.562
 30
0.0
  0
VERTEX
  8
7
  6
CONTINUOUS
 62
     3
  5
80
 10
889045.263
 20
7280564.459
 30
0.0
  0
VERTEX
  8
7
  6
CONTINUOUS
 62
     3
  5
81
 10
889056.576
 20
7280575.397
 30
0.0
  0
VERTEX
  8
7
  6
CONTINUOUS
 62
     3
  5
82
 10
889088.052
 20
7280576.132
 30
0.0
  0
VERTEX
  8
7
  6
CONTINUOUS
 62
     3
  5
83
 10
889126.074
 20
7280571.705
 30
0.0
  0
VERTEX
  8
7
  6
CONTINUOUS
 62
     3
  5
84
 10
889162.37
 20
7280557.794
 30
0.0
  0
VERTEX
  8
7
  6
CONTINUOUS
 62
     3
  5
85
 10
889181.242
 20
7280540.567
 30
0.0
  0
VERTEX
  8
7
  6
CONTINUOUS
 62
     3
  5
86
 10
889183.129
 20
7280511.88
 30
0.0
  0
VERTEX
  8
7
  6
CONTINUOUS
 62
     3
  5
87
 10
889169.23
 20
7280497.493
 30
0.0
  0
VERTEX
  8
7
  6
CONTINUOUS
 62
     3
  5
88
 10
889146.555
 20
7280497.078
 30
0.0
  0
SEQEND
  8
7
  6
CONTINUOUS
 62
     3
  5
89
  0
ARC
  8
7
  6
CONTINUOUS
 62
     3
  5
8A
 10
889142.784143
 20
7280281.098538
 30
0.0
 40
189.153773
 50
57.796019
 51
82.039711
210
0.0
220
0.0
230
1.0
  0
ARC
  8
7
  6
CONTINUOUS
 62
     3
  5
8B
 10
889371.510876
 20
7281114.226693
 30
0.0
 40
676.949076
 50
241.632986
 51
252.446158
210
0.0
220
0.0
230
1.0
  0
ARC
  8
7
  6
CONTINUOUS
 62
     3
  5
8C
 10
889371.510876
 20
7281114.226693
 30
0.0
 40
656.869076
 50
241.632986
 51
249.972772
210
0.0
220
0.0
230
1.0
  0
ARC
  8
20
  6
HIDDEN
 62
   204
  5
8D
 10
889070.237677
 20
7282185.249082
 30
0.0
 40
50.2
 50
180.039797
 51
266.014814
210
0.0
220
0.0
230
1.0
  0
ARC
  8
20
  6
HIDDEN
 62
   204
  5
8E
 10
889070.317374
 20
7282070.510111
 30
0.0
 40
50.2
 50
86.014814
 51
180.039797
210
0.0
220
0.0
230
1.0
  0
LINE
  8
7
  6
CONTINUOUS
 62
     3
  5
8F
 10
889264.796
 20
7280451.738
 30
0.0
 11
889338.892
 21
7280406.543
 31
0.0
  0
POLYLINE
  8
10
  6
CONTINUOUS
 62
     2
  5
90
 66
     1
 10
0.0
 20
0.0
 30
0.0
  0
VERTEX
  8
10
  6
CONTINUOUS
 62
     2
  5
91
 10
889273.817
 20
7280962.077
 30
0.0
  0
VERTEX
  8
10
  6
CONTINUOUS
 62
     2
  5
92
 10
889274.541
 20
7280983.537
 30
0.0
  0
VERTEX
  8
10
  6
CONTINUOUS
 62
     2
  5
93
 10
889253.081
 20
7280984.26
 30
0.0
  0
VERTEX
  8
10
  6
CONTINUOUS
 62
     2
  5
94
 10
889252.357
 20
7280962.801
 30
0.0
  0
VERTEX
  8
10
  6
CONTINUOUS
 62
     2
  5
95
 10
889273.817
 20
7280962.077
 30
0.0
  0
SEQEND
  8
10
  6
CONTINUOUS
 62
     2
  5
96
  0
LINE
  8
7
  6
CONTINUOUS
 62
     3
  5
97
 10
889582.422
 20
7282052.061
 30
0.0
 11
889529.132
 21
7282053.807
 31
0.0
  0
LINE
  8
7
  6
CONTINUOUS
 62
     3
  5
98
 10
889581.953
 20
7282037.009
 30
0.0
 11
889517.297
 21
7282039.127
 31
0.0
  0
POLYLINE
  8
20
  6
HIDDEN
 62
   204
  5
99
 66
     1
 10
0.0
 20
0.0
 30
0.0
  0
VERTEX
  8
20
  6
HIDDEN
 62
   204
  5
9A
 10
889500.94
 20
7282020.417
 30
0.0
  0
VERTEX
  8
20
  6
HIDDEN
 62
   204
  5
9B
 10
889499.358
 20
7282018.665
 30
0.0
  0
VERTEX
  8
20
  6
HIDDEN
 62
   204
  5
9C
 10
889495.875
 20
7282014.937
 30
0.0
  0
VERTEX
  8
20
  6
HIDDEN
 62
   204
  5
9D
 10
889492.655
 20
7282011.657
 30
0.0
  0
VERTEX
  8
20
  6
HIDDEN
 62
   204
  5
9E
 10
889489.632
 20
7282008.771
 30
0.0
  0
VERTEX
  8
20
  6
HIDDEN
 62
   204
  5
9F
 10
889487.858
 20
7282007.21
 30
0.0
  0
SEQEND
  8
20
  6
HIDDEN
 62
   204
  5
A0
  0
LINE
  8
10
  6
CONTINUOUS
 62
     2
  5
A1
 10
889492.923
 20
7282030.304
 30
0.0
 11
889460.976
 21
7282030.184
 31
0.0
  0
LINE
  8
10
  6
CONTINUOUS
 62
     2
  5
A2
 10
889460.856
 20
7282062.131
 30
0.0
 11
889492.804
 21
7282062.252
 31
0.0
  0
CIRCLE
  8
18
  6
CONTINUOUS
 62
    30
  5
A4
 10
889476.88958
 20
7282046.218182
 30
0.0
 40
22.59
210
0.0
220
0.0
230
1.0
  0
LINE
  8
20
  6
HIDDEN
 62
   204
  5
A5
 10
889486.771
 20
7282100.942
 30
0.0
 11
889491.102
 21
7282099.009
 31
0.0
  0
LINE
  8
20
  6
HIDDEN
 62
   204
  5
A6
 10
889491.963
 20
7282025.457
 30
0.0
 11
889488.622
 21
7282021.882
 31
0.0
  0
POLYLINE
  8
20
  6
HIDDEN
 62
   204
  5
A7
 66
     1
 10
0.0
 20
0.0
 30
0.0
  0
VERTEX
  8
20
  6
HIDDEN
 62
   204
  5
A8
 10
889435.031
 20
7282111.759
 30
0.0
  0
VERTEX
  8
20
  6
HIDDEN
 62
   204
  5
A9
 10
889438.057
 20
7282111.529
 30
0.0
  0
VERTEX
  8
20
  6
HIDDEN
 62
   204
  5
AA
 10
889445.679
 20
7282110.749
 30
0.0
  0
SEQEND
  8
20
  6
HIDDEN
 62
   204
  5
AB
  0
LINE
  8
20
  6
HIDDEN
 62
   204
  5
AC
 10
889421.371
 20
7282112.601
 30
0.0
 11
889423.497
 21
7282112.489
 31
0.0
  0
POLYLINE
  8
20
  6
HIDDEN
 62
   204
  5
AD
 66
     1
 10
0.0
 20
0.0
 30
0.0
  0
VERTEX
  8
20
  6
HIDDEN
 62
   204
  5
AE
 10
889450.86
 20
7282120.194
 30
0.0
  0
VERTEX
  8
20
  6
HIDDEN
 62
   204
  5
AF
 10
889454.305
 20
7282119.741
 30
0.0
  0
VERTEX
  8
20
  6
HIDDEN
 62
   204
  5
B0
 10
889461.342
 20
7282118.583
 30
0.0
  0
VERTEX
  8
20
  6
HIDDEN
 62
   204
  5
B1
 10
889467.968
 20
7282117.248
 30
0.0
  0
VERTEX
  8
20
  6
HIDDEN
 62
   204
  5
B2
 10
889474.195
 20
7282115.734
 30
0.0
  0
VERTEX
  8
20
  6
HIDDEN
 62
   204
  5
B3
 10
889480.041
 20
7282114.049
 30
0.0
  0
VERTEX
  8
20
  6
HIDDEN
 62
   204
  5
B4
 10
889484.298
 20
7282112.616
 30
0.0
  0
SEQEND
  8
20
  6
HIDDEN
 62
   204
  5
B5
  0
POLYLINE
  8
20
  6
HIDDEN
 62
   204
  5
B6
 66
     1
 10
0.0
 20
0.0
 30
0.0
  0
VERTEX
  8
20
  6
HIDDEN
 62
   204
  5
B7
 10
889407.598
 20
7282122.999
 30
0.0
  0
VERTEX
  8
20
  6
HIDDEN
 62
   204
  5
B8
 10
889412.519
 20
7282122.931
 30
0.0
  0
VERTEX
  8
20
  6
HIDDEN
 62
   204
  5
B9
 10
889421.799
 20
7282122.632
 30
0.0
  0
VERTEX
  8
20
  6
HIDDEN
 62
   204
  5
BA
 10
889430.605
 20
7282122.166
 30
0.0
  0
VERTEX
  8
20
  6
HIDDEN
 62
   204
  5
BB
 10
889438.949
 20
7282121.53
 30
0.0
  0
VERTEX
  8
20
  6
HIDDEN
 62
   204
  5
BC
 10
889440.396
 20
7282121.381
 30
0.0
  0
SEQEND
  8
20
  6
HIDDEN
 62
   204
  5
BD
  0
POLYLINE
  8
20
  6
HIDDEN
 62
   204
  5
BE
 66
     1
 10
0.0
 20
0.0
 30
0.0
  0
VERTEX
  8
20
  6
HIDDEN
 62
   204
  5
BF
 10
889369.741
 20
7282122.483
 30
0.0
  0
VERTEX
  8
20
  6
HIDDEN
 62
   204
  5
C0
 10
889370.332
 20
7282122.507
 30
0.0
  0
VERTEX
  8
20
  6
HIDDEN
 62
   204
  5
C1
 10
889381.685
 20
7282122.849
 30
0.0
  0
VERTEX
  8
20
  6
HIDDEN
 62
   204
  5
C2
 10
889392.482
 20
7282123.037
 30
0.0
  0
VERTEX
  8
20
  6
HIDDEN
 62
   204
  5
C3
 10
889397.029
 20
7282123.049
 30
0.0
  0
SEQEND
  8
20
  6
HIDDEN
 62
   204
  5
C4
  0
POLYLINE
  8
20
  6
HIDDEN
 62
   204
  5
C5
 66
     1
 10
0.0
 20
0.0
 30
0.0
  0
VERTEX
  8
20
  6
HIDDEN
 62
   204
  5
C6
 10
889325.869
 20
7282120.146
 30
0.0
  0
VERTEX
  8
20
  6
HIDDEN
 62
   204
  5
C7
 10
889332.655
 20
7282120.595
 30
0.0
  0
VERTEX
  8
20
  6
HIDDEN
 62
   204
  5
C8
 10
889345.845
 20
7282121.375
 30
0.0
  0
VERTEX
  8
20
  6
HIDDEN
 62
   204
  5
C9
 10
889358.319
 20
7282122.01
 30
0.0
  0
SEQEND
  8
20
  6
HIDDEN
 62
   204
  5
CA
  0
LINE
  8
20
  6
HIDDEN
 62
   204
  5
CB
 10
889304.239
 20
7282118.625
 30
0.0
 11
889309.871
 21
7282119.032
 31
0.0
  0
POLYLINE
  8
20
  6
HIDDEN
 62
   204
  5
CC
 66
     1
 10
0.0
 20
0.0
 30
0.0
  0
VERTEX
  8
20
  6
HIDDEN
 62
   204
  5
CD
 10
889478.915
 20
7282000.707
 30
0.0
  0
VERTEX
  8
20
  6
HIDDEN
 62
   204
  5
CE
 10
889478.378
 20
7282000.387
 30
0.0
  0
VERTEX
  8
20
  6
HIDDEN
 62
   204
  5
CF
 10
889475.62
 20
7281999.056
 30
0.0
  0
VERTEX
  8
20
  6
HIDDEN
 62
   204
  5
D0
 10
889472.844
 20
7281998.048
 30
0.0
  0
VERTEX
  8
20
  6
HIDDEN
 62
   204
  5
D1
 10
889470.03
 20
7281997.37
 30
0.0
  0
VERTEX
  8
20
  6
HIDDEN
 62
   204
  5
D2
 10
889467.157
 20
7281997.032
 30
0.0
  0
VERTEX
  8
20
  6
HIDDEN
 62
   204
  5
D3
 10
889464.206
 20
7281997.042
 30
0.0
  0
VERTEX
  8
20
  6
HIDDEN
 62
   204
  5
D4
 10
889461.164
 20
7281997.403
 30
0.0
  0
VERTEX
  8
20
  6
HIDDEN
 62
   204
  5
D5
 10
889458.052
 20
7281998.099
 30
0.0
  0
VERTEX
  8
20
  6
HIDDEN
 62
   204
  5
D6
 10
889454.902
 20
7281999.108
 30
0.0
  0
VERTEX
  8
20
  6
HIDDEN
 62
   204
  5
D7
 10
889451.741
 20
7282000.409
 30
0.0
  0
VERTEX
  8
20
  6
HIDDEN
 62
   204
  5
D8
 10
889450.925
 20
7282000.817
 30
0.0
  0
SEQEND
  8
20
  6
HIDDEN
 62
   204
  5
D9
  0
POLYLINE
  8
20
  6
HIDDEN
 62
   204
  5
DA
 66
     1
 10
0.0
 20
0.0
 30
0.0
  0
VERTEX
  8
20
  6
HIDDEN
 62
   204
  5
DB
 10
889440.1
 20
7282007.704
 30
0.0
  0
VERTEX
  8
20
  6
HIDDEN
 62
   204
  5
DC
 10
889439.594
 20
7282008.097
 30
0.0
  0
VERTEX
  8
20
  6
HIDDEN
 62
   204
  5
DD
 10
889436.821
 20
7282010.531
 30
0.0
  0
VERTEX
  8
20
  6
HIDDEN
 62
   204
  5
DE
 10
889434.156
 20
7282013.132
 30
0.0
  0
VERTEX
  8
20
  6
HIDDEN
 62
   204
  5
DF
 10
889431.573
 20
7282015.885
 30
0.0
  0
VERTEX
  8
20
  6
HIDDEN
 62
   204
  5
E0
 10
889429.041
 20
7282018.771
 30
0.0
  0
VERTEX
  8
20
  6
HIDDEN
 62
   204
  5
E1
 10
889426.533
 20
7282021.776
 30
0.0
  0
VERTEX
  8
20
  6
HIDDEN
 62
   204
  5
E2
 10
889424.018
 20
7282024.882
 30
0.0
  0
VERTEX
  8
20
  6
HIDDEN
 62
   204
  5
E3
 10
889422.153
 20
7282027.218
 30
0.0
  0
SEQEND
  8
20
  6
HIDDEN
 62
   204
  5
E4
  0
POLYLINE
  8
20
  6
HIDDEN
 62
   204
  5
E5
 66
     1
 10
0.0
 20
0.0
 30
0.0
  0
VERTEX
  8
20
  6
HIDDEN
 62
   204
  5
E6
 10
889413.204
 20
7282038.182
 30
0.0
  0
VERTEX
  8
20
  6
HIDDEN
 62
   204
  5
E7
 10
889410.478
 20
7282041.358
 30
0.0
  0
VERTEX
  8
20
  6
HIDDEN
 62
   204
  5
E8
 10
889407.495
 20
7282044.722
 30
0.0
  0
VERTEX
  8
20
  6
HIDDEN
 62
   204
  5
E9
 10
889404.414
 20
7282048.068
 30
0.0
  0
VERTEX
  8
20
  6
HIDDEN
 62
   204
  5
EA
 10
889401.236
 20
7282051.375
 30
0.0
  0
VERTEX
  8
20
  6
HIDDEN
 62
   204
  5
EB
 10
889397.956
 20
7282054.628
 30
0.0
  0
VERTEX
  8
20
  6
HIDDEN
 62
   204
  5
EC
 10
889396.171
 20
7282056.308
 30
0.0
  0
SEQEND
  8
20
  6
HIDDEN
 62
   204
  5
ED
  0
POLYLINE
  8
20
  6
HIDDEN
 62
   204
  5
EE
 66
     1
 10
0.0
 20
0.0
 30
0.0
  0
VERTEX
  8
20
  6
HIDDEN
 62
   204
  5
EF
 10
889385.734
 20
7282065.276
 30
0.0
  0
VERTEX
  8
20
  6
HIDDEN
 62
   204
  5
F0
 10
889383.704
 20
7282066.86
 30
0.0
  0
VERTEX
  8
20
  6
HIDDEN
 62
   204
  5
F1
 10
889379.753
 20
7282069.739
 30
0.0
  0
VERTEX
  8
20
  6
HIDDEN
 62
   204
  5
F2
 10
889375.594
 20
7282072.567
 30
0.0
  0
VERTEX
  8
20
  6
HIDDEN
 62
   204
  5
F3
 10
889371.202
 20
7282075.351
 30
0.0
  0
VERTEX
  8
20
  6
HIDDEN
 62
   204
  5
F4
 10
889366.549
 20
7282078.101
 30
0.0
  0
VERTEX
  8
20
  6
HIDDEN
 62
   204
  5
F5
 10
889363.862
 20
7282079.586
 30
0.0
  0
SEQEND
  8
20
  6
HIDDEN
 62
   204
  5
F6
  0
POLYLINE
  8
20
  6
HIDDEN
 62
   204
  5
F7
 66
     1
 10
0.0
 20
0.0
 30
0.0
  0
VERTEX
  8
20
  6
HIDDEN
 62
   204
  5
F8
 10
889352.994
 20
7282085.161
 30
0.0
  0
VERTEX
  8
20
  6
HIDDEN
 62
   204
  5
F9
 10
889350.686
 20
7282086.275
 30
0.0
  0
VERTEX
  8
20
  6
HIDDEN
 62
   204
  5
FA
 10
889344.531
 20
7282089.049
 30
0.0
  0
VERTEX
  8
20
  6
HIDDEN
 62
   204
  5
FB
 10
889337.797
 20
7282091.896
 30
0.0
  0
VERTEX
  8
20
  6
HIDDEN
 62
   204
  5
FC
 10
889330.391
 20
7282094.846
 30
0.0
  0
VERTEX
  8
20
  6
HIDDEN
 62
   204
  5
FD
 10
889330.056
 20
7282094.972
 30
0.0
  0
SEQEND
  8
20
  6
HIDDEN
 62
   204
  5
FE
  0
POLYLINE
  8
20
  6
HIDDEN
 62
   204
  5
FF
 66
     1
 10
0.0
 20
0.0
 30
0.0
  0
VERTEX
  8
20
  6
HIDDEN
 62
   204
  5
100
 10
889314.788
 20
7282100.604
 30
0.0
  0
VERTEX
  8
20
  6
HIDDEN
 62
   204
  5
101
 10
889313.214
 20
7282101.17
 30
0.0
  0
VERTEX
  8
20
  6
HIDDEN
 62
   204
  5
102
 10
889303.262
 20
7282104.603
 30
0.0
  0
SEQEND
  8
20
  6
HIDDEN
 62
   204
  5
103
  0
LINE
  8
10
  6
CONTINUOUS
 62
     2
  5
104
 10
889460.976
 20
7282030.184
 30
0.0
 11
889460.856
 21
7282062.131
 31
0.0
  0
ARC
  8
20
  6
HIDDEN
 62
   204
  5
105
 10
889328.931946
 20
7282108.273964
 30
0.0
 40
2.008
 50
93.790411
 51
249.320906
210
0.0
220
0.0
230
1.0
  0
LINE
  8
20
  6
HIDDEN
 62
   204
  5
106
 10
889482.091
 20
7282102.765
 30
0.0
 11
889486.771
 21
7282100.942
 31
0.0
  0
LINE
  8
20
  6
HIDDEN
 62
   204
  5
107
 10
889477.047
 20
7282104.464
 30
0.0
 11
889482.091
 21
7282102.765
 31
0.0
  0
LINE
  8
20
  6
HIDDEN
 62
   204
  5
108
 10
889471.619
 20
7282106.028
 30
0.0
 11
889477.047
 21
7282104.464
 31
0.0
  0
LINE
  8
20
  6
HIDDEN
 62
   204
  5
109
 10
889465.789
 20
7282107.445
 30
0.0
 11
889471.619
 21
7282106.028
 31
0.0
  0
LINE
  8
20
  6
HIDDEN
 62
   204
  5
10A
 10
889452.834
 20
7282109.807
 30
0.0
 11
889459.534
 21
7282108.705
 31
0.0
  0
LINE
  8
20
  6
HIDDEN
 62
   204
  5
10B
 10
889445.679
 20
7282110.749
 30
0.0
 11
889452.834
 21
7282109.807
 31
0.0
  0
LINE
  8
20
  6
HIDDEN
 62
   204
  5
10C
 10
889412.288
 20
7282112.894
 30
0.0
 11
889421.371
 21
7282112.601
 31
0.0
  0
LINE
  8
20
  6
HIDDEN
 62
   204
  5
10D
 10
889392.584
 20
7282112.997
 30
0.0
 11
889402.696
 21
7282113.026
 31
0.0
  0
LINE
  8
20
  6
HIDDEN
 62
   204
  5
10E
 10
889381.924
 20
7282112.811
 30
0.0
 11
889392.584
 21
7282112.997
 31
0.0
  0
LINE
  8
20
  6
HIDDEN
 62
   204
  5
10F
 10
889370.691
 20
7282112.473
 30
0.0
 11
889375.112
 21
7282112.607
 31
0.0
  0
LINE
  8
20
  6
HIDDEN
 62
   204
  5
110
 10
889358.857
 20
7282111.985
 30
0.0
 11
889370.691
 21
7282112.473
 31
0.0
  0
LINE
  8
20
  6
HIDDEN
 62
   204
  5
111
 10
889346.397
 20
7282111.35
 30
0.0
 11
889358.857
 21
7282111.985
 31
0.0
  0
LINE
  8
20
  6
HIDDEN
 62
   204
  5
112
 10
889328.741
 20
7282110.306
 30
0.0
 11
889346.397
 21
7282111.35
 31
0.0
  0
LINE
  8
20
  6
HIDDEN
 62
   204
  5
113
 10
889328.799
 20
7282110.278
 30
0.0
 11
889333.283
 21
7282110.574
 31
0.0
  0
LINE
  8
20
  6
HIDDEN
 62
   204
  5
114
 10
889334.022
 20
7282104.206
 30
0.0
 11
889328.223
 21
7282106.395
 31
0.0
  0
LINE
  8
20
  6
HIDDEN
 62
   204
  5
115
 10
889341.61
 20
7282101.184
 30
0.0
 11
889334.022
 21
7282104.206
 31
0.0
  0
LINE
  8
20
  6
HIDDEN
 62
   204
  5
116
 10
889348.55
 20
7282098.25
 30
0.0
 11
889341.61
 21
7282101.184
 31
0.0
  0
LINE
  8
20
  6
HIDDEN
 62
   204
  5
117
 10
889354.929
 20
7282095.375
 30
0.0
 11
889348.55
 21
7282098.25
 31
0.0
  0
LINE
  8
20
  6
HIDDEN
 62
   204
  5
118
 10
889360.833
 20
7282092.529
 30
0.0
 11
889354.929
 21
7282095.375
 31
0.0
  0
LINE
  8
20
  6
HIDDEN
 62
   204
  5
119
 10
889366.341
 20
7282089.686
 30
0.0
 11
889360.833
 21
7282092.529
 31
0.0
  0
LINE
  8
20
  6
HIDDEN
 62
   204
  5
11A
 10
889371.532
 20
7282086.82
 30
0.0
 11
889366.341
 21
7282089.686
 31
0.0
  0
LINE
  8
20
  6
HIDDEN
 62
   204
  5
11B
 10
889376.446
 20
7282083.914
 30
0.0
 11
889371.532
 21
7282086.82
 31
0.0
  0
LINE
  8
20
  6
HIDDEN
 62
   204
  5
11C
 10
889381.105
 20
7282080.961
 30
0.0
 11
889376.446
 21
7282083.914
 31
0.0
  0
LINE
  8
20
  6
HIDDEN
 62
   204
  5
11D
 10
889385.534
 20
7282077.949
 30
0.0
 11
889381.105
 21
7282080.961
 31
0.0
  0
LINE
  8
20
  6
HIDDEN
 62
   204
  5
11E
 10
889389.751
 20
7282074.875
 30
0.0
 11
889385.534
 21
7282077.949
 31
0.0
  0
LINE
  8
20
  6
HIDDEN
 62
   204
  5
11F
 10
889393.778
 20
7282071.732
 30
0.0
 11
889389.751
 21
7282074.875
 31
0.0
  0
LINE
  8
20
  6
HIDDEN
 62
   204
  5
120
 10
889397.638
 20
7282068.516
 30
0.0
 11
889393.778
 21
7282071.732
 31
0.0
  0
LINE
  8
20
  6
HIDDEN
 62
   204
  5
121
 10
889401.35
 20
7282065.22
 30
0.0
 11
889397.638
 21
7282068.516
 31
0.0
  0
LINE
  8
20
  6
HIDDEN
 62
   204
  5
122
 10
889404.934
 20
7282061.849
 30
0.0
 11
889401.35
 21
7282065.22
 31
0.0
  0
LINE
  8
20
  6
HIDDEN
 62
   204
  5
123
 10
889408.391
 20
7282058.419
 30
0.0
 11
889404.934
 21
7282061.849
 31
0.0
  0
LINE
  8
20
  6
HIDDEN
 62
   204
  5
124
 10
889411.727
 20
7282054.947
 30
0.0
 11
889408.391
 21
7282058.419
 31
0.0
  0
LINE
  8
20
  6
HIDDEN
 62
   204
  5
125
 10
889414.944
 20
7282051.455
 30
0.0
 11
889411.727
 21
7282054.947
 31
0.0
  0
LINE
  8
20
  6
HIDDEN
 62
   204
  5
126
 10
889418.044
 20
7282047.96
 30
0.0
 11
889414.944
 21
7282051.455
 31
0.0
  0
LINE
  8
20
  6
HIDDEN
 62
   204
  5
127
 10
889421.03
 20
7282044.479
 30
0.0
 11
889418.044
 21
7282047.96
 31
0.0
  0
LINE
  8
20
  6
HIDDEN
 62
   204
  5
128
 10
889423.905
 20
7282041.033
 30
0.0
 11
889421.03
 21
7282044.479
 31
0.0
  0
LINE
  8
20
  6
HIDDEN
 62
   204
  5
129
 10
889426.668
 20
7282037.643
 30
0.0
 11
889423.905
 21
7282041.033
 31
0.0
  0
LINE
  8
20
  6
HIDDEN
 62
   204
  5
12A
 10
889429.306
 20
7282034.35
 30
0.0
 11
889426.668
 21
7282037.643
 31
0.0
  0
LINE
  8
20
  6
HIDDEN
 62
   204
  5
12B
 10
889431.843
 20
7282031.172
 30
0.0
 11
889429.306
 21
7282034.35
 31
0.0
  0
LINE
  8
20
  6
HIDDEN
 62
   204
  5
12C
 10
889434.288
 20
7282028.151
 30
0.0
 11
889431.843
 21
7282031.172
 31
0.0
  0
LINE
  8
20
  6
HIDDEN
 62
   204
  5
12D
 10
889436.67
 20
7282025.3
 30
0.0
 11
889434.288
 21
7282028.151
 31
0.0
  0
LINE
  8
20
  6
HIDDEN
 62
   204
  5
12E
 10
889439.009
 20
7282022.633
 30
0.0
 11
889436.67
 21
7282025.3
 31
0.0
  0
LINE
  8
20
  6
HIDDEN
 62
   204
  5
12F
 10
889441.327
 20
7282020.163
 30
0.0
 11
889439.009
 21
7282022.633
 31
0.0
  0
LINE
  8
20
  6
HIDDEN
 62
   204
  5
130
 10
889443.644
 20
7282017.901
 30
0.0
 11
889441.327
 21
7282020.163
 31
0.0
  0
LINE
  8
20
  6
HIDDEN
 62
   204
  5
131
 10
889445.988
 20
7282015.843
 30
0.0
 11
889443.644
 21
7282017.901
 31
0.0
  0
LINE
  8
20
  6
HIDDEN
 62
   204
  5
132
 10
889448.399
 20
7282013.973
 30
0.0
 11
889445.988
 21
7282015.843
 31
0.0
  0
LINE
  8
20
  6
HIDDEN
 62
   204
  5
133
 10
889450.882
 20
7282012.287
 30
0.0
 11
889448.399
 21
7282013.973
 31
0.0
  0
LINE
  8
20
  6
HIDDEN
 62
   204
  5
134
 10
889453.398
 20
7282010.807
 30
0.0
 11
889450.882
 21
7282012.287
 31
0.0
  0
LINE
  8
20
  6
HIDDEN
 62
   204
  5
135
 10
889455.903
 20
7282009.553
 30
0.0
 11
889453.398
 21
7282010.807
 31
0.0
  0
LINE
  8
20
  6
HIDDEN
 62
   204
  5
136
 10
889458.349
 20
7282008.547
 30
0.0
 11
889455.903
 21
7282009.553
 31
0.0
  0
LINE
  8
20
  6
HIDDEN
 62
   204
  5
137
 10
889460.685
 20
7282007.797
 30
0.0
 11
889458.349
 21
7282008.547
 31
0.0
  0
LINE
  8
20
  6
HIDDEN
 62
   204
  5
138
 10
889462.856
 20
7282007.313
 30
0.0
 11
889460.685
 21
7282007.797
 31
0.0
  0
LINE
  8
20
  6
HIDDEN
 62
   204
  5
139
 10
889464.816
 20
7282007.079
 30
0.0
 11
889462.856
 21
7282007.313
 31
0.0
  0
LINE
  8
20
  6
HIDDEN
 62
   204
  5
13A
 10
889466.584
 20
7282007.073
 30
0.0
 11
889464.816
 21
7282007.079
 31
0.0
  0
LINE
  8
20
  6
HIDDEN
 62
   204
  5
13B
 10
889468.261
 20
7282007.271
 30
0.0
 11
889466.584
 21
7282007.073
 31
0.0
  0
LINE
  8
20
  6
HIDDEN
 62
   204
  5
13C
 10
889469.946
 20
7282007.677
 30
0.0
 11
889468.261
 21
7282007.271
 31
0.0
  0
LINE
  8
20
  6
HIDDEN
 62
   204
  5
13D
 10
889471.714
 20
7282008.319
 30
0.0
 11
889469.946
 21
7282007.677
 31
0.0
  0
LINE
  8
20
  6
HIDDEN
 62
   204
  5
13E
 10
889473.616
 20
7282009.237
 30
0.0
 11
889471.714
 21
7282008.319
 31
0.0
  0
LINE
  8
20
  6
HIDDEN
 62
   204
  5
13F
 10
889475.677
 20
7282010.466
 30
0.0
 11
889473.616
 21
7282009.237
 31
0.0
  0
LINE
  8
20
  6
HIDDEN
 62
   204
  5
140
 10
889477.905
 20
7282012.027
 30
0.0
 11
889475.677
 21
7282010.466
 31
0.0
  0
LINE
  8
20
  6
HIDDEN
 62
   204
  5
141
 10
889480.296
 20
7282013.93
 30
0.0
 11
889477.905
 21
7282012.027
 31
0.0
  0
LINE
  8
20
  6
HIDDEN
 62
   204
  5
142
 10
889482.848
 20
7282016.174
 30
0.0
 11
889480.296
 21
7282013.93
 31
0.0
  0
LINE
  8
20
  6
HIDDEN
 62
   204
  5
143
 10
889485.604
 20
7282018.806
 30
0.0
 11
889482.848
 21
7282016.174
 31
0.0
  0
LINE
  8
20
  6
HIDDEN
 62
   204
  5
144
 10
889488.622
 20
7282021.882
 30
0.0
 11
889485.604
 21
7282018.806
 31
0.0
  0
POLYLINE
  8
20
  6
HIDDEN
 62
   204
  5
145
 66
     1
 10
0.0
 20
0.0
 30
0.0
  0
VERTEX
  8
20
  6
HIDDEN
 62
   204
  5
146
 10
889525.602
 20
7282082.108
 30
0.0
  0
VERTEX
  8
20
  6
HIDDEN
 62
   204
  5
147
 10
889526.387
 20
7282080.581
 30
0.0
  0
VERTEX
  8
20
  6
HIDDEN
 62
   204
  5
148
 10
889527.676
 20
7282077.272
 30
0.0
  0
VERTEX
  8
20
  6
HIDDEN
 62
   204
  5
149
 10
889528.604
 20
7282073.883
 30
0.0
  0
VERTEX
  8
20
  6
HIDDEN
 62
   204
  5
14A
 10
889529.218
 20
7282070.523
 30
0.0
  0
VERTEX
  8
20
  6
HIDDEN
 62
   204
  5
14B
 10
889529.575
 20
7282067.323
 30
0.0
  0
VERTEX
  8
20
  6
HIDDEN
 62
   204
  5
14C
 10
889529.736
 20
7282064.412
 30
0.0
  0
VERTEX
  8
20
  6
HIDDEN
 62
   204
  5
14D
 10
889529.758
 20
7282061.922
 30
0.0
  0
VERTEX
  8
20
  6
HIDDEN
 62
   204
  5
14E
 10
889529.702
 20
7282059.982
 30
0.0
  0
VERTEX
  8
20
  6
HIDDEN
 62
   204
  5
14F
 10
889529.625
 20
7282058.723
 30
0.0
  0
VERTEX
  8
20
  6
HIDDEN
 62
   204
  5
150
 10
889529.587
 20
7282058.274
 30
0.0
  0
SEQEND
  8
20
  6
HIDDEN
 62
   204
  5
151
  0
POLYLINE
  8
20
  6
HIDDEN
 62
   204
  5
152
 66
     1
 10
0.0
 20
0.0
 30
0.0
  0
VERTEX
  8
20
  6
HIDDEN
 62
   204
  5
153
 10
889493.932
 20
7282108.741
 30
0.0
  0
VERTEX
  8
20
  6
HIDDEN
 62
   204
  5
154
 10
889495.425
 20
7282108.074
 30
0.0
  0
VERTEX
  8
20
  6
HIDDEN
 62
   204
  5
155
 10
889499.887
 20
7282105.807
 30
0.0
  0
VERTEX
  8
20
  6
HIDDEN
 62
   204
  5
156
 10
889504.038
 20
7282103.42
 30
0.0
  0
VERTEX
  8
20
  6
HIDDEN
 62
   204
  5
157
 10
889507.895
 20
7282100.92
 30
0.0
  0
VERTEX
  8
20
  6
HIDDEN
 62
   204
  5
158
 10
889511.469
 20
7282098.319
 30
0.0
  0
VERTEX
  8
20
  6
HIDDEN
 62
   204
  5
159
 10
889514.751
 20
7282095.615
 30
0.0
  0
VERTEX
  8
20
  6
HIDDEN
 62
   204
  5
15A
 10
889517.548
 20
7282092.984
 30
0.0
  0
SEQEND
  8
20
  6
HIDDEN
 62
   204
  5
15B
  0
POLYLINE
  8
20
  6
HIDDEN
 62
   204
  5
15C
 66
     1
 10
0.0
 20
0.0
 30
0.0
  0
VERTEX
  8
20
  6
HIDDEN
 62
   204
  5
15D
 10
889517.297
 20
7282039.127
 30
0.0
  0
VERTEX
  8
20
  6
HIDDEN
 62
   204
  5
15E
 10
889512.077
 20
7282033.072
 30
0.0
  0
VERTEX
  8
20
  6
HIDDEN
 62
   204
  5
15F
 10
889509.503
 20
7282030.11
 30
0.0
  0
SEQEND
  8
20
  6
HIDDEN
 62
   204
  5
160
  0
LINE
  8
10
  6
CONTINUOUS
 62
     2
  5
161
 10
889492.804
 20
7282062.252
 30
0.0
 11
889492.923
 21
7282030.304
 31
0.0
  0
LINE
  8
20
  6
HIDDEN
 62
   204
  5
162
 10
889519.612
 20
7282059.461
 30
0.0
 11
889519.584
 21
7282059.137
 31
0.0
  0
LINE
  8
20
  6
HIDDEN
 62
   204
  5
163
 10
889519.671
 20
7282060.435
 30
0.0
 11
889519.612
 21
7282059.461
 31
0.0
  0
LINE
  8
20
  6
HIDDEN
 62
   204
  5
164
 10
889519.718
 20
7282062.023
 30
0.0
 11
889519.671
 21
7282060.435
 31
0.0
  0
LINE
  8
20
  6
HIDDEN
 62
   204
  5
165
 10
889519.699
 20
7282064.09
 30
0.0
 11
889519.718
 21
7282062.023
 31
0.0
  0
LINE
  8
20
  6
HIDDEN
 62
   204
  5
166
 10
889519.566
 20
7282066.488
 30
0.0
 11
889519.699
 21
7282064.09
 31
0.0
  0
LINE
  8
20
  6
HIDDEN
 62
   204
  5
167
 10
889519.279
 20
7282069.062
 30
0.0
 11
889519.566
 21
7282066.488
 31
0.0
  0
LINE
  8
20
  6
HIDDEN
 62
   204
  5
168
 10
889518.805
 20
7282071.652
 30
0.0
 11
889519.279
 21
7282069.062
 31
0.0
  0
LINE
  8
20
  6
HIDDEN
 62
   204
  5
169
 10
889518.13
 20
7282074.115
 30
0.0
 11
889518.805
 21
7282071.652
 31
0.0
  0
LINE
  8
20
  6
HIDDEN
 62
   204
  5
16A
 10
889517.221
 20
7282076.452
 30
0.0
 11
889518.13
 21
7282074.115
 31
0.0
  0
LINE
  8
20
  6
HIDDEN
 62
   204
  5
16B
 10
889516.031
 20
7282078.765
 30
0.0
 11
889517.221
 21
7282076.452
 31
0.0
  0
LINE
  8
20
  6
HIDDEN
 62
   204
  5
16C
 10
889514.536
 20
7282081.088
 30
0.0
 11
889516.031
 21
7282078.765
 31
0.0
  0
LINE
  8
20
  6
HIDDEN
 62
   204
  5
16D
 10
889512.723
 20
7282083.418
 30
0.0
 11
889514.536
 21
7282081.088
 31
0.0
  0
LINE
  8
20
  6
HIDDEN
 62
   204
  5
16E
 10
889510.582
 20
7282085.752
 30
0.0
 11
889512.723
 21
7282083.418
 31
0.0
  0
LINE
  8
20
  6
HIDDEN
 62
   204
  5
16F
 10
889508.112
 20
7282088.076
 30
0.0
 11
889510.582
 21
7282085.752
 31
0.0
  0
LINE
  8
20
  6
HIDDEN
 62
   204
  5
170
 10
889505.318
 20
7282090.377
 30
0.0
 11
889508.112
 21
7282088.076
 31
0.0
  0
LINE
  8
20
  6
HIDDEN
 62
   204
  5
171
 10
889502.207
 20
7282092.642
 30
0.0
 11
889505.318
 21
7282090.377
 31
0.0
  0
LINE
  8
20
  6
HIDDEN
 62
   204
  5
172
 10
889498.802
 20
7282094.849
 30
0.0
 11
889502.207
 21
7282092.642
 31
0.0
  0
LINE
  8
20
  6
HIDDEN
 62
   204
  5
173
 10
889495.106
 20
7282096.975
 30
0.0
 11
889498.802
 21
7282094.849
 31
0.0
  0
LINE
  8
20
  6
HIDDEN
 62
   204
  5
174
 10
889491.102
 20
7282099.009
 30
0.0
 11
889495.106
 21
7282096.975
 31
0.0
  0
LINE
  8
20
  6
HIDDEN
 62
   204
  5
175
 10
889495.681
 20
7282029.578
 30
0.0
 11
889491.963
 21
7282025.457
 31
0.0
  0
LINE
  8
20
  6
HIDDEN
 62
   204
  5
176
 10
889501.435
 20
7282036.105
 30
0.0
 11
889495.681
 21
7282029.578
 31
0.0
  0
LINE
  8
20
  6
HIDDEN
 62
   204
  5
177
 10
889509.693
 20
7282045.683
 30
0.0
 11
889501.435
 21
7282036.105
 31
0.0
  0
LINE
  8
20
  6
HIDDEN
 62
   204
  5
178
 10
889509.693
 20
7282045.683
 30
0.0
 11
889519.718
 21
7282062.023
 31
0.0
  0
LINE
  8
20
  6
HIDDEN
 62
   204
  5
179
 10
889529.575
 20
7282067.323
 30
0.0
 11
889529.132
 21
7282053.807
 31
0.0
  0
LINE
  8
6
  6
CONTINUOUS
 62
   252
  5
17A
 10
887256.953
 20
7284454.84
 30
0.0
 11
887288.202
 21
7284448.532
 31
0.0
  0
LINE
  8
6
  6
CONTINUOUS
 62
   252
  5
17B
 10
887253.71
 20
7284438.773
 30
0.0
 11
887284.959
 21
7284432.465
 31
0.0
  0
LINE
  8
18
  6
CONTINUOUS
 62
    30
  5
17C
 10
887275.634
 20
7284375.503
 30
0.0
 11
887306.883
 21
7284369.194
 31
0.0
  0
LINE
  8
18
  6
CONTINUOUS
 62
    30
  5
17D
 10
887278.878
 20
7284391.569
 30
0.0
 11
887275.634
 21
7284375.503
 31
0.0
  0
LINE
  8
20
  6
HIDDEN
 62
   204
  5
17E
 10
887027.623
 20
7284731.287
 30
0.0
 11
887394.654
 21
7284679.284
 31
0.0
  0
LINE
  8
20
  6
HIDDEN
 62
   204
  5
17F
 10
887022.944
 20
7284747.159
 30
0.0
 11
887396.768
 21
7284694.194
 31
0.0
  0
LINE
  8
7
  6
CONTINUOUS
 62
     3
  5
180
 10
887036.989
 20
7285760.834
 30
0.0
 11
887001.382
 21
7284772.915
 31
0.0
  0
LINE
  8
7
  6
CONTINUOUS
 62
     3
  5
181
 10
886999.017
 20
7284707.339
 30
0.0
 11
886932.019
 21
7282848.514
 31
0.0
  0
ARC
  8
20
  6
HIDDEN
 62
   204
  5
182
 10
887031.579555
 20
7282831.814924
 30
0.0
 40
15.06
 50
265.604325
 51
357.548889
210
0.0
220
0.0
230
1.0
  0
LINE
  8
20
  6
HIDDEN
 62
   204
  5
183
 10
886956.493
 20
7282802.343
 30
0.0
 11
887103.452
 21
7282791.047
 31
0.0
  0
ARC
  8
20
  6
HIDDEN
 62
   204
  5
184
 10
886954.569268
 20
7282777.316981
 30
0.0
 40
25.1
 50
85.604325
 51
177.935753
210
0.0
220
0.0
230
1.0
  0
ARC
  8
20
  6
HIDDEN
 62
   204
  5
185
 10
886957.102861
 20
7282847.609559
 30
0.0
 40
25.1
 50
177.93575
 51
265.604322
210
0.0
220
0.0
230
1.0
  0
LINE
  8
20
  6
HIDDEN
 62
   204
  5
186
 10
886955.179
 20
7282822.584
 30
0.0
 11
887030.425
 21
7282816.8
 31
0.0
  0
LINE
  8
10
  6
CONTINUOUS
 62
     2
  5
187
 10
887082.501
 20
7282850.886
 30
0.0
 11
887083.756
 21
7282893.035
 31
0.0
  0
LINE
  8
10
  6
CONTINUOUS
 62
     2
  5
188
 10
887083.756
 20
7282893.035
 30
0.0
 11
887109.176
 21
7282892.278
 31
0.0
  0
LINE
  8
10
  6
CONTINUOUS
 62
     2
  5
189
 10
887109.176
 20
7282892.278
 30
0.0
 11
887107.981
 21
7282852.136
 31
0.0
  0
LINE
  8
10
  6
CONTINUOUS
 62
     2
  5
18A
 10
887107.981
 20
7282852.136
 30
0.0
 11
887094.102
 21
7282852.55
 31
0.0
  0
LINE
  8
10
  6
CONTINUOUS
 62
     2
  5
18B
 10
887094.102
 20
7282852.55
 30
0.0
 11
887094.042
 21
7282850.543
 31
0.0
  0
LINE
  8
10
  6
CONTINUOUS
 62
     2
  5
18C
 10
887094.042
 20
7282850.543
 30
0.0
 11
887082.501
 21
7282850.886
 31
0.0
  0
ARC
  8
20
  6
HIDDEN
 62
   204
  5
18D
 10
887081.660734
 20
7282827.965189
 30
0.0
 40
15.06
 50
177.548886
 51
265.604322
210
0.0
220
0.0
230
1.0
  0
LINE
  8
20
  6
HIDDEN
 62
   204
  5
18E
 10
887080.506
 20
7282812.95
 30
0.0
 11
887104.99
 21
7282811.067
 31
0.0
  0
LINE
  8
20
  6
HIDDEN
 62
   204
  5
18F
 10
887068.718
 20
7282877.745
 30
0.0
 11
887048.657
 21
7282878.604
 31
0.0
  0
LINE
  8
20
  6
HIDDEN
 62
   204
  5
190
 10
887103.452
 20
7282791.047
 30
0.0
 11
887104.99
 21
7282811.067
 31
0.0
  0
LINE
  8
20
  6
HIDDEN
 62
   204
  5
191
 10
887046.625
 20
7282831.171
 30
0.0
 11
887048.657
 21
7282878.604
 31
0.0
  0
LINE
  8
20
  6
HIDDEN
 62
   204
  5
192
 10
887066.614
 20
7282828.609
 30
0.0
 11
887068.718
 21
7282877.745
 31
0.0
  0
ARC
  8
20
  6
HIDDEN
 62
   204
  5
193
 10
887026.465099
 20
7284772.011219
 30
0.0
 40
25.1
 50
177.93575
 51
261.935814
210
0.0
220
0.0
230
1.0
  0
LINE
  8
6
  6
CONTINUOUS
 62
   252
  5
194
 10
887140.015
 20
7284393.858
 30
0.0
 11
887171.263
 21
7284387.55
 31
0.0
  0
LINE
  8
6
  6
CONTINUOUS
 62
   252
  5
195
 10
887140.015
 20
7284393.858
 30
0.0
 11
887136.771
 21
7284377.793
 31
0.0
  0
LINE
  8
6
  6
CONTINUOUS
 62
   252
  5
196
 10
887128.945
 20
7284347.432
 30
0.0
 11
887160.193
 21
7284341.123
 31
0.0
  0
LINE
  8
6
  6
CONTINUOUS
 62
   252
  5
197
 10
887125.701
 20
7284331.366
 30
0.0
 11
887156.95
 21
7284325.058
 31
0.0
  0
LINE
  8
6
  6
CONTINUOUS
 62
   252
  5
198
 10
887128.945
 20
7284347.432
 30
0.0
 11
887125.701
 21
7284331.366
 31
0.0
  0
LINE
  8
6
  6
CONTINUOUS
 62
   252
  5
199
 10
887160.193
 20
7284341.123
 30
0.0
 11
887156.95
 21
7284325.058
 31
0.0
  0
LINE
  8
6
  6
CONTINUOUS
 62
   252
  5
19A
 10
887136.771
 20
7284377.793
 30
0.0
 11
887168.02
 21
7284371.484
 31
0.0
  0
LINE
  8
6
  6
CONTINUOUS
 62
   252
  5
19B
 10
887171.263
 20
7284387.55
 30
0.0
 11
887168.02
 21
7284371.484
 31
0.0
  0
LINE
  8
6
  6
CONTINUOUS
 62
   252
  5
19C
 10
887187.74
 20
7284384.6
 30
0.0
 11
887218.989
 21
7284378.292
 31
0.0
  0
LINE
  8
6
  6
CONTINUOUS
 62
   252
  5
19D
 10
887184.497
 20
7284368.534
 30
0.0
 11
887215.745
 21
7284362.226
 31
0.0
  0
LINE
  8
6
  6
CONTINUOUS
 62
   252
  5
19E
 10
887187.74
 20
7284384.6
 30
0.0
 11
887184.497
 21
7284368.534
 31
0.0
  0
LINE
  8
6
  6
CONTINUOUS
 62
   252
  5
19F
 10
887218.989
 20
7284378.292
 30
0.0
 11
887215.745
 21
7284362.226
 31
0.0
  0
LINE
  8
6
  6
CONTINUOUS
 62
   252
  5
1A0
 10
887177.374
 20
7284337.775
 30
0.0
 11
887208.622
 21
7284331.466
 31
0.0
  0
LINE
  8
6
  6
CONTINUOUS
 62
   252
  5
1A1
 10
887174.131
 20
7284321.709
 30
0.0
 11
887205.379
 21
7284315.401
 31
0.0
  0
LINE
  8
6
  6
CONTINUOUS
 62
   252
  5
1A2
 10
887177.374
 20
7284337.775
 30
0.0
 11
887174.131
 21
7284321.709
 31
0.0
  0
LINE
  8
6
  6
CONTINUOUS
 62
   252
  5
1A3
 10
887208.622
 20
7284331.466
 30
0.0
 11
887205.379
 21
7284315.401
 31
0.0
  0
LINE
  8
6
  6
CONTINUOUS
 62
   252
  5
1A4
 10
887268.306
 20
7284319.342
 30
0.0
 11
887265.063
 21
7284303.275
 31
0.0
  0
LINE
  8
6
  6
CONTINUOUS
 62
   252
  5
1A5
 10
887237.058
 20
7284325.65
 30
0.0
 11
887233.814
 21
7284309.583
 31
0.0
  0
LINE
  8
6
  6
CONTINUOUS
 62
   252
  5
1A6
 10
887233.814
 20
7284309.583
 30
0.0
 11
887265.063
 21
7284303.275
 31
0.0
  0
LINE
  8
6
  6
CONTINUOUS
 62
   252
  5
1A7
 10
887237.058
 20
7284325.65
 30
0.0
 11
887268.306
 21
7284319.342
 31
0.0
  0
LINE
  8
18
  6
CONTINUOUS
 62
    30
  5
1A8
 10
887219.857
 20
7284280.505
 30
0.0
 11
887251.106
 21
7284274.196
 31
0.0
  0
LINE
  8
18
  6
CONTINUOUS
 62
    30
  5
1A9
 10
887216.615
 20
7284264.439
 30
0.0
 11
887247.862
 21
7284258.131
 31
0.0
  0
LINE
  8
18
  6
CONTINUOUS
 62
    30
  5
1AA
 10
887219.857
 20
7284280.505
 30
0.0
 11
887216.615
 21
7284264.439
 31
0.0
  0
LINE
  8
18
  6
CONTINUOUS
 62
    30
  5
1AB
 10
887251.106
 20
7284274.196
 30
0.0
 11
887247.862
 21
7284258.131
 31
0.0
  0
ARC
  8
20
  6
HIDDEN
 62
   204
  5
1AC
 10
887024.101476
 20
7284706.434339
 30
0.0
 40
25.1
 50
81.935814
 51
177.93575
210
0.0
220
0.0
230
1.0
  0
LINE
  8
6
  6
CONTINUOUS
 62
   252
  5
1AD
 10
887256.953
 20
7284454.84
 30
0.0
 11
887253.71
 21
7284438.773
 31
0.0
  0
LINE
  8
6
  6
CONTINUOUS
 62
   252
  5
1AE
 10
887197.209
 20
7284429.816
 30
0.0
 11
887228.458
 21
7284423.508
 31
0.0
  0
LINE
  8
6
  6
CONTINUOUS
 62
   252
  5
1AF
 10
887193.965
 20
7284413.75
 30
0.0
 11
887225.214
 21
7284407.441
 31
0.0
  0
LINE
  8
6
  6
CONTINUOUS
 62
   252
  5
1B0
 10
887197.209
 20
7284429.816
 30
0.0
 11
887193.965
 21
7284413.75
 31
0.0
  0
LINE
  8
6
  6
CONTINUOUS
 62
   252
  5
1B1
 10
887228.458
 20
7284423.508
 30
0.0
 11
887225.214
 21
7284407.441
 31
0.0
  0
LINE
  8
27
  6
CONTINUOUS
 62
     5
  5
1B2
 10
888619.935
 20
7285711.509
 30
0.0
 11
888617.508
 21
7285634.445
 31
0.0
  0
LINE
  8
7
  6
CONTINUOUS
 62
     3
  5
1B3
 10
889136.981
 20
7285695.397
 30
0.0
 11
889108.448
 21
7284960.467
 31
0.0
  0
LINE
  8
27
  6
CONTINUOUS
 62
     5
  5
1B4
 10
888768.011
 20
7285629.049
 30
0.0
 11
888732.669
 21
7284643.277
 31
0.0
  0
LINE
  8
7
  6
CONTINUOUS
 62
     3
  5
1B5
 10
889152.035
 20
7285694.928
 30
0.0
 11
889123.619
 21
7284963.025
 31
0.0
  0
LINE
  8
7
  6
CONTINUOUS
 62
     3
  5
1B6
 10
889123.619
 20
7284963.025
 30
0.0
 11
889464.084
 21
7285020.419
 31
0.0
  0
LINE
  8
7
  6
CONTINUOUS
 62
     3
  5
1B7
 10
888989.461
 20
7284840.385
 30
0.0
 11
889377.275
 21
7284905.584
 31
0.0
  0
LINE
  8
7
  6
CONTINUOUS
 62
     3
  5
1B8
 10
889665.782
 20
7284727.245
 30
0.0
 11
889086.216
 21
7284629.201
 31
0.0
  0
LINE
  8
7
  6
CONTINUOUS
 62
     3
  5
1B9
 10
889040.534
 20
7284029.831
 30
0.0
 11
889019.045
 21
7283600.459
 31
0.0
  0
LINE
  8
7
  6
CONTINUOUS
 62
     3
  5
1BA
 10
889025.494
 20
7284030.584
 30
0.0
 11
889004.004
 21
7283601.212
 31
0.0
  0
LINE
  8
20
  6
HIDDEN
 62
   204
  5
1BB
 10
887515.429
 20
7284836.848
 30
0.0
 11
887508.91
 21
7284765.723
 31
0.0
  0
ARC
  8
20
  6
HIDDEN
 62
   204
  5
1BC
 10
887426.862665
 20
7284813.527547
 30
0.0
 40
138.053394
 50
256.508564
 51
347.856453
210
0.0
220
0.0
230
1.0
  0
LINE
  8
6
  6
CONTINUOUS
 62
   252
  5
1BD
 10
887421.777
 20
7284383.973
 30
0.0
 11
887453.025
 21
7284377.665
 31
0.0
  0
LINE
  8
6
  6
CONTINUOUS
 62
   252
  5
1BE
 10
887418.533
 20
7284367.907
 30
0.0
 11
887449.782
 21
7284361.599
 31
0.0
  0
LINE
  8
6
  6
CONTINUOUS
 62
   252
  5
1BF
 10
887421.777
 20
7284383.973
 30
0.0
 11
887418.533
 21
7284367.907
 31
0.0
  0
LINE
  8
6
  6
CONTINUOUS
 62
   252
  5
1C0
 10
887453.025
 20
7284377.665
 30
0.0
 11
887449.782
 21
7284361.599
 31
0.0
  0
LINE
  8
6
  6
CONTINUOUS
 62
   252
  5
1C1
 10
887409.825
 20
7284331.62
 30
0.0
 11
887441.073
 21
7284325.312
 31
0.0
  0
LINE
  8
6
  6
CONTINUOUS
 62
   252
  5
1C2
 10
887406.582
 20
7284315.554
 30
0.0
 11
887437.829
 21
7284309.246
 31
0.0
  0
LINE
  8
6
  6
CONTINUOUS
 62
   252
  5
1C3
 10
887409.825
 20
7284331.62
 30
0.0
 11
887406.582
 21
7284315.554
 31
0.0
  0
LINE
  8
6
  6
CONTINUOUS
 62
   252
  5
1C4
 10
887441.073
 20
7284325.312
 30
0.0
 11
887437.829
 21
7284309.246
 31
0.0
  0
LINE
  8
6
  6
CONTINUOUS
 62
   252
  5
1C5
 10
887352.545
 20
7284318.553
 30
0.0
 11
887383.794
 21
7284312.245
 31
0.0
  0
LINE
  8
6
  6
CONTINUOUS
 62
   252
  5
1C6
 10
887349.302
 20
7284302.487
 30
0.0
 11
887380.55
 21
7284296.178
 31
0.0
  0
LINE
  8
6
  6
CONTINUOUS
 62
   252
  5
1C7
 10
887352.545
 20
7284318.553
 30
0.0
 11
887349.302
 21
7284302.487
 31
0.0
  0
LINE
  8
6
  6
CONTINUOUS
 62
   252
  5
1C8
 10
887383.794
 20
7284312.245
 30
0.0
 11
887380.55
 21
7284296.178
 31
0.0
  0
LINE
  8
6
  6
CONTINUOUS
 62
   252
  5
1C9
 10
887400.552
 20
7284287.609
 30
0.0
 11
887431.801
 21
7284281.301
 31
0.0
  0
LINE
  8
6
  6
CONTINUOUS
 62
   252
  5
1CA
 10
887397.309
 20
7284271.543
 30
0.0
 11
887428.557
 21
7284265.235
 31
0.0
  0
LINE
  8
6
  6
CONTINUOUS
 62
   252
  5
1CB
 10
887400.552
 20
7284287.609
 30
0.0
 11
887397.309
 21
7284271.543
 31
0.0
  0
LINE
  8
6
  6
CONTINUOUS
 62
   252
  5
1CC
 10
887431.801
 20
7284281.301
 30
0.0
 11
887428.557
 21
7284265.235
 31
0.0
  0
LINE
  8
6
  6
CONTINUOUS
 62
   252
  5
1CD
 10
887391.082
 20
7284242.896
 30
0.0
 11
887422.33
 21
7284236.587
 31
0.0
  0
LINE
  8
6
  6
CONTINUOUS
 62
   252
  5
1CE
 10
887387.838
 20
7284226.83
 30
0.0
 11
887419.087
 21
7284220.521
 31
0.0
  0
LINE
  8
6
  6
CONTINUOUS
 62
   252
  5
1CF
 10
887391.082
 20
7284242.896
 30
0.0
 11
887387.838
 21
7284226.83
 31
0.0
  0
LINE
  8
6
  6
CONTINUOUS
 62
   252
  5
1D0
 10
887422.33
 20
7284236.587
 30
0.0
 11
887419.087
 21
7284220.521
 31
0.0
  0
LINE
  8
6
  6
CONTINUOUS
 62
   252
  5
1D1
 10
887338.731
 20
7284254.144
 30
0.0
 11
887369.979
 21
7284247.836
 31
0.0
  0
LINE
  8
6
  6
CONTINUOUS
 62
   252
  5
1D2
 10
887335.487
 20
7284238.079
 30
0.0
 11
887366.736
 21
7284231.77
 31
0.0
  0
LINE
  8
6
  6
CONTINUOUS
 62
   252
  5
1D3
 10
887338.731
 20
7284254.144
 30
0.0
 11
887335.487
 21
7284238.079
 31
0.0
  0
LINE
  8
6
  6
CONTINUOUS
 62
   252
  5
1D4
 10
887369.979
 20
7284247.836
 30
0.0
 11
887366.736
 21
7284231.77
 31
0.0
  0
LINE
  8
18
  6
CONTINUOUS
 62
    30
  5
1D5
 10
887278.878
 20
7284391.569
 30
0.0
 11
887310.126
 21
7284385.261
 31
0.0
  0
LINE
  8
18
  6
CONTINUOUS
 62
    30
  5
1D6
 10
887310.126
 20
7284385.261
 30
0.0
 11
887306.883
 21
7284369.194
 31
0.0
  0
LINE
  8
18
  6
CONTINUOUS
 62
    30
  5
1D7
 10
887279.848
 20
7284266.976
 30
0.0
 11
887311.096
 21
7284260.667
 31
0.0
  0
LINE
  8
18
  6
CONTINUOUS
 62
    30
  5
1D8
 10
887276.604
 20
7284250.909
 30
0.0
 11
887307.853
 21
7284244.601
 31
0.0
  0
LINE
  8
18
  6
CONTINUOUS
 62
    30
  5
1D9
 10
887279.848
 20
7284266.976
 30
0.0
 11
887276.604
 21
7284250.909
 31
0.0
  0
LINE
  8
18
  6
CONTINUOUS
 62
    30
  5
1DA
 10
887311.096
 20
7284260.667
 30
0.0
 11
887307.853
 21
7284244.601
 31
0.0
  0
LINE
  8
10
  6
CONTINUOUS
 62
     2
  5
1DB
 10
887295.221
 20
7284290.526
 30
0.0
 11
887321.746
 21
7284286.331
 31
0.0
  0
LINE
  8
10
  6
CONTINUOUS
 62
     2
  5
1DC
 10
887304.458
 20
7284343.975
 30
0.0
 11
887330.279
 21
7284340.279
 31
0.0
  0
LINE
  8
10
  6
CONTINUOUS
 62
     2
  5
1DD
 10
887330.279
 20
7284340.279
 30
0.0
 11
887321.746
 21
7284286.331
 31
0.0
  0
LINE
  8
10
  6
CONTINUOUS
 62
     2
  5
1DE
 10
887303.754
 20
7284344.474
 30
0.0
 11
887295.221
 21
7284290.526
 31
0.0
  0
LINE
  8
6
  6
CONTINUOUS
 62
   252
  5
1DF
 10
887288.202
 20
7284448.532
 30
0.0
 11
887284.959
 21
7284432.465
 31
0.0
  0
LINE
  8
18
  6
CONTINUOUS
 62
    30
  5
1E0
 10
887352.701
 20
7284437.327
 30
0.0
 11
887383.95
 21
7284431.019
 31
0.0
  0
LINE
  8
18
  6
CONTINUOUS
 62
    30
  5
1E1
 10
887349.458
 20
7284421.261
 30
0.0
 11
887380.706
 21
7284414.953
 31
0.0
  0
LINE
  8
18
  6
CONTINUOUS
 62
    30
  5
1E2
 10
887352.701
 20
7284437.327
 30
0.0
 11
887349.458
 21
7284421.261
 31
0.0
  0
LINE
  8
18
  6
CONTINUOUS
 62
    30
  5
1E3
 10
887383.95
 20
7284431.019
 30
0.0
 11
887380.706
 21
7284414.953
 31
0.0
  0
LINE
  8
18
  6
CONTINUOUS
 62
    30
  5
1E4
 10
887467.35
 20
7284466.272
 30
0.0
 11
887498.599
 21
7284459.964
 31
0.0
  0
LINE
  8
18
  6
CONTINUOUS
 62
    30
  5
1E5
 10
887464.107
 20
7284450.206
 30
0.0
 11
887495.355
 21
7284443.898
 31
0.0
  0
LINE
  8
18
  6
CONTINUOUS
 62
    30
  5
1E6
 10
887467.35
 20
7284466.272
 30
0.0
 11
887464.107
 21
7284450.206
 31
0.0
  0
LINE
  8
18
  6
CONTINUOUS
 62
    30
  5
1E7
 10
887498.599
 20
7284459.964
 30
0.0
 11
887495.355
 21
7284443.898
 31
0.0
  0
ARC
  8
20
  6
HIDDEN
 62
   204
  5
1E8
 10
887392.253848
 20
7284824.944553
 30
0.0
 40
130.827594
 50
271.977122
 51
333.085269
210
0.0
220
0.0
230
1.0
  0
LINE
  8
7
  6
CONTINUOUS
 62
   230
  5
1E9
 10
887348.298
 20
7285112.199
 30
0.0
 11
887352.896
 21
7285162.36
 31
0.0
  0
LINE
  8
7
  6
CONTINUOUS
 62
   230
  5
1EA
 10
887535.759
 20
7285067.485
 30
0.0
 11
887510.99
 21
7285069.755
 31
0.0
  0
LINE
  8
20
  6
HIDDEN
 62
   204
  5
1EB
 10
887526.513
 20
7284957.772
 30
0.0
 11
887517.725
 21
7284861.89
 31
0.0
  0
LINE
  8
20
  6
HIDDEN
 62
   204
  5
1EC
 10
887462.39
 20
7284851.391
 30
0.0
 11
887462.146
 21
7284849.808
 31
0.0
  0
LINE
  8
10
  6
CONTINUOUS
 62
     2
  5
1ED
 10
887462.39
 20
7284851.391
 30
0.0
 11
887466.138
 21
7284876.959
 31
0.0
  0
LINE
  8
10
  6
CONTINUOUS
 62
     2
  5
1EE
 10
887392.272
 20
7284861.67
 30
0.0
 11
887396.02
 21
7284887.238
 31
0.0
  0
LINE
  8
10
  6
CONTINUOUS
 62
     2
  5
1EF
 10
887396.02
 20
7284887.238
 30
0.0
 11
887466.138
 21
7284876.959
 31
0.0
  0
LINE
  8
10
  6
CONTINUOUS
 62
     2
  5
1F0
 10
887392.272
 20
7284861.67
 30
0.0
 11
887462.39
 21
7284851.391
 31
0.0
  0
LINE
  8
7
  6
CONTINUOUS
 62
   230
  5
1F1
 10
887423.844
 20
7285077.742
 30
0.0
 11
887345.796
 21
7285084.896
 31
0.0
  0
LINE
  8
7
  6
CONTINUOUS
 62
   230
  5
1F2
 10
887499.063
 20
7285070.848
 30
0.0
 11
887439.719
 21
7285076.288
 31
0.0
  0
LINE
  8
7
  6
CONTINUOUS
 62
   230
  5
1F3
 10
887345.796
 20
7285084.896
 30
0.0
 11
887347.178
 21
7285099.981
 31
0.0
  0
ARC
  8
20
  6
HIDDEN
 62
   204
  5
1F4
 10
887512.725717
 20
7284862.348333
 30
0.0
 40
5.02
 50
261.260886
 51
354.763028
210
0.0
220
0.0
230
1.0
  0
ARC
  8
20
  6
HIDDEN
 62
   204
  5
1F5
 10
887510.430423
 20
7284837.306342
 30
0.0
 40
5.02
 50
354.763028
 51
81.260886
210
0.0
220
0.0
230
1.0
  0
LINE
  8
20
  6
HIDDEN
 62
   204
  5
1F6
 10
887511.193
 20
7284842.268
 30
0.0
 11
887462.146
 21
7284849.808
 31
0.0
  0
LINE
  8
20
  6
HIDDEN
 62
   204
  5
1F7
 10
887511.963
 20
7284857.387
 30
0.0
 11
887464.342
 21
7284864.706
 31
0.0
  0
LINE
  8
10
  6
CONTINUOUS
 62
     2
  5
1F8
 10
887527.511
 20
7284977.502
 30
0.0
 11
887590.938
 21
7284971.89
 31
0.0
  0
LINE
  8
10
  6
CONTINUOUS
 62
     2
  5
1F9
 10
887590.938
 20
7284971.89
 30
0.0
 11
887589.198
 21
7284952.226
 31
0.0
  0
LINE
  8
10
  6
CONTINUOUS
 62
     2
  5
1FA
 10
887527.511
 20
7284977.502
 30
0.0
 11
887525.772
 21
7284957.837
 31
0.0
  0
LINE
  8
7
  6
CONTINUOUS
 62
   230
  5
1FB
 10
887625.274
 20
7285059.28
 30
0.0
 11
887535.759
 21
7285067.485
 31
0.0
  0
LINE
  8
7
  6
CONTINUOUS
 62
   230
  5
1FC
 10
887688.323
 20
7285082.025
 30
0.0
 11
887685.73
 21
7285053.739
 31
0.0
  0
LINE
  8
7
  6
CONTINUOUS
 62
   230
  5
1FD
 10
887693.568
 20
7285139.252
 30
0.0
 11
887690.323
 21
7285103.843
 31
0.0
  0
LINE
  8
7
  6
CONTINUOUS
 62
   230
  5
1FE
 10
887685.73
 20
7285053.739
 30
0.0
 11
887647.092
 21
7285057.28
 31
0.0
  0
LINE
  8
7
  6
CONTINUOUS
 62
     3
  5
1FF
 10
887582.358
 20
7284972.649
 30
0.0
 11
887590.419
 21
7285060.595
 31
0.0
  0
LINE
  8
7
  6
CONTINUOUS
 62
     3
  5
200
 10
887527.511
 20
7284977.502
 30
0.0
 11
887535.759
 21
7285067.485
 31
0.0
  0
LINE
  8
10
  6
CONTINUOUS
 62
     2
  5
201
 10
887589.198
 20
7284952.226
 30
0.0
 11
887525.772
 21
7284957.837
 31
0.0
  0
LINE
  8
20
  6
HIDDEN
 62
   204
  5
202
 10
887561.827
 20
7284784.486
 30
0.0
 11
887577.67
 21
7284953.246
 31
0.0
  0
LINE
  8
7
  6
CONTINUOUS
 62
   230
  5
203
 10
887504.05
 20
7285191.376
 30
0.0
 11
887603.665
 21
7285182.245
 31
0.0
  0
LINE
  8
7
  6
CONTINUOUS
 62
   230
  5
204
 10
887406.347
 20
7285200.332
 30
0.0
 11
887483.105
 21
7285193.295
 31
0.0
  0
LINE
  8
7
  6
CONTINUOUS
 62
   230
  5
205
 10
887354.221
 20
7285176.824
 30
0.0
 11
887356.792
 21
7285204.873
 31
0.0
  0
LINE
  8
7
  6
CONTINUOUS
 62
   230
  5
206
 10
887356.792
 20
7285204.873
 30
0.0
 11
887390.639
 21
7285201.772
 31
0.0
  0
LINE
  8
7
  6
CONTINUOUS
 62
   230
  5
207
 10
887624.777
 20
7285180.311
 30
0.0
 11
887696.727
 21
7285173.716
 31
0.0
  0
LINE
  8
7
  6
CONTINUOUS
 62
   230
  5
208
 10
887696.727
 20
7285173.716
 30
0.0
 11
887694.448
 21
7285148.852
 31
0.0
  0
LINE
  8
7
  6
CONTINUOUS
 62
     3
  5
209
 10
888972.631
 20
7284937.573
 30
0.0
 11
889002.05
 21
7284767.688
 31
0.0
  0
LINE
  8
7
  6
CONTINUOUS
 62
     3
  5
20A
 10
888941.889
 20
7284678.837
 30
0.0
 11
888732.669
 21
7284643.277
 31
0.0
  0
ARC
  8
7
  6
CONTINUOUS
 62
     3
  5
20B
 10
888864.679084
 20
7284450.938058
 30
0.0
 40
138.828138
 50
100.410475
 51
178.702042
210
0.0
220
0.0
230
1.0
  0
LINE
  8
7
  6
CONTINUOUS
 62
     3
  5
20C
 10
888734.504
 20
7284694.461
 30
0.0
 11
889002.913
 21
7284740.096
 31
0.0
  0
LINE
  8
7
  6
CONTINUOUS
 62
     3
  5
20D
 10
889086.216
 20
7284629.201
 30
0.0
 11
889040.522
 21
7284029.636
 31
0.0
  0
LINE
  8
7
  6
CONTINUOUS
 62
     3
  5
20E
 10
889071.058
 20
7284628.48
 30
0.0
 11
889025.506
 21
7284030.78
 31
0.0
  0
LINE
  8
7
  6
CONTINUOUS
 62
     3
  5
20F
 10
889070.916
 20
7284626.613
 30
0.0
 11
888839.593
 21
7284587.481
 31
0.0
  0
ARC
  8
7
  6
CONTINUOUS
 62
     3
  5
210
 10
888930.729036
 20
7284751.18664
 30
0.0
 40
73.204613
 50
278.768953
 51
13.027122
210
0.0
220
0.0
230
1.0
  0
LINE
  8
7
  6
CONTINUOUS
 62
     3
  5
211
 10
888972.631
 20
7284937.573
 30
0.0
 11
889108.448
 21
7284960.467
 31
0.0
  0
ARC
  8
7
  6
CONTINUOUS
 62
     3
  5
212
 10
889472.269195
 20
7284849.600396
 30
0.0
 40
81.167852
 50
193.100156
 51
293.641497
210
0.0
220
0.0
230
1.0
  0
LINE
  8
7
  6
CONTINUOUS
 62
     3
  5
213
 10
889504.819
 20
7284775.244
 30
0.0
 11
889668.185
 21
7284804.363
 31
0.0
  0
LINE
  8
7
  6
CONTINUOUS
 62
     3
  5
214
 10
889464.084
 20
7285020.419
 30
0.0
 11
889504.819
 21
7284775.244
 31
0.0
  0
LINE
  8
7
  6
CONTINUOUS
 62
     3
  5
215
 10
889377.275
 20
7284905.584
 30
0.0
 11
889393.214
 21
7284831.204
 31
0.0
  0
LINE
  8
27
  6
CONTINUOUS
 62
     5
  5
216
 10
888771.046
 20
7285706.8
 30
0.0
 11
888768.446
 21
7285625.452
 31
0.0
  0
TEXT
  8
19
  6
CONTINUOUS
 62
     1
  5
219
 10
889091.434
 20
7284732.871
 30
0.0
 40
24.0
  1
ABANDONED
 50
9.601683
  7
ROMANC
210
0.0
220
0.0
230
1.0
  0
TEXT
  8
15
  6
CONTINUOUS
 62
    30
  5
21B
 10
887242.82
 20
7285616.626
 30
0.0
 40
24.0
  1
REESE A.F.B.
 50
28.215208
  7
ROMANC
210
0.0
220
0.0
230
1.0
  0
TEXT
  8
15
  6
CONTINUOUS
 62
    30
  5
21C
 10
889198.315
 20
7282773.491
 30
0.0
 40
24.0
  1
REESE A.F.B.
 50
28.215208
  7
ROMANC
210
0.0
220
0.0
230
1.0
  0
TEXT
  8
15
  6
CONTINUOUS
 62
    30
  5
21D
 10
887049.672
 20
7280625.731
 30
0.0
 40
24.0
  1
REESE A.F.B.
 50
28.215208
  7
ROMANC
210
0.0
220
0.0
230
1.0
  0
POLYLINE
  8
1
  6
HIDDEN
 62
   253
  5
21F
 66
     1
 10
0.0
 20
0.0
 30
0.0
 70
     1
  0
VERTEX
  8
1
  6
HIDDEN
 62
   253
  5
220
 10
889530.96
 20
7280400.558
 30
0.0
  0
VERTEX
  8
1
  6
HIDDEN
 62
   253
  5
221
 10
884253.522
 20
7280565.006
 30
0.0
  0
VERTEX
  8
1
  6
HIDDEN
 62
   253
  5
222
 10
884417.97
 20
7285842.444
 30
0.0
  0
VERTEX
  8
1
  6
HIDDEN
 62
   253
  5
223
 10
889695.408
 20
7285677.996
 30
0.0
  0
SEQEND
  8
1
  6
HIDDEN
 62
   253
  5
224
  0
ENDSEC
  0
EOF
