  0
SECTION
  2
HEADER
  9
$ACADVER
  1
AC1009
  9
$INSBASE
 10
0.0
 20
0.0
 30
0.0
  9
$EXTMIN
 10
884089.074
 20
7275123.121
 30
0.0
  9
$EXTMAX
 10
889530.96
 20
7280565.007
 30
0.0
  9
$LIMMIN
 10
0.0
 20
0.0
  9
$LIMMAX
 10
12.0
 20
9.0
  9
$ORTHOMODE
 70
     0
  9
$REGENMODE
 70
     1
  9
$FILLMODE
 70
     1
  9
$QTEXTMODE
 70
     0
  9
$MIRRTEXT
 70
     1
  9
$DRAGMODE
 70
     2
  9
$LTSCALE
 40
1.0
  9
$OSMODE
 70
     0
  9
$ATTMODE
 70
     1
  9
$TEXTSIZE
 40
0.2
  9
$TRACEWID
 40
0.05
  9
$TEXTSTYLE
  7
STANDARD
  9
$CLAYER
  8
0
  9
$CELTYPE
  6
CONTINUOUS
  9
$CECOLOR
 62
   256
  9
$DIMSCALE
 40
1.0
  9
$DIMASZ
 40
0.18
  9
$DIMEXO
 40
0.0625
  9
$DIMDLI
 40
0.38
  9
$DIMRND
 40
0.0
  9
$DIMDLE
 40
0.0
  9
$DIMEXE
 40
0.18
  9
$DIMTP
 40
0.0
  9
$DIMTM
 40
0.0
  9
$DIMTXT
 40
0.18
  9
$DIMCEN
 40
0.09
  9
$DIMTSZ
 40
0.0
  9
$DIMTOL
 70
     0
  9
$DIMLIM
 70
     0
  9
$DIMTIH
 70
     1
  9
$DIMTOH
 70
     1
  9
$DIMSE1
 70
     0
  9
$DIMSE2
 70
     0
  9
$DIMTAD
 70
     0
  9
$DIMZIN
 70
     0
  9
$DIMBLK
  1

  9
$DIMASO
 70
     1
  9
$DIMSHO
 70
     1
  9
$DIMPOST
  1

  9
$DIMAPOST
  1

  9
$DIMALT
 70
     0
  9
$DIMALTD
 70
     2
  9
$DIMALTF
 40
25.4
  9
$DIMLFAC
 40
1.0
  9
$DIMTOFL
 70
     0
  9
$DIMTVP
 40
0.0
  9
$DIMTIX
 70
     0
  9
$DIMSOXD
 70
     0
  9
$DIMSAH
 70
     0
  9
$DIMBLK1
  1

  9
$DIMBLK2
  1

  9
$DIMSTYLE
  2
STANDARD
  9
$DIMCLRD
 70
     0
  9
$DIMCLRE
 70
     0
  9
$DIMCLRT
 70
     0
  9
$DIMTFAC
 40
1.0
  9
$DIMGAP
 40
0.09
  9
$LUNITS
 70
     2
  9
$LUPREC
 70
     4
  9
$AXISMODE
 70
     0
  9
$AXISUNIT
 10
0.0
 20
0.0
  9
$SKETCHINC
 40
0.1
  9
$FILLETRAD
 40
0.0
  9
$AUNITS
 70
     0
  9
$AUPREC
 70
     0
  9
$MENU
  1
acad
  9
$ELEVATION
 40
0.0
  9
$PELEVATION
 40
0.0
  9
$THICKNESS
 40
0.0
  9
$LIMCHECK
 70
     0
  9
$BLIPMODE
 70
     1
  9
$CHAMFERA
 40
0.0
  9
$CHAMFERB
 40
0.0
  9
$SKPOLY
 70
     0
  9
$TDCREATE
 40
2453013.905393519
  9
$TDUPDATE
 40
2453013.905393519
  9
$TDINDWG
 40
0.0000000000
  9
$TDUSRTIMER
 40
0.0000000000
  9
$USRTIMER
 70
     1
  9
$ANGBASE
 50
0.0
  9
$ANGDIR
 70
     0
  9
$PDMODE
 70
     0
  9
$PDSIZE
 40
0.0
  9
$PLINEWID
 40
0.0
  9
$COORDS
 70
     0
  9
$SPLFRAME
 70
     0
  9
$SPLINETYPE
 70
     6
  9
$SPLINESEGS
 70
    10
  9
$ATTDIA
 70
     0
  9
$ATTREQ
 70
     1
  9
$HANDLING
 70
     1
  9
$HANDSEED
  5
360
  9
$SURFTAB1
 70
     6
  9
$SURFTAB2
 70
     6
  9
$SURFTYPE
 70
     6
  9
$SURFU
 70
     6
  9
$SURFV
 70
     6
  9
$UCSNAME
  2

  9
$UCSORG
 10
0.0
 20
0.0
 30
0.0
  9
$UCSXDIR
 10
1.0
 20
0.0
 30
0.0
  9
$UCSYDIR
 10
0.0
 20
1.0
 30
0.0
  9
$PUCSNAME
  2

  9
$PUCSORG
 10
0.0
 20
0.0
 30
0.0
  9
$PUCSXDIR
 10
1.0
 20
0.0
 30
0.0
  9
$PUCSYDIR
 10
0.0
 20
1.0
 30
0.0
  9
$USERI1
 70
     0
  9
$USERI2
 70
     0
  9
$USERI3
 70
     0
  9
$USERI4
 70
     0
  9
$USERI5
 70
     0
  9
$USERR1
 40
0.0
  9
$USERR2
 40
0.0
  9
$USERR3
 40
0.0
  9
$USERR4
 40
0.0
  9
$USERR5
 40
0.0
  9
$WORLDVIEW
 70
     1
  9
$SHADEDGE
 70
     3
  9
$SHADEDIF
 70
    70
  9
$TILEMODE
 70
     1
  9
$MAXACTVP
 70
    16
  9
$PINSBASE
 10
0.0
 20
0.0
 30
0.0
  9
$PLIMCHECK
 70
     0
  9
$PEXTMIN
 10
-1.000000E+20
 20
-1.000000E+20
 30
-1.000000E+20
  9
$PEXTMAX
 10
-1.000000E+20
 20
-1.000000E+20
 30
-1.000000E+20
  9
$PLIMMIN
 10
0.0
 20
0.0
  9
$PLIMMAX
 10
12.0
 20
9.0
  9
$UNITMODE
 70
     0
  9
$VISRETAIN
 70
     0
  9
$PLINEGEN
 70
     1
  9
$PSLTSCALE
 70
     0
  9
$TREEDEPTH
 70
  3020
  9
$DWGCODEPAGE
  3
ansi_1252
  0
ENDSEC
  0
SECTION
  2
TABLES
  0
TABLE
  2
VPORT
 70
     1
  0
VPORT
  2
*ACTIVE
 70
     0
 10
0.0
 20
0.0
 11
1.0
 21
1.0
 12
0.0
 22
0.0
 13
0.0
 23
0.0
 14
0.0
 24
0.0
 15
0.0
 25
0.0
 16
0.0
 26
0.0
 36
1.0
 17
886241.266629
 27
7277763.5225
 37
0.0
 40
5416.851
 41
0.960938
 42
50.0
 43
0.004
 44
0.0
 50
0.0
 51
0.0
 71
     0
 72
   100
 73
     1
 74
     0
 75
     0
 76
     0
 77
     0
 78
     0
  0
ENDTAB
  0
TABLE
  2
LTYPE
 70
     7
  0
LTYPE
  2
CONTINUOUS
 70
     0
  3
Solid line
 72
    65
 73
     0
 40
0.0
  0
LTYPE
  2
DOT
 70
    64
  3
. . . . . . . . . . . . . . . . . . . . . . . . . . . . . . . . .
 72
    65
 73
     2
 40
0.25
 49
0.0
 49
-0.25
  0
LTYPE
  2
HIDDEN
 70
    64
  3
__ __ __ __ __ __ __ __ __ __ __ __ __ __ __ __ __ __ __ __ __ 
 72
    65
 73
     2
 40
0.375
 49
0.25
 49
-0.125
  0
LTYPE
  2
DASHED
 70
    64
  3
__ __ __ __ __ __ __ __ __ __ __ __ __ __ __ __ __ __ __ __ __
 72
    65
 73
     2
 40
0.75
 49
0.5
 49
-0.25
  0
LTYPE
  2
DASHDOT
 70
    64
  3
__ . __ . __ . __ . __ . __ . __ . __ . __ . __ . __ . __ . _
 72
    65
 73
     4
 40
1.0
 49
0.5
 49
-0.25
 49
0.0
 49
-0.25
  0
LTYPE
  2
DIVIDE
 70
    64
  3
____ . . ____ . . ____ . . ____ . . ____ . . ____ . . ____ . .
 72
    65
 73
     6
 40
1.25
 49
0.5
 49
-0.25
 49
0.0
 49
-0.25
 49
0.0
 49
-0.25
  0
LTYPE
  2
CENTER
 70
    64
  3
____ _ ____ _ ____ _ ____ _ ____ _ ____ _ ____ _ ____ _ ____ _
 72
    65
 73
     4
 40
2.0
 49
1.25
 49
-0.25
 49
0.25
 49
-0.25
  0
ENDTAB
  0
TABLE
  2
LAYER
 70
    15
  0
LAYER
  2
0
 70
     0
 62
     7
  6
CONTINUOUS
  0
LAYER
  2
CONSTRUCTION_CLASS
 70
     0
 62
     7
  6
CONTINUOUS
  0
LAYER
  2
PATTERN_CLASS
 70
     0
 62
     7
  6
CONTINUOUS
  0
LAYER
  2
27
 70
    64
 62
     7
  6
CONTINUOUS
  0
LAYER
  2
7
 70
    64
 62
     7
  6
CONTINUOUS
  0
LAYER
  2
25
 70
    64
 62
     7
  6
CONTINUOUS
  0
LAYER
  2
11
 70
    64
 62
     7
  6
CONTINUOUS
  0
LAYER
  2
13
 70
    64
 62
     7
  6
CONTINUOUS
  0
LAYER
  2
17
 70
    64
 62
     7
  6
CONTINUOUS
  0
LAYER
  2
20
 70
    64
 62
     7
  6
CONTINUOUS
  0
LAYER
  2
10
 70
    64
 62
     7
  6
CONTINUOUS
  0
LAYER
  2
19
 70
    64
 62
     7
  6
CONTINUOUS
  0
LAYER
  2
18
 70
    64
 62
     7
  6
CONTINUOUS
  0
LAYER
  2
15
 70
    64
 62
     7
  6
CONTINUOUS
  0
LAYER
  2
1
 70
    64
 62
     7
  6
CONTINUOUS
  0
ENDTAB
  0
TABLE
  2
STYLE
 70
     3
  0
STYLE
  2
STANDARD
 70
     0
 40
0.0
 41
1.0
 50
0.0
 71
     0
 42
0.0
  3
txt
  4

  0
STYLE
  2
txt
 70
     0
 40
0.2
 41
1.0
 50
0.0
 71
     0
 42
0.2
  3
TXT
  4

  0
STYLE
  2
ROMANC
 70
     0
 40
0.2
 41
1.0
 50
0.0
 71
     0
 42
0.2
  3
ROMANC
  4

  0
ENDTAB
  0
TABLE
  2
VIEW
 70
     0
  0
ENDTAB
  0
TABLE
  2
UCS
 70
     0
  0
ENDTAB
  0
TABLE
  2
APPID
 70
     1
  0
APPID
  2
ACAD
 70
     0
  0
ENDTAB
  0
TABLE
  2
DIMSTYLE
 70
     1
  0
DIMSTYLE
  2
STANDARD
 70
     0
  3

  4

  5

  6

  7

 40
1.0
 41
0.18
 42
0.0625
 43
0.38
 44
0.18
 45
0.0
 46
0.0
 47
0.0
 48
0.0
140
0.18
141
0.09
142
0.0
143
25.4
144
1.0
145
0.0
146
1.0
147
0.09
 71
     0
 72
     0
 73
     1
 74
     1
 75
     0
 76
     0
 77
     0
 78
     0
170
     0
171
     2
172
     0
173
     0
174
     0
175
     0
176
     0
177
     0
178
     0
  0
ENDTAB
  0
ENDSEC
  0
SECTION
  2
BLOCKS
  0
ENDSEC
  0
SECTION
  2
ENTITIES
  0
LINE
  8
27
  6
CONTINUOUS
 62
     5
  5
29
 10
888431.096
 20
7280434.832
 30
0.0
 11
888426.625
 21
7280310.146
 31
0.0
  0
LINE
  8
7
  6
CONTINUOUS
 62
     3
  5
2B
 10
886846.801
 20
7280484.199
 30
0.0
 11
886843.071
 21
7280380.729
 31
0.0
  0
LINE
  8
7
  6
CONTINUOUS
 62
     3
  5
2C
 10
886826.731
 20
7280484.825
 30
0.0
 11
886823.004
 21
7280381.453
 31
0.0
  0
LINE
  8
25
  6
CENTER
 62
     3
  5
2E
 10
886797.398
 20
7280485.739
 30
0.0
 11
886793.57
 21
7280384.505
 31
0.0
  0
ARC
  8
7
  6
CONTINUOUS
 62
     3
  5
2F
 10
887293.135493
 20
7278471.947571
 30
0.0
 40
10.04
 50
17.852144
 51
66.172697
210
0.0
220
0.0
230
1.0
  0
ARC
  8
7
  6
CONTINUOUS
 62
     3
  5
30
 10
887349.9191
 20
7278600.527256
 30
0.0
 40
130.52
 50
287.343875
 51
140.128472
210
0.0
220
0.0
230
1.0
  0
LINE
  8
27
  6
CONTINUOUS
 62
     5
  5
31
 10
886753.758
 20
7277361.058
 30
0.0
 11
888136.836
 21
7277437.325
 31
0.0
  0
LINE
  8
27
  6
CONTINUOUS
 62
     5
  5
32
 10
887894.589
 20
7276976.185
 30
0.0
 11
887108.988
 21
7276932.199
 31
0.0
  0
LINE
  8
27
  6
CONTINUOUS
 62
     5
  5
33
 10
887894.927
 20
7276895.757
 30
0.0
 11
887113.479
 21
7276852.004
 31
0.0
  0
LINE
  8
27
  6
CONTINUOUS
 62
     5
  5
34
 10
886749.689
 20
7277511.663
 30
0.0
 11
887397.763
 21
7277547.399
 31
0.0
  0
LINE
  8
11
  6
CONTINUOUS
 62
    30
  5
36
 10
885168.5
 20
7276773.305
 30
0.0
 11
889370.275
 21
7275243.867
 31
0.0
  0
LINE
  8
13
  6
CENTER
 62
     5
  5
38
 10
885142.744
 20
7276702.546
 30
0.0
 11
889367.806
 21
7275164.633
 31
0.0
  0
LINE
  8
17
  6
CONTINUOUS
 62
     7
  5
3A
 10
885198.033
 20
7276854.44
 30
0.0
 11
889373.106
 21
7275334.723
 31
0.0
  0
LINE
  8
17
  6
CONTINUOUS
 62
     7
  5
3B
 10
885214.517
 20
7276899.726
 30
0.0
 11
889374.686
 21
7275385.434
 31
0.0
  0
LINE
  8
13
  6
CENTER
 62
     5
  5
3C
 10
885185.671
 20
7276820.477
 30
0.0
 11
889371.921
 21
7275296.69
 31
0.0
  0
LINE
  8
7
  6
CONTINUOUS
 62
     3
  5
3D
 10
885484.193
 20
7276864.089
 30
0.0
 11
889376.352
 21
7275438.891
 31
0.0
  0
LINE
  8
7
  6
CONTINUOUS
 62
     3
  5
3E
 10
885528.721
 20
7276879.86
 30
0.0
 11
888994.649
 21
7275610.735
 31
0.0
  0
LINE
  8
25
  6
CENTER
 62
     3
  5
3F
 10
885226.88
 20
7276933.69
 30
0.0
 11
889375.871
 21
7275423.465
 31
0.0
  0
POLYLINE
  8
11
  6
CONTINUOUS
 62
    30
  5
40
 66
     1
 10
0.0
 20
0.0
 30
0.0
  0
VERTEX
  8
11
  6
CONTINUOUS
 62
    30
  5
41
 10
885728.967
 20
7276558.672
 30
0.0
  0
VERTEX
  8
11
  6
CONTINUOUS
 62
    30
  5
42
 10
885732.401
 20
7276568.106
 30
0.0
  0
VERTEX
  8
11
  6
CONTINUOUS
 62
    30
  5
43
 10
885735.835
 20
7276577.541
 30
0.0
  0
SEQEND
  8
11
  6
CONTINUOUS
 62
    30
  5
44
  0
POLYLINE
  8
11
  6
CONTINUOUS
 62
    30
  5
45
 66
     1
 10
0.0
 20
0.0
 30
0.0
  0
VERTEX
  8
11
  6
CONTINUOUS
 62
    30
  5
46
 10
885823.311
 20
7276524.33
 30
0.0
  0
VERTEX
  8
11
  6
CONTINUOUS
 62
    30
  5
47
 10
885826.745
 20
7276533.765
 30
0.0
  0
VERTEX
  8
11
  6
CONTINUOUS
 62
    30
  5
48
 10
885830.179
 20
7276543.2
 30
0.0
  0
SEQEND
  8
11
  6
CONTINUOUS
 62
    30
  5
49
  0
POLYLINE
  8
11
  6
CONTINUOUS
 62
    30
  5
4A
 66
     1
 10
0.0
 20
0.0
 30
0.0
  0
VERTEX
  8
11
  6
CONTINUOUS
 62
    30
  5
4B
 10
885776.139
 20
7276541.502
 30
0.0
  0
VERTEX
  8
11
  6
CONTINUOUS
 62
    30
  5
4C
 10
885779.573
 20
7276550.936
 30
0.0
  0
VERTEX
  8
11
  6
CONTINUOUS
 62
    30
  5
4D
 10
885783.007
 20
7276560.37
 30
0.0
  0
SEQEND
  8
11
  6
CONTINUOUS
 62
    30
  5
4E
  0
POLYLINE
  8
11
  6
CONTINUOUS
 62
    30
  5
4F
 66
     1
 10
0.0
 20
0.0
 30
0.0
  0
VERTEX
  8
11
  6
CONTINUOUS
 62
    30
  5
50
 10
886059.172
 20
7276438.478
 30
0.0
  0
VERTEX
  8
11
  6
CONTINUOUS
 62
    30
  5
51
 10
886062.606
 20
7276447.912
 30
0.0
  0
VERTEX
  8
11
  6
CONTINUOUS
 62
    30
  5
52
 10
886066.04
 20
7276457.347
 30
0.0
  0
SEQEND
  8
11
  6
CONTINUOUS
 62
    30
  5
53
  0
POLYLINE
  8
11
  6
CONTINUOUS
 62
    30
  5
54
 66
     1
 10
0.0
 20
0.0
 30
0.0
  0
VERTEX
  8
11
  6
CONTINUOUS
 62
    30
  5
55
 10
886012.0
 20
7276455.648
 30
0.0
  0
VERTEX
  8
11
  6
CONTINUOUS
 62
    30
  5
56
 10
886015.434
 20
7276465.083
 30
0.0
  0
VERTEX
  8
11
  6
CONTINUOUS
 62
    30
  5
57
 10
886018.868
 20
7276474.518
 30
0.0
  0
SEQEND
  8
11
  6
CONTINUOUS
 62
    30
  5
58
  0
POLYLINE
  8
11
  6
CONTINUOUS
 62
    30
  5
59
 66
     1
 10
0.0
 20
0.0
 30
0.0
  0
VERTEX
  8
11
  6
CONTINUOUS
 62
    30
  5
5A
 10
885964.828
 20
7276472.819
 30
0.0
  0
VERTEX
  8
11
  6
CONTINUOUS
 62
    30
  5
5B
 10
885968.262
 20
7276482.253
 30
0.0
  0
VERTEX
  8
11
  6
CONTINUOUS
 62
    30
  5
5C
 10
885971.696
 20
7276491.688
 30
0.0
  0
SEQEND
  8
11
  6
CONTINUOUS
 62
    30
  5
5D
  0
POLYLINE
  8
11
  6
CONTINUOUS
 62
    30
  5
5E
 66
     1
 10
0.0
 20
0.0
 30
0.0
  0
VERTEX
  8
11
  6
CONTINUOUS
 62
    30
  5
5F
 10
885917.656
 20
7276489.989
 30
0.0
  0
VERTEX
  8
11
  6
CONTINUOUS
 62
    30
  5
60
 10
885921.09
 20
7276499.424
 30
0.0
  0
VERTEX
  8
11
  6
CONTINUOUS
 62
    30
  5
61
 10
885924.524
 20
7276508.859
 30
0.0
  0
SEQEND
  8
11
  6
CONTINUOUS
 62
    30
  5
62
  0
POLYLINE
  8
11
  6
CONTINUOUS
 62
    30
  5
63
 66
     1
 10
0.0
 20
0.0
 30
0.0
  0
VERTEX
  8
11
  6
CONTINUOUS
 62
    30
  5
64
 10
885870.483
 20
7276507.16
 30
0.0
  0
VERTEX
  8
11
  6
CONTINUOUS
 62
    30
  5
65
 10
885873.918
 20
7276516.594
 30
0.0
  0
VERTEX
  8
11
  6
CONTINUOUS
 62
    30
  5
66
 10
885877.351
 20
7276526.029
 30
0.0
  0
SEQEND
  8
11
  6
CONTINUOUS
 62
    30
  5
67
  0
POLYLINE
  8
11
  6
CONTINUOUS
 62
    30
  5
68
 66
     1
 10
0.0
 20
0.0
 30
0.0
  0
VERTEX
  8
11
  6
CONTINUOUS
 62
    30
  5
69
 10
886295.032
 20
7276352.625
 30
0.0
  0
VERTEX
  8
11
  6
CONTINUOUS
 62
    30
  5
6A
 10
886298.467
 20
7276362.059
 30
0.0
  0
VERTEX
  8
11
  6
CONTINUOUS
 62
    30
  5
6B
 10
886301.9
 20
7276371.493
 30
0.0
  0
SEQEND
  8
11
  6
CONTINUOUS
 62
    30
  5
6C
  0
POLYLINE
  8
11
  6
CONTINUOUS
 62
    30
  5
6D
 66
     1
 10
0.0
 20
0.0
 30
0.0
  0
VERTEX
  8
11
  6
CONTINUOUS
 62
    30
  5
6E
 10
886247.86
 20
7276369.796
 30
0.0
  0
VERTEX
  8
11
  6
CONTINUOUS
 62
    30
  5
6F
 10
886251.295
 20
7276379.23
 30
0.0
  0
VERTEX
  8
11
  6
CONTINUOUS
 62
    30
  5
70
 10
886254.728
 20
7276388.664
 30
0.0
  0
SEQEND
  8
11
  6
CONTINUOUS
 62
    30
  5
71
  0
POLYLINE
  8
11
  6
CONTINUOUS
 62
    30
  5
72
 66
     1
 10
0.0
 20
0.0
 30
0.0
  0
VERTEX
  8
11
  6
CONTINUOUS
 62
    30
  5
73
 10
886200.688
 20
7276386.966
 30
0.0
  0
VERTEX
  8
11
  6
CONTINUOUS
 62
    30
  5
74
 10
886204.123
 20
7276396.401
 30
0.0
  0
VERTEX
  8
11
  6
CONTINUOUS
 62
    30
  5
75
 10
886207.556
 20
7276405.834
 30
0.0
  0
SEQEND
  8
11
  6
CONTINUOUS
 62
    30
  5
76
  0
POLYLINE
  8
11
  6
CONTINUOUS
 62
    30
  5
77
 66
     1
 10
0.0
 20
0.0
 30
0.0
  0
VERTEX
  8
11
  6
CONTINUOUS
 62
    30
  5
78
 10
886153.516
 20
7276404.137
 30
0.0
  0
VERTEX
  8
11
  6
CONTINUOUS
 62
    30
  5
79
 10
886156.951
 20
7276413.571
 30
0.0
  0
VERTEX
  8
11
  6
CONTINUOUS
 62
    30
  5
7A
 10
886160.384
 20
7276423.005
 30
0.0
  0
SEQEND
  8
11
  6
CONTINUOUS
 62
    30
  5
7B
  0
POLYLINE
  8
11
  6
CONTINUOUS
 62
    30
  5
7C
 66
     1
 10
0.0
 20
0.0
 30
0.0
  0
VERTEX
  8
11
  6
CONTINUOUS
 62
    30
  5
7D
 10
886106.344
 20
7276421.307
 30
0.0
  0
VERTEX
  8
11
  6
CONTINUOUS
 62
    30
  5
7E
 10
886109.778
 20
7276430.742
 30
0.0
  0
VERTEX
  8
11
  6
CONTINUOUS
 62
    30
  5
7F
 10
886113.212
 20
7276440.176
 30
0.0
  0
SEQEND
  8
11
  6
CONTINUOUS
 62
    30
  5
80
  0
POLYLINE
  8
11
  6
CONTINUOUS
 62
    30
  5
81
 66
     1
 10
0.0
 20
0.0
 30
0.0
  0
VERTEX
  8
11
  6
CONTINUOUS
 62
    30
  5
82
 10
886813.926
 20
7276163.748
 30
0.0
  0
VERTEX
  8
11
  6
CONTINUOUS
 62
    30
  5
83
 10
886817.36
 20
7276173.183
 30
0.0
  0
VERTEX
  8
11
  6
CONTINUOUS
 62
    30
  5
84
 10
886820.794
 20
7276182.617
 30
0.0
  0
SEQEND
  8
11
  6
CONTINUOUS
 62
    30
  5
85
  0
POLYLINE
  8
11
  6
CONTINUOUS
 62
    30
  5
86
 66
     1
 10
0.0
 20
0.0
 30
0.0
  0
VERTEX
  8
11
  6
CONTINUOUS
 62
    30
  5
87
 10
886766.754
 20
7276180.919
 30
0.0
  0
VERTEX
  8
11
  6
CONTINUOUS
 62
    30
  5
88
 10
886770.188
 20
7276190.353
 30
0.0
  0
VERTEX
  8
11
  6
CONTINUOUS
 62
    30
  5
89
 10
886773.622
 20
7276199.787
 30
0.0
  0
SEQEND
  8
11
  6
CONTINUOUS
 62
    30
  5
8A
  0
POLYLINE
  8
11
  6
CONTINUOUS
 62
    30
  5
8B
 66
     1
 10
0.0
 20
0.0
 30
0.0
  0
VERTEX
  8
11
  6
CONTINUOUS
 62
    30
  5
8C
 10
886530.893
 20
7276266.771
 30
0.0
  0
VERTEX
  8
11
  6
CONTINUOUS
 62
    30
  5
8D
 10
886534.327
 20
7276276.206
 30
0.0
  0
VERTEX
  8
11
  6
CONTINUOUS
 62
    30
  5
8E
 10
886537.762
 20
7276285.641
 30
0.0
  0
SEQEND
  8
11
  6
CONTINUOUS
 62
    30
  5
8F
  0
POLYLINE
  8
11
  6
CONTINUOUS
 62
    30
  5
90
 66
     1
 10
0.0
 20
0.0
 30
0.0
  0
VERTEX
  8
11
  6
CONTINUOUS
 62
    30
  5
91
 10
886483.721
 20
7276283.942
 30
0.0
  0
VERTEX
  8
11
  6
CONTINUOUS
 62
    30
  5
92
 10
886487.155
 20
7276293.377
 30
0.0
  0
VERTEX
  8
11
  6
CONTINUOUS
 62
    30
  5
93
 10
886490.59
 20
7276302.811
 30
0.0
  0
SEQEND
  8
11
  6
CONTINUOUS
 62
    30
  5
94
  0
POLYLINE
  8
11
  6
CONTINUOUS
 62
    30
  5
95
 66
     1
 10
0.0
 20
0.0
 30
0.0
  0
VERTEX
  8
11
  6
CONTINUOUS
 62
    30
  5
96
 10
886436.549
 20
7276301.113
 30
0.0
  0
VERTEX
  8
11
  6
CONTINUOUS
 62
    30
  5
97
 10
886439.983
 20
7276310.547
 30
0.0
  0
VERTEX
  8
11
  6
CONTINUOUS
 62
    30
  5
98
 10
886443.418
 20
7276319.982
 30
0.0
  0
SEQEND
  8
11
  6
CONTINUOUS
 62
    30
  5
99
  0
POLYLINE
  8
11
  6
CONTINUOUS
 62
    30
  5
9A
 66
     1
 10
0.0
 20
0.0
 30
0.0
  0
VERTEX
  8
11
  6
CONTINUOUS
 62
    30
  5
9B
 10
886389.377
 20
7276318.283
 30
0.0
  0
VERTEX
  8
11
  6
CONTINUOUS
 62
    30
  5
9C
 10
886392.811
 20
7276327.718
 30
0.0
  0
VERTEX
  8
11
  6
CONTINUOUS
 62
    30
  5
9D
 10
886396.246
 20
7276337.152
 30
0.0
  0
SEQEND
  8
11
  6
CONTINUOUS
 62
    30
  5
9E
  0
POLYLINE
  8
11
  6
CONTINUOUS
 62
    30
  5
9F
 66
     1
 10
0.0
 20
0.0
 30
0.0
  0
VERTEX
  8
11
  6
CONTINUOUS
 62
    30
  5
A0
 10
886342.204
 20
7276335.455
 30
0.0
  0
VERTEX
  8
11
  6
CONTINUOUS
 62
    30
  5
A1
 10
886345.639
 20
7276344.888
 30
0.0
  0
VERTEX
  8
11
  6
CONTINUOUS
 62
    30
  5
A2
 10
886349.072
 20
7276354.323
 30
0.0
  0
SEQEND
  8
11
  6
CONTINUOUS
 62
    30
  5
A3
  0
POLYLINE
  8
11
  6
CONTINUOUS
 62
    30
  5
A4
 66
     1
 10
0.0
 20
0.0
 30
0.0
  0
VERTEX
  8
11
  6
CONTINUOUS
 62
    30
  5
A5
 10
886719.581
 20
7276198.089
 30
0.0
  0
VERTEX
  8
11
  6
CONTINUOUS
 62
    30
  5
A6
 10
886723.016
 20
7276207.524
 30
0.0
  0
VERTEX
  8
11
  6
CONTINUOUS
 62
    30
  5
A7
 10
886726.45
 20
7276216.958
 30
0.0
  0
SEQEND
  8
11
  6
CONTINUOUS
 62
    30
  5
A8
  0
POLYLINE
  8
11
  6
CONTINUOUS
 62
    30
  5
A9
 66
     1
 10
0.0
 20
0.0
 30
0.0
  0
VERTEX
  8
11
  6
CONTINUOUS
 62
    30
  5
AA
 10
886672.409
 20
7276215.26
 30
0.0
  0
VERTEX
  8
11
  6
CONTINUOUS
 62
    30
  5
AB
 10
886675.844
 20
7276224.694
 30
0.0
  0
VERTEX
  8
11
  6
CONTINUOUS
 62
    30
  5
AC
 10
886679.278
 20
7276234.129
 30
0.0
  0
SEQEND
  8
11
  6
CONTINUOUS
 62
    30
  5
AD
  0
POLYLINE
  8
11
  6
CONTINUOUS
 62
    30
  5
AE
 66
     1
 10
0.0
 20
0.0
 30
0.0
  0
VERTEX
  8
11
  6
CONTINUOUS
 62
    30
  5
AF
 10
886625.237
 20
7276232.43
 30
0.0
  0
VERTEX
  8
11
  6
CONTINUOUS
 62
    30
  5
B0
 10
886628.672
 20
7276241.865
 30
0.0
  0
VERTEX
  8
11
  6
CONTINUOUS
 62
    30
  5
B1
 10
886632.106
 20
7276251.3
 30
0.0
  0
SEQEND
  8
11
  6
CONTINUOUS
 62
    30
  5
B2
  0
POLYLINE
  8
11
  6
CONTINUOUS
 62
    30
  5
B3
 66
     1
 10
0.0
 20
0.0
 30
0.0
  0
VERTEX
  8
11
  6
CONTINUOUS
 62
    30
  5
B4
 10
886578.065
 20
7276249.601
 30
0.0
  0
VERTEX
  8
11
  6
CONTINUOUS
 62
    30
  5
B5
 10
886581.499
 20
7276259.036
 30
0.0
  0
VERTEX
  8
11
  6
CONTINUOUS
 62
    30
  5
B6
 10
886584.934
 20
7276268.47
 30
0.0
  0
SEQEND
  8
11
  6
CONTINUOUS
 62
    30
  5
B7
  0
POLYLINE
  8
11
  6
CONTINUOUS
 62
    30
  5
B8
 66
     1
 10
0.0
 20
0.0
 30
0.0
  0
VERTEX
  8
11
  6
CONTINUOUS
 62
    30
  5
B9
 10
887049.787
 20
7276077.895
 30
0.0
  0
VERTEX
  8
11
  6
CONTINUOUS
 62
    30
  5
BA
 10
887053.22
 20
7276087.329
 30
0.0
  0
VERTEX
  8
11
  6
CONTINUOUS
 62
    30
  5
BB
 10
887056.655
 20
7276096.764
 30
0.0
  0
SEQEND
  8
11
  6
CONTINUOUS
 62
    30
  5
BC
  0
POLYLINE
  8
11
  6
CONTINUOUS
 62
    30
  5
BD
 66
     1
 10
0.0
 20
0.0
 30
0.0
  0
VERTEX
  8
11
  6
CONTINUOUS
 62
    30
  5
BE
 10
887002.615
 20
7276095.065
 30
0.0
  0
VERTEX
  8
11
  6
CONTINUOUS
 62
    30
  5
BF
 10
887006.048
 20
7276104.5
 30
0.0
  0
VERTEX
  8
11
  6
CONTINUOUS
 62
    30
  5
C0
 10
887009.483
 20
7276113.934
 30
0.0
  0
SEQEND
  8
11
  6
CONTINUOUS
 62
    30
  5
C1
  0
POLYLINE
  8
11
  6
CONTINUOUS
 62
    30
  5
C2
 66
     1
 10
0.0
 20
0.0
 30
0.0
  0
VERTEX
  8
11
  6
CONTINUOUS
 62
    30
  5
C3
 10
886955.443
 20
7276112.236
 30
0.0
  0
VERTEX
  8
11
  6
CONTINUOUS
 62
    30
  5
C4
 10
886958.876
 20
7276121.67
 30
0.0
  0
VERTEX
  8
11
  6
CONTINUOUS
 62
    30
  5
C5
 10
886962.311
 20
7276131.105
 30
0.0
  0
SEQEND
  8
11
  6
CONTINUOUS
 62
    30
  5
C6
  0
POLYLINE
  8
11
  6
CONTINUOUS
 62
    30
  5
C7
 66
     1
 10
0.0
 20
0.0
 30
0.0
  0
VERTEX
  8
11
  6
CONTINUOUS
 62
    30
  5
C8
 10
886908.271
 20
7276129.406
 30
0.0
  0
VERTEX
  8
11
  6
CONTINUOUS
 62
    30
  5
C9
 10
886911.704
 20
7276138.841
 30
0.0
  0
VERTEX
  8
11
  6
CONTINUOUS
 62
    30
  5
CA
 10
886915.139
 20
7276148.275
 30
0.0
  0
SEQEND
  8
11
  6
CONTINUOUS
 62
    30
  5
CB
  0
POLYLINE
  8
11
  6
CONTINUOUS
 62
    30
  5
CC
 66
     1
 10
0.0
 20
0.0
 30
0.0
  0
VERTEX
  8
11
  6
CONTINUOUS
 62
    30
  5
CD
 10
886861.099
 20
7276146.578
 30
0.0
  0
VERTEX
  8
11
  6
CONTINUOUS
 62
    30
  5
CE
 10
886864.532
 20
7276156.011
 30
0.0
  0
VERTEX
  8
11
  6
CONTINUOUS
 62
    30
  5
CF
 10
886867.967
 20
7276165.446
 30
0.0
  0
SEQEND
  8
11
  6
CONTINUOUS
 62
    30
  5
D0
  0
POLYLINE
  8
11
  6
CONTINUOUS
 62
    30
  5
D1
 66
     1
 10
0.0
 20
0.0
 30
0.0
  0
VERTEX
  8
11
  6
CONTINUOUS
 62
    30
  5
D2
 10
887285.647
 20
7275992.042
 30
0.0
  0
VERTEX
  8
11
  6
CONTINUOUS
 62
    30
  5
D3
 10
887289.082
 20
7276001.477
 30
0.0
  0
VERTEX
  8
11
  6
CONTINUOUS
 62
    30
  5
D4
 10
887292.515
 20
7276010.91
 30
0.0
  0
SEQEND
  8
11
  6
CONTINUOUS
 62
    30
  5
D5
  0
POLYLINE
  8
11
  6
CONTINUOUS
 62
    30
  5
D6
 66
     1
 10
0.0
 20
0.0
 30
0.0
  0
VERTEX
  8
11
  6
CONTINUOUS
 62
    30
  5
D7
 10
887238.475
 20
7276009.213
 30
0.0
  0
VERTEX
  8
11
  6
CONTINUOUS
 62
    30
  5
D8
 10
887241.909
 20
7276018.647
 30
0.0
  0
VERTEX
  8
11
  6
CONTINUOUS
 62
    30
  5
D9
 10
887245.343
 20
7276028.082
 30
0.0
  0
SEQEND
  8
11
  6
CONTINUOUS
 62
    30
  5
DA
  0
POLYLINE
  8
11
  6
CONTINUOUS
 62
    30
  5
DB
 66
     1
 10
0.0
 20
0.0
 30
0.0
  0
VERTEX
  8
11
  6
CONTINUOUS
 62
    30
  5
DC
 10
887191.303
 20
7276026.383
 30
0.0
  0
VERTEX
  8
11
  6
CONTINUOUS
 62
    30
  5
DD
 10
887194.737
 20
7276035.818
 30
0.0
  0
VERTEX
  8
11
  6
CONTINUOUS
 62
    30
  5
DE
 10
887198.171
 20
7276045.252
 30
0.0
  0
SEQEND
  8
11
  6
CONTINUOUS
 62
    30
  5
DF
  0
POLYLINE
  8
11
  6
CONTINUOUS
 62
    30
  5
E0
 66
     1
 10
0.0
 20
0.0
 30
0.0
  0
VERTEX
  8
11
  6
CONTINUOUS
 62
    30
  5
E1
 10
887144.131
 20
7276043.554
 30
0.0
  0
VERTEX
  8
11
  6
CONTINUOUS
 62
    30
  5
E2
 10
887147.565
 20
7276052.988
 30
0.0
  0
VERTEX
  8
11
  6
CONTINUOUS
 62
    30
  5
E3
 10
887150.999
 20
7276062.423
 30
0.0
  0
SEQEND
  8
11
  6
CONTINUOUS
 62
    30
  5
E4
  0
POLYLINE
  8
11
  6
CONTINUOUS
 62
    30
  5
E5
 66
     1
 10
0.0
 20
0.0
 30
0.0
  0
VERTEX
  8
11
  6
CONTINUOUS
 62
    30
  5
E6
 10
887096.959
 20
7276060.724
 30
0.0
  0
VERTEX
  8
11
  6
CONTINUOUS
 62
    30
  5
E7
 10
887100.393
 20
7276070.159
 30
0.0
  0
VERTEX
  8
11
  6
CONTINUOUS
 62
    30
  5
E8
 10
887103.827
 20
7276079.593
 30
0.0
  0
SEQEND
  8
11
  6
CONTINUOUS
 62
    30
  5
E9
  0
LINE
  8
7
  6
CONTINUOUS
 62
     3
  5
EA
 10
886836.122
 20
7280139.213
 30
0.0
 11
886793.531
 21
7278659.198
 31
0.0
  0
LINE
  8
7
  6
CONTINUOUS
 62
     3
  5
EB
 10
886823.002
 20
7280381.38
 30
0.0
 11
886764.255
 21
7278339.876
 31
0.0
  0
LINE
  8
25
  6
CENTER
 62
     3
  5
EC
 10
886793.57
 20
7280384.505
 30
0.0
 11
886736.83
 21
7278318.58
 31
0.0
  0
ARC
  8
7
  6
CONTINUOUS
 62
     3
  5
ED
 10
885518.971902
 20
7277022.78807
 30
0.0
 40
162.465124
 50
184.108153
 51
257.638883
210
0.0
220
0.0
230
1.0
  0
LINE
  8
7
  6
CONTINUOUS
 62
     3
  5
EE
 10
885330.806
 20
7278117.653
 30
0.0
 11
885341.908
 21
7277827.129
 31
0.0
  0
ARC
  8
7
  6
CONTINUOUS
 62
     3
  5
EF
 10
885441.360523
 20
7278119.660627
 30
0.0
 40
110.574732
 50
137.840367
 51
180.925803
210
0.0
220
0.0
230
1.0
  0
LINE
  8
25
  6
CENTER
 62
     3
  5
F0
 10
886736.83
 20
7278318.58
 30
0.0
 11
885298.781
 21
7278265.407
 31
0.0
  0
LINE
  8
25
  6
CENTER
 62
     3
  5
F1
 10
885298.781
 20
7278265.407
 30
0.0
 11
885226.88
 21
7276933.69
 31
0.0
  0
ARC
  8
11
  6
CONTINUOUS
 62
    30
  5
F2
 10
884282.221644
 20
7274692.658296
 30
0.0
 40
2261.315191
 50
67.1432
 51
86.24555
210
0.0
220
0.0
230
1.0
  0
ARC
  8
13
  6
CENTER
 62
     5
  5
F3
 10
884282.221644
 20
7274692.658296
 30
0.0
 40
2186.015191
 50
67.1432
 51
86.24555
210
0.0
220
0.0
230
1.0
  0
ARC
  8
17
  6
CONTINUOUS
 62
     7
  5
F4
 10
884282.221644
 20
7274692.658296
 30
0.0
 40
2347.659191
 50
67.1432
 51
86.24555
210
0.0
220
0.0
230
1.0
  0
ARC
  8
17
  6
CONTINUOUS
 62
     7
  5
F5
 10
884282.221644
 20
7274692.658296
 30
0.0
 40
2395.851191
 50
67.1432
 51
86.24555
210
0.0
220
0.0
230
1.0
  0
ARC
  8
13
  6
CENTER
 62
     5
  5
F6
 10
884282.221644
 20
7274692.658296
 30
0.0
 40
2311.515191
 50
67.1432
 51
86.24555
210
0.0
220
0.0
230
1.0
  0
ARC
  8
13
  6
CENTER
 62
     5
  5
F7
 10
884282.221644
 20
7274692.658296
 30
0.0
 40
2431.995191
 50
67.1432
 51
86.24555
210
0.0
220
0.0
230
1.0
  0
POLYLINE
  8
11
  6
CONTINUOUS
 62
    30
  5
F8
 66
     1
 10
0.0
 20
0.0
 30
0.0
  0
VERTEX
  8
11
  6
CONTINUOUS
 62
    30
  5
F9
 10
884557.819
 20
7276926.061
 30
0.0
  0
VERTEX
  8
11
  6
CONTINUOUS
 62
    30
  5
FA
 10
884559.562
 20
7276935.948
 30
0.0
  0
VERTEX
  8
11
  6
CONTINUOUS
 62
    30
  5
FB
 10
884561.306
 20
7276945.836
 30
0.0
  0
SEQEND
  8
11
  6
CONTINUOUS
 62
    30
  5
FC
  0
POLYLINE
  8
11
  6
CONTINUOUS
 62
    30
  5
FD
 66
     1
 10
0.0
 20
0.0
 30
0.0
  0
VERTEX
  8
11
  6
CONTINUOUS
 62
    30
  5
FE
 10
884645.018
 20
7276914.063
 30
0.0
  0
VERTEX
  8
11
  6
CONTINUOUS
 62
    30
  5
FF
 10
884646.762
 20
7276923.95
 30
0.0
  0
VERTEX
  8
11
  6
CONTINUOUS
 62
    30
  5
100
 10
884648.506
 20
7276933.838
 30
0.0
  0
SEQEND
  8
11
  6
CONTINUOUS
 62
    30
  5
101
  0
POLYLINE
  8
11
  6
CONTINUOUS
 62
    30
  5
102
 66
     1
 10
0.0
 20
0.0
 30
0.0
  0
VERTEX
  8
11
  6
CONTINUOUS
 62
    30
  5
103
 10
884724.864
 20
7276899.588
 30
0.0
  0
VERTEX
  8
11
  6
CONTINUOUS
 62
    30
  5
104
 10
884726.608
 20
7276909.476
 30
0.0
  0
VERTEX
  8
11
  6
CONTINUOUS
 62
    30
  5
105
 10
884728.352
 20
7276919.363
 30
0.0
  0
SEQEND
  8
11
  6
CONTINUOUS
 62
    30
  5
106
  0
POLYLINE
  8
11
  6
CONTINUOUS
 62
    30
  5
107
 66
     1
 10
0.0
 20
0.0
 30
0.0
  0
VERTEX
  8
11
  6
CONTINUOUS
 62
    30
  5
108
 10
884793.626
 20
7276884.866
 30
0.0
  0
VERTEX
  8
11
  6
CONTINUOUS
 62
    30
  5
109
 10
884797.06
 20
7276894.301
 30
0.0
  0
VERTEX
  8
11
  6
CONTINUOUS
 62
    30
  5
10A
 10
884800.495
 20
7276903.736
 30
0.0
  0
SEQEND
  8
11
  6
CONTINUOUS
 62
    30
  5
10B
  0
POLYLINE
  8
11
  6
CONTINUOUS
 62
    30
  5
10C
 66
     1
 10
0.0
 20
0.0
 30
0.0
  0
VERTEX
  8
11
  6
CONTINUOUS
 62
    30
  5
10D
 10
884466.228
 20
7276935.401
 30
0.0
  0
VERTEX
  8
11
  6
CONTINUOUS
 62
    30
  5
10E
 10
884467.972
 20
7276945.288
 30
0.0
  0
VERTEX
  8
11
  6
CONTINUOUS
 62
    30
  5
10F
 10
884469.716
 20
7276955.175
 30
0.0
  0
SEQEND
  8
11
  6
CONTINUOUS
 62
    30
  5
110
  0
POLYLINE
  8
11
  6
CONTINUOUS
 62
    30
  5
111
 66
     1
 10
0.0
 20
0.0
 30
0.0
  0
VERTEX
  8
11
  6
CONTINUOUS
 62
    30
  5
112
 10
884864.107
 20
7276867.25
 30
0.0
  0
VERTEX
  8
11
  6
CONTINUOUS
 62
    30
  5
113
 10
884867.542
 20
7276876.684
 30
0.0
  0
VERTEX
  8
11
  6
CONTINUOUS
 62
    30
  5
114
 10
884870.975
 20
7276886.118
 30
0.0
  0
SEQEND
  8
11
  6
CONTINUOUS
 62
    30
  5
115
  0
POLYLINE
  8
11
  6
CONTINUOUS
 62
    30
  5
116
 66
     1
 10
0.0
 20
0.0
 30
0.0
  0
VERTEX
  8
11
  6
CONTINUOUS
 62
    30
  5
117
 10
884936.187
 20
7276846.712
 30
0.0
  0
VERTEX
  8
11
  6
CONTINUOUS
 62
    30
  5
118
 10
884939.621
 20
7276856.146
 30
0.0
  0
VERTEX
  8
11
  6
CONTINUOUS
 62
    30
  5
119
 10
884943.055
 20
7276865.581
 30
0.0
  0
SEQEND
  8
11
  6
CONTINUOUS
 62
    30
  5
11A
  0
POLYLINE
  8
11
  6
CONTINUOUS
 62
    30
  5
11B
 66
     1
 10
0.0
 20
0.0
 30
0.0
  0
VERTEX
  8
11
  6
CONTINUOUS
 62
    30
  5
11C
 10
884995.442
 20
7276827.869
 30
0.0
  0
VERTEX
  8
11
  6
CONTINUOUS
 62
    30
  5
11D
 10
884998.876
 20
7276837.303
 30
0.0
  0
VERTEX
  8
11
  6
CONTINUOUS
 62
    30
  5
11E
 10
885002.31
 20
7276846.737
 30
0.0
  0
SEQEND
  8
11
  6
CONTINUOUS
 62
    30
  5
11F
  0
POLYLINE
  8
11
  6
CONTINUOUS
 62
    30
  5
120
 66
     1
 10
0.0
 20
0.0
 30
0.0
  0
VERTEX
  8
11
  6
CONTINUOUS
 62
    30
  5
121
 10
885055.99
 20
7276806.735
 30
0.0
  0
VERTEX
  8
11
  6
CONTINUOUS
 62
    30
  5
122
 10
885059.423
 20
7276816.17
 30
0.0
  0
VERTEX
  8
11
  6
CONTINUOUS
 62
    30
  5
123
 10
885062.858
 20
7276825.603
 30
0.0
  0
SEQEND
  8
11
  6
CONTINUOUS
 62
    30
  5
124
  0
POLYLINE
  8
11
  6
CONTINUOUS
 62
    30
  5
125
 66
     1
 10
0.0
 20
0.0
 30
0.0
  0
VERTEX
  8
11
  6
CONTINUOUS
 62
    30
  5
126
 10
885109.409
 20
7276786.466
 30
0.0
  0
VERTEX
  8
11
  6
CONTINUOUS
 62
    30
  5
127
 10
885112.844
 20
7276795.901
 30
0.0
  0
VERTEX
  8
11
  6
CONTINUOUS
 62
    30
  5
128
 10
885116.277
 20
7276805.335
 30
0.0
  0
SEQEND
  8
11
  6
CONTINUOUS
 62
    30
  5
129
  0
POLYLINE
  8
11
  6
CONTINUOUS
 62
    30
  5
12A
 66
     1
 10
0.0
 20
0.0
 30
0.0
  0
VERTEX
  8
11
  6
CONTINUOUS
 62
    30
  5
12B
 10
885304.417
 20
7276713.207
 30
0.0
  0
VERTEX
  8
11
  6
CONTINUOUS
 62
    30
  5
12C
 10
885307.852
 20
7276722.642
 30
0.0
  0
VERTEX
  8
11
  6
CONTINUOUS
 62
    30
  5
12D
 10
885311.286
 20
7276732.076
 30
0.0
  0
SEQEND
  8
11
  6
CONTINUOUS
 62
    30
  5
12E
  0
POLYLINE
  8
11
  6
CONTINUOUS
 62
    30
  5
12F
 66
     1
 10
0.0
 20
0.0
 30
0.0
  0
VERTEX
  8
11
  6
CONTINUOUS
 62
    30
  5
130
 10
885257.245
 20
7276730.378
 30
0.0
  0
VERTEX
  8
11
  6
CONTINUOUS
 62
    30
  5
131
 10
885260.68
 20
7276739.812
 30
0.0
  0
VERTEX
  8
11
  6
CONTINUOUS
 62
    30
  5
132
 10
885264.114
 20
7276749.247
 30
0.0
  0
SEQEND
  8
11
  6
CONTINUOUS
 62
    30
  5
133
  0
POLYLINE
  8
11
  6
CONTINUOUS
 62
    30
  5
134
 66
     1
 10
0.0
 20
0.0
 30
0.0
  0
VERTEX
  8
11
  6
CONTINUOUS
 62
    30
  5
135
 10
885210.073
 20
7276747.549
 30
0.0
  0
VERTEX
  8
11
  6
CONTINUOUS
 62
    30
  5
136
 10
885213.508
 20
7276756.983
 30
0.0
  0
VERTEX
  8
11
  6
CONTINUOUS
 62
    30
  5
137
 10
885216.942
 20
7276766.417
 30
0.0
  0
SEQEND
  8
11
  6
CONTINUOUS
 62
    30
  5
138
  0
POLYLINE
  8
11
  6
CONTINUOUS
 62
    30
  5
139
 66
     1
 10
0.0
 20
0.0
 30
0.0
  0
VERTEX
  8
11
  6
CONTINUOUS
 62
    30
  5
13A
 10
885162.901
 20
7276764.72
 30
0.0
  0
VERTEX
  8
11
  6
CONTINUOUS
 62
    30
  5
13B
 10
885166.335
 20
7276774.153
 30
0.0
  0
VERTEX
  8
11
  6
CONTINUOUS
 62
    30
  5
13C
 10
885169.77
 20
7276783.588
 30
0.0
  0
SEQEND
  8
11
  6
CONTINUOUS
 62
    30
  5
13D
  0
LINE
  8
11
  6
CONTINUOUS
 62
    30
  5
13E
 10
885160.583
 20
7276776.412
 30
0.0
 11
885168.5
 21
7276773.305
 31
0.0
  0
LINE
  8
7
  6
CONTINUOUS
 62
     3
  5
13F
 10
885350.872
 20
7278118.42
 30
0.0
 11
885361.974
 21
7277827.896
 31
0.0
  0
ARC
  8
7
  6
CONTINUOUS
 62
     3
  5
140
 10
886527.804124
 20
7278224.867257
 30
0.0
 40
242.104725
 50
304.010553
 51
342.722003
210
0.0
220
0.0
230
1.0
  0
ARC
  8
7
  6
CONTINUOUS
 62
     3
  5
141
 10
886527.804124
 20
7278224.867257
 30
0.0
 40
222.024725
 50
304.010553
 51
342.722003
210
0.0
220
0.0
230
1.0
  0
LINE
  8
7
  6
CONTINUOUS
 62
     3
  5
142
 10
886651.992
 20
7278040.823
 30
0.0
 11
885968.748
 21
7277420.101
 31
0.0
  0
LINE
  8
7
  6
CONTINUOUS
 62
     3
  5
143
 10
885520.848
 20
7276984.259
 30
0.0
 11
886663.224
 21
7278024.179
 31
0.0
  0
LINE
  8
7
  6
CONTINUOUS
 62
     3
  5
144
 10
885928.488
 20
7277383.525
 30
0.0
 11
885512.475
 21
7277005.581
 31
0.0
  0
LINE
  8
7
  6
CONTINUOUS
 62
     3
  5
145
 10
885642.747
 20
7277302.273
 30
0.0
 11
885650.814
 21
7277309.506
 31
0.0
  0
LINE
  8
7
  6
CONTINUOUS
 62
     3
  5
146
 10
885612.932
 20
7277301.209
 30
0.0
 11
885620.89
 21
7277309.203
 31
0.0
  0
LINE
  8
7
  6
CONTINUOUS
 62
     3
  5
147
 10
885361.98
 20
7277827.697
 30
0.0
 11
885377.001
 21
7277011.518
 31
0.0
  0
LINE
  8
7
  6
CONTINUOUS
 62
     3
  5
148
 10
885341.903
 20
7277827.328
 30
0.0
 11
885356.924
 21
7277011.149
 31
0.0
  0
ARC
  8
7
  6
CONTINUOUS
 62
     3
  5
149
 10
885562.290876
 20
7276934.887537
 30
0.0
 40
64.459098
 50
130.010461
 51
261.163133
210
0.0
220
0.0
230
1.0
  0
POLYLINE
  8
11
  6
CONTINUOUS
 62
    30
  5
14A
 66
     1
 10
0.0
 20
0.0
 30
0.0
  0
VERTEX
  8
11
  6
CONTINUOUS
 62
    30
  5
14B
 10
885587.451
 20
7276610.184
 30
0.0
  0
VERTEX
  8
11
  6
CONTINUOUS
 62
    30
  5
14C
 10
885590.884
 20
7276619.619
 30
0.0
  0
VERTEX
  8
11
  6
CONTINUOUS
 62
    30
  5
14D
 10
885594.319
 20
7276629.052
 30
0.0
  0
SEQEND
  8
11
  6
CONTINUOUS
 62
    30
  5
14E
  0
POLYLINE
  8
11
  6
CONTINUOUS
 62
    30
  5
14F
 66
     1
 10
0.0
 20
0.0
 30
0.0
  0
VERTEX
  8
11
  6
CONTINUOUS
 62
    30
  5
150
 10
885540.279
 20
7276627.355
 30
0.0
  0
VERTEX
  8
11
  6
CONTINUOUS
 62
    30
  5
151
 10
885543.712
 20
7276636.789
 30
0.0
  0
VERTEX
  8
11
  6
CONTINUOUS
 62
    30
  5
152
 10
885547.147
 20
7276646.224
 30
0.0
  0
SEQEND
  8
11
  6
CONTINUOUS
 62
    30
  5
153
  0
POLYLINE
  8
11
  6
CONTINUOUS
 62
    30
  5
154
 66
     1
 10
0.0
 20
0.0
 30
0.0
  0
VERTEX
  8
11
  6
CONTINUOUS
 62
    30
  5
155
 10
885493.107
 20
7276644.525
 30
0.0
  0
VERTEX
  8
11
  6
CONTINUOUS
 62
    30
  5
156
 10
885496.54
 20
7276653.96
 30
0.0
  0
VERTEX
  8
11
  6
CONTINUOUS
 62
    30
  5
157
 10
885499.975
 20
7276663.394
 30
0.0
  0
SEQEND
  8
11
  6
CONTINUOUS
 62
    30
  5
158
  0
POLYLINE
  8
11
  6
CONTINUOUS
 62
    30
  5
159
 66
     1
 10
0.0
 20
0.0
 30
0.0
  0
VERTEX
  8
11
  6
CONTINUOUS
 62
    30
  5
15A
 10
885445.935
 20
7276661.696
 30
0.0
  0
VERTEX
  8
11
  6
CONTINUOUS
 62
    30
  5
15B
 10
885449.368
 20
7276671.13
 30
0.0
  0
VERTEX
  8
11
  6
CONTINUOUS
 62
    30
  5
15C
 10
885452.803
 20
7276680.565
 30
0.0
  0
SEQEND
  8
11
  6
CONTINUOUS
 62
    30
  5
15D
  0
POLYLINE
  8
11
  6
CONTINUOUS
 62
    30
  5
15E
 66
     1
 10
0.0
 20
0.0
 30
0.0
  0
VERTEX
  8
11
  6
CONTINUOUS
 62
    30
  5
15F
 10
885398.762
 20
7276678.866
 30
0.0
  0
VERTEX
  8
11
  6
CONTINUOUS
 62
    30
  5
160
 10
885402.196
 20
7276688.301
 30
0.0
  0
VERTEX
  8
11
  6
CONTINUOUS
 62
    30
  5
161
 10
885405.631
 20
7276697.735
 30
0.0
  0
SEQEND
  8
11
  6
CONTINUOUS
 62
    30
  5
162
  0
POLYLINE
  8
11
  6
CONTINUOUS
 62
    30
  5
163
 66
     1
 10
0.0
 20
0.0
 30
0.0
  0
VERTEX
  8
11
  6
CONTINUOUS
 62
    30
  5
164
 10
885351.589
 20
7276696.037
 30
0.0
  0
VERTEX
  8
11
  6
CONTINUOUS
 62
    30
  5
165
 10
885355.024
 20
7276705.471
 30
0.0
  0
VERTEX
  8
11
  6
CONTINUOUS
 62
    30
  5
166
 10
885358.458
 20
7276714.906
 30
0.0
  0
SEQEND
  8
11
  6
CONTINUOUS
 62
    30
  5
167
  0
POLYLINE
  8
11
  6
CONTINUOUS
 62
    30
  5
168
 66
     1
 10
0.0
 20
0.0
 30
0.0
  0
VERTEX
  8
11
  6
CONTINUOUS
 62
    30
  5
169
 10
885681.795
 20
7276575.843
 30
0.0
  0
VERTEX
  8
11
  6
CONTINUOUS
 62
    30
  5
16A
 10
885685.229
 20
7276585.278
 30
0.0
  0
VERTEX
  8
11
  6
CONTINUOUS
 62
    30
  5
16B
 10
885688.663
 20
7276594.711
 30
0.0
  0
SEQEND
  8
11
  6
CONTINUOUS
 62
    30
  5
16C
  0
POLYLINE
  8
11
  6
CONTINUOUS
 62
    30
  5
16D
 66
     1
 10
0.0
 20
0.0
 30
0.0
  0
VERTEX
  8
11
  6
CONTINUOUS
 62
    30
  5
16E
 10
885634.623
 20
7276593.013
 30
0.0
  0
VERTEX
  8
11
  6
CONTINUOUS
 62
    30
  5
16F
 10
885638.057
 20
7276602.448
 30
0.0
  0
VERTEX
  8
11
  6
CONTINUOUS
 62
    30
  5
170
 10
885641.491
 20
7276611.882
 30
0.0
  0
SEQEND
  8
11
  6
CONTINUOUS
 62
    30
  5
171
  0
LINE
  8
7
  6
CONTINUOUS
 62
     3
  5
172
 10
885581.51
 20
7277230.819
 30
0.0
 11
885587.281
 21
7277239.306
 31
0.0
  0
LINE
  8
7
  6
CONTINUOUS
 62
     3
  5
173
 10
885583.863
 20
7277268.099
 30
0.0
 11
885590.717
 21
7277276.497
 31
0.0
  0
ARC
  8
7
  6
CONTINUOUS
 62
     3
  5
174
 10
885468.543531
 20
7276985.964081
 30
0.0
 40
15.06
 50
296.379744
 51
347.776814
210
0.0
220
0.0
230
1.0
  0
ARC
  8
7
  6
CONTINUOUS
 62
     3
  5
175
 10
885511.12479
 20
7277007.067176
 30
0.0
 40
2.008
 50
167.776811
 51
312.254886
210
0.0
220
0.0
230
1.0
  0
LINE
  8
7
  6
CONTINUOUS
 62
     3
  5
176
 10
885575.936
 20
7277221.896
 30
0.0
 11
885581.51
 21
7277230.819
 31
0.0
  0
LINE
  8
7
  6
CONTINUOUS
 62
     3
  5
177
 10
885570.523
 20
7277212.376
 30
0.0
 11
885575.936
 21
7277221.896
 31
0.0
  0
LINE
  8
7
  6
CONTINUOUS
 62
     3
  5
178
 10
885565.235
 20
7277202.097
 30
0.0
 11
885570.523
 21
7277212.376
 31
0.0
  0
LINE
  8
7
  6
CONTINUOUS
 62
     3
  5
179
 10
885560.039
 20
7277190.901
 30
0.0
 11
885565.235
 21
7277202.097
 31
0.0
  0
LINE
  8
7
  6
CONTINUOUS
 62
     3
  5
17A
 10
885554.912
 20
7277178.635
 30
0.0
 11
885560.039
 21
7277190.901
 31
0.0
  0
LINE
  8
7
  6
CONTINUOUS
 62
     3
  5
17B
 10
885549.81
 20
7277165.078
 30
0.0
 11
885554.912
 21
7277178.635
 31
0.0
  0
LINE
  8
7
  6
CONTINUOUS
 62
     3
  5
17C
 10
885544.62
 20
7277149.687
 30
0.0
 11
885549.81
 21
7277165.078
 31
0.0
  0
LINE
  8
7
  6
CONTINUOUS
 62
     3
  5
17D
 10
885539.201
 20
7277131.832
 30
0.0
 11
885544.62
 21
7277149.687
 31
0.0
  0
LINE
  8
7
  6
CONTINUOUS
 62
     3
  5
17E
 10
885533.425
 20
7277110.894
 30
0.0
 11
885539.201
 21
7277131.832
 31
0.0
  0
LINE
  8
7
  6
CONTINUOUS
 62
     3
  5
17F
 10
885527.157
 20
7277086.263
 30
0.0
 11
885533.425
 21
7277110.894
 31
0.0
  0
LINE
  8
7
  6
CONTINUOUS
 62
     3
  5
180
 10
885520.27
 20
7277057.336
 30
0.0
 11
885527.157
 21
7277086.263
 31
0.0
  0
LINE
  8
7
  6
CONTINUOUS
 62
     3
  5
181
 10
885512.632
 20
7277023.51
 30
0.0
 11
885520.27
 21
7277057.336
 31
0.0
  0
LINE
  8
7
  6
CONTINUOUS
 62
     3
  5
182
 10
885509.162
 20
7277007.492
 30
0.0
 11
885512.632
 21
7277023.51
 31
0.0
  0
LINE
  8
7
  6
CONTINUOUS
 62
     3
  5
183
 10
885577.26
 20
7277259.608
 30
0.0
 11
885583.863
 21
7277268.099
 31
0.0
  0
LINE
  8
7
  6
CONTINUOUS
 62
     3
  5
184
 10
885570.873
 20
7277250.886
 30
0.0
 11
885577.26
 21
7277259.608
 31
0.0
  0
LINE
  8
7
  6
CONTINUOUS
 62
     3
  5
185
 10
885564.685
 20
7277241.788
 30
0.0
 11
885570.873
 21
7277250.886
 31
0.0
  0
LINE
  8
7
  6
CONTINUOUS
 62
     3
  5
186
 10
885558.685
 20
7277232.183
 30
0.0
 11
885564.685
 21
7277241.788
 31
0.0
  0
LINE
  8
7
  6
CONTINUOUS
 62
     3
  5
187
 10
885552.859
 20
7277221.936
 30
0.0
 11
885558.685
 21
7277232.183
 31
0.0
  0
LINE
  8
7
  6
CONTINUOUS
 62
     3
  5
188
 10
885547.192
 20
7277210.92
 30
0.0
 11
885552.859
 21
7277221.936
 31
0.0
  0
LINE
  8
7
  6
CONTINUOUS
 62
     3
  5
189
 10
885541.662
 20
7277199.003
 30
0.0
 11
885547.192
 21
7277210.92
 31
0.0
  0
LINE
  8
7
  6
CONTINUOUS
 62
     3
  5
18A
 10
885536.246
 20
7277186.046
 30
0.0
 11
885541.662
 21
7277199.003
 31
0.0
  0
LINE
  8
7
  6
CONTINUOUS
 62
     3
  5
18B
 10
885530.894
 20
7277171.824
 30
0.0
 11
885536.246
 21
7277186.046
 31
0.0
  0
LINE
  8
7
  6
CONTINUOUS
 62
     3
  5
18C
 10
885525.495
 20
7277155.812
 30
0.0
 11
885530.894
 21
7277171.824
 31
0.0
  0
LINE
  8
7
  6
CONTINUOUS
 62
     3
  5
18D
 10
885519.913
 20
7277137.418
 30
0.0
 11
885525.495
 21
7277155.812
 31
0.0
  0
LINE
  8
7
  6
CONTINUOUS
 62
     3
  5
18E
 10
885514.013
 20
7277116.041
 30
0.0
 11
885519.913
 21
7277137.418
 31
0.0
  0
LINE
  8
7
  6
CONTINUOUS
 62
     3
  5
18F
 10
885507.658
 20
7277091.064
 30
0.0
 11
885514.013
 21
7277116.041
 31
0.0
  0
LINE
  8
7
  6
CONTINUOUS
 62
     3
  5
190
 10
885500.709
 20
7277061.873
 30
0.0
 11
885507.658
 21
7277091.064
 31
0.0
  0
LINE
  8
7
  6
CONTINUOUS
 62
     3
  5
191
 10
885493.026
 20
7277027.847
 30
0.0
 11
885500.709
 21
7277061.873
 31
0.0
  0
LINE
  8
7
  6
CONTINUOUS
 62
     3
  5
192
 10
885483.262
 20
7276982.776
 30
0.0
 11
885493.026
 21
7277027.847
 31
0.0
  0
ARC
  8
7
  6
CONTINUOUS
 62
     3
  5
193
 10
885443.661691
 20
7277036.13275
 30
0.0
 40
71.060012
 50
200.266331
 51
296.379742
210
0.0
220
0.0
230
1.0
  0
LINE
  8
7
  6
CONTINUOUS
 62
     3
  5
194
 10
885634.925
 20
7277294.838
 30
0.0
 11
885642.747
 21
7277302.273
 31
0.0
  0
LINE
  8
7
  6
CONTINUOUS
 62
     3
  5
195
 10
885627.348
 20
7277287.229
 30
0.0
 11
885634.925
 21
7277294.838
 31
0.0
  0
LINE
  8
7
  6
CONTINUOUS
 62
     3
  5
196
 10
885620.021
 20
7277279.471
 30
0.0
 11
885627.348
 21
7277287.229
 31
0.0
  0
LINE
  8
7
  6
CONTINUOUS
 62
     3
  5
197
 10
885612.946
 20
7277271.593
 30
0.0
 11
885620.021
 21
7277279.471
 31
0.0
  0
LINE
  8
7
  6
CONTINUOUS
 62
     3
  5
198
 10
885606.127
 20
7277263.62
 30
0.0
 11
885612.946
 21
7277271.593
 31
0.0
  0
LINE
  8
7
  6
CONTINUOUS
 62
     3
  5
199
 10
885599.568
 20
7277255.585
 30
0.0
 11
885606.127
 21
7277263.62
 31
0.0
  0
LINE
  8
7
  6
CONTINUOUS
 62
     3
  5
19A
 10
885593.289
 20
7277247.51
 30
0.0
 11
885599.568
 21
7277255.585
 31
0.0
  0
LINE
  8
7
  6
CONTINUOUS
 62
     3
  5
19B
 10
885587.281
 20
7277239.306
 30
0.0
 11
885593.289
 21
7277247.51
 31
0.0
  0
LINE
  8
7
  6
CONTINUOUS
 62
     3
  5
19C
 10
885605.25
 20
7277293.076
 30
0.0
 11
885612.932
 21
7277301.209
 31
0.0
  0
LINE
  8
7
  6
CONTINUOUS
 62
     3
  5
19D
 10
885597.844
 20
7277284.829
 30
0.0
 11
885605.25
 21
7277293.076
 31
0.0
  0
LINE
  8
7
  6
CONTINUOUS
 62
     3
  5
19E
 10
885590.717
 20
7277276.497
 30
0.0
 11
885597.844
 21
7277284.829
 31
0.0
  0
LINE
  8
7
  6
CONTINUOUS
 62
     3
  5
19F
 10
885828.681
 20
7277390.761
 30
0.0
 11
885840.587
 21
7277392.259
 31
0.0
  0
LINE
  8
7
  6
CONTINUOUS
 62
     3
  5
1A0
 10
885825.808
 20
7277410.639
 30
0.0
 11
885838.485
 21
7277412.234
 31
0.0
  0
LINE
  8
7
  6
CONTINUOUS
 62
     3
  5
1A1
 10
885817.316
 20
7277388.904
 30
0.0
 11
885828.681
 21
7277390.761
 31
0.0
  0
LINE
  8
7
  6
CONTINUOUS
 62
     3
  5
1A2
 10
885806.182
 20
7277386.731
 30
0.0
 11
885817.316
 21
7277388.904
 31
0.0
  0
LINE
  8
7
  6
CONTINUOUS
 62
     3
  5
1A3
 10
885795.241
 20
7277384.256
 30
0.0
 11
885806.182
 21
7277386.731
 31
0.0
  0
LINE
  8
7
  6
CONTINUOUS
 62
     3
  5
1A4
 10
885784.491
 20
7277381.473
 30
0.0
 11
885795.241
 21
7277384.256
 31
0.0
  0
LINE
  8
7
  6
CONTINUOUS
 62
     3
  5
1A5
 10
885773.92
 20
7277378.379
 30
0.0
 11
885784.491
 21
7277381.473
 31
0.0
  0
LINE
  8
7
  6
CONTINUOUS
 62
     3
  5
1A6
 10
885763.517
 20
7277374.969
 30
0.0
 11
885773.92
 21
7277378.379
 31
0.0
  0
LINE
  8
7
  6
CONTINUOUS
 62
     3
  5
1A7
 10
885753.269
 20
7277371.239
 30
0.0
 11
885763.517
 21
7277374.969
 31
0.0
  0
LINE
  8
7
  6
CONTINUOUS
 62
     3
  5
1A8
 10
885743.165
 20
7277367.182
 30
0.0
 11
885753.269
 21
7277371.239
 31
0.0
  0
LINE
  8
7
  6
CONTINUOUS
 62
     3
  5
1A9
 10
885733.194
 20
7277362.794
 30
0.0
 11
885743.165
 21
7277367.182
 31
0.0
  0
LINE
  8
7
  6
CONTINUOUS
 62
     3
  5
1AA
 10
885723.346
 20
7277358.069
 30
0.0
 11
885733.194
 21
7277362.794
 31
0.0
  0
LINE
  8
7
  6
CONTINUOUS
 62
     3
  5
1AB
 10
885713.632
 20
7277353.018
 30
0.0
 11
885723.346
 21
7277358.069
 31
0.0
  0
LINE
  8
7
  6
CONTINUOUS
 62
     3
  5
1AC
 10
885704.07
 20
7277347.653
 30
0.0
 11
885713.632
 21
7277353.018
 31
0.0
  0
LINE
  8
7
  6
CONTINUOUS
 62
     3
  5
1AD
 10
885694.677
 20
7277341.982
 30
0.0
 11
885704.07
 21
7277347.653
 31
0.0
  0
LINE
  8
7
  6
CONTINUOUS
 62
     3
  5
1AE
 10
885685.469
 20
7277336.021
 30
0.0
 11
885694.677
 21
7277341.982
 31
0.0
  0
LINE
  8
7
  6
CONTINUOUS
 62
     3
  5
1AF
 10
885676.462
 20
7277329.782
 30
0.0
 11
885685.469
 21
7277336.021
 31
0.0
  0
LINE
  8
7
  6
CONTINUOUS
 62
     3
  5
1B0
 10
885667.675
 20
7277323.274
 30
0.0
 11
885676.462
 21
7277329.782
 31
0.0
  0
LINE
  8
7
  6
CONTINUOUS
 62
     3
  5
1B1
 10
885659.124
 20
7277316.513
 30
0.0
 11
885667.675
 21
7277323.274
 31
0.0
  0
LINE
  8
7
  6
CONTINUOUS
 62
     3
  5
1B2
 10
885650.814
 20
7277309.506
 30
0.0
 11
885659.124
 21
7277316.513
 31
0.0
  0
LINE
  8
7
  6
CONTINUOUS
 62
     3
  5
1B3
 10
885813.773
 20
7277408.671
 30
0.0
 11
885825.808
 21
7277410.639
 31
0.0
  0
LINE
  8
7
  6
CONTINUOUS
 62
     3
  5
1B4
 10
885802.042
 20
7277406.383
 30
0.0
 11
885813.773
 21
7277408.671
 31
0.0
  0
LINE
  8
7
  6
CONTINUOUS
 62
     3
  5
1B5
 10
885790.508
 20
7277403.773
 30
0.0
 11
885802.042
 21
7277406.383
 31
0.0
  0
LINE
  8
7
  6
CONTINUOUS
 62
     3
  5
1B6
 10
885779.154
 20
7277400.833
 30
0.0
 11
885790.508
 21
7277403.773
 31
0.0
  0
LINE
  8
7
  6
CONTINUOUS
 62
     3
  5
1B7
 10
885767.972
 20
7277397.561
 30
0.0
 11
885779.154
 21
7277400.833
 31
0.0
  0
LINE
  8
7
  6
CONTINUOUS
 62
     3
  5
1B8
 10
885756.954
 20
7277393.95
 30
0.0
 11
885767.972
 21
7277397.561
 31
0.0
  0
LINE
  8
7
  6
CONTINUOUS
 62
     3
  5
1B9
 10
885746.091
 20
7277389.995
 30
0.0
 11
885756.954
 21
7277393.95
 31
0.0
  0
LINE
  8
7
  6
CONTINUOUS
 62
     3
  5
1BA
 10
885735.378
 20
7277385.694
 30
0.0
 11
885746.091
 21
7277389.995
 31
0.0
  0
LINE
  8
7
  6
CONTINUOUS
 62
     3
  5
1BB
 10
885724.804
 20
7277381.04
 30
0.0
 11
885735.378
 21
7277385.694
 31
0.0
  0
LINE
  8
7
  6
CONTINUOUS
 62
     3
  5
1BC
 10
885714.369
 20
7277376.035
 30
0.0
 11
885724.804
 21
7277381.04
 31
0.0
  0
LINE
  8
7
  6
CONTINUOUS
 62
     3
  5
1BD
 10
885704.085
 20
7277370.686
 30
0.0
 11
885714.369
 21
7277376.035
 31
0.0
  0
LINE
  8
7
  6
CONTINUOUS
 62
     3
  5
1BE
 10
885693.966
 20
7277365.008
 30
0.0
 11
885704.085
 21
7277370.686
 31
0.0
  0
LINE
  8
7
  6
CONTINUOUS
 62
     3
  5
1BF
 10
885684.03
 20
7277359.01
 30
0.0
 11
885693.966
 21
7277365.008
 31
0.0
  0
LINE
  8
7
  6
CONTINUOUS
 62
     3
  5
1C0
 10
885674.292
 20
7277352.707
 30
0.0
 11
885684.03
 21
7277359.01
 31
0.0
  0
LINE
  8
7
  6
CONTINUOUS
 62
     3
  5
1C1
 10
885664.767
 20
7277346.107
 30
0.0
 11
885674.292
 21
7277352.707
 31
0.0
  0
LINE
  8
7
  6
CONTINUOUS
 62
     3
  5
1C2
 10
885655.471
 20
7277339.223
 30
0.0
 11
885664.767
 21
7277346.107
 31
0.0
  0
LINE
  8
7
  6
CONTINUOUS
 62
     3
  5
1C3
 10
885646.421
 20
7277332.068
 30
0.0
 11
885655.471
 21
7277339.223
 31
0.0
  0
LINE
  8
7
  6
CONTINUOUS
 62
     3
  5
1C4
 10
885637.636
 20
7277324.66
 30
0.0
 11
885646.421
 21
7277332.068
 31
0.0
  0
LINE
  8
7
  6
CONTINUOUS
 62
     3
  5
1C5
 10
885629.125
 20
7277317.028
 30
0.0
 11
885637.636
 21
7277324.66
 31
0.0
  0
LINE
  8
7
  6
CONTINUOUS
 62
     3
  5
1C6
 10
885620.89
 20
7277309.203
 30
0.0
 11
885629.125
 21
7277317.028
 31
0.0
  0
ARC
  8
7
  6
CONTINUOUS
 62
     3
  5
1C7
 10
885945.118846
 20
7277446.110434
 30
0.0
 40
35.14
 50
265.566322
 51
312.254889
210
0.0
220
0.0
230
1.0
  0
ARC
  8
7
  6
CONTINUOUS
 62
     3
  5
1C8
 10
885925.112384
 20
7277387.240867
 30
0.0
 40
5.02
 50
312.254886
 51
85.566319
210
0.0
220
0.0
230
1.0
  0
LINE
  8
7
  6
CONTINUOUS
 62
     3
  5
1C9
 10
885922.706
 20
7277392.463
 30
0.0
 11
885925.501
 21
7277392.246
 31
0.0
  0
LINE
  8
7
  6
CONTINUOUS
 62
     3
  5
1CA
 10
885901.925
 20
7277393.594
 30
0.0
 11
885922.706
 21
7277392.463
 31
0.0
  0
LINE
  8
7
  6
CONTINUOUS
 62
     3
  5
1CB
 10
885883.714
 20
7277394.077
 30
0.0
 11
885901.925
 21
7277393.594
 31
0.0
  0
LINE
  8
7
  6
CONTINUOUS
 62
     3
  5
1CC
 10
885867.688
 20
7277393.975
 30
0.0
 11
885883.714
 21
7277394.077
 31
0.0
  0
LINE
  8
7
  6
CONTINUOUS
 62
     3
  5
1CD
 10
885853.448
 20
7277393.349
 30
0.0
 11
885867.688
 21
7277393.975
 31
0.0
  0
LINE
  8
7
  6
CONTINUOUS
 62
     3
  5
1CE
 10
885840.587
 20
7277392.259
 30
0.0
 11
885853.448
 21
7277393.349
 31
0.0
  0
LINE
  8
7
  6
CONTINUOUS
 62
     3
  5
1CF
 10
885924.028
 20
7277412.5
 30
0.0
 11
885942.402
 21
7277411.075
 31
0.0
  0
LINE
  8
7
  6
CONTINUOUS
 62
     3
  5
1D0
 10
885902.737
 20
7277413.659
 30
0.0
 11
885924.028
 21
7277412.5
 31
0.0
  0
LINE
  8
7
  6
CONTINUOUS
 62
     3
  5
1D1
 10
885883.917
 20
7277414.158
 30
0.0
 11
885902.737
 21
7277413.659
 31
0.0
  0
LINE
  8
7
  6
CONTINUOUS
 62
     3
  5
1D2
 10
885867.182
 20
7277414.052
 30
0.0
 11
885883.917
 21
7277414.158
 31
0.0
  0
LINE
  8
7
  6
CONTINUOUS
 62
     3
  5
1D3
 10
885852.16
 20
7277413.392
 30
0.0
 11
885867.182
 21
7277414.052
 31
0.0
  0
LINE
  8
7
  6
CONTINUOUS
 62
     3
  5
1D4
 10
885838.485
 20
7277412.234
 30
0.0
 11
885852.16
 21
7277413.392
 31
0.0
  0
ARC
  8
27
  6
CONTINUOUS
 62
     5
  5
1D5
 10
886973.878353
 20
7277233.45529
 30
0.0
 40
129.618485
 50
92.41865
 51
184.348806
210
0.0
220
0.0
230
1.0
  0
LINE
  8
27
  6
CONTINUOUS
 62
     5
  5
1D6
 10
886749.689
 20
7277511.663
 30
0.0
 11
886759.621
 21
7277144.134
 31
0.0
  0
ARC
  8
27
  6
CONTINUOUS
 62
     5
  5
1D7
 10
887073.507481
 20
7277163.967004
 30
0.0
 40
234.192808
 50
183.615381
 51
277.301397
210
0.0
220
0.0
230
1.0
  0
ARC
  8
27
  6
CONTINUOUS
 62
     5
  5
1D8
 10
887073.507481
 20
7277163.967004
 30
0.0
 40
314.512808
 50
183.615381
 51
277.301397
210
0.0
220
0.0
230
1.0
  0
LINE
  8
27
  6
CONTINUOUS
 62
     5
  5
1D9
 10
886839.78
 20
7277149.199
 30
0.0
 11
886844.633
 21
7277223.626
 31
0.0
  0
LINE
  8
27
  6
CONTINUOUS
 62
     5
  5
1DA
 10
886968.408
 20
7277362.959
 30
0.0
 11
886967.362
 21
7277372.837
 31
0.0
  0
LINE
  8
7
  6
CONTINUOUS
 62
     3
  5
1DB
 10
886760.215
 20
7278263.347
 30
0.0
 11
885458.382
 21
7278206.565
 31
0.0
  0
LINE
  8
7
  6
CONTINUOUS
 62
     3
  5
1DC
 10
886753.236
 20
7278283.141
 30
0.0
 11
885457.508
 21
7278226.626
 31
0.0
  0
ARC
  8
7
  6
CONTINUOUS
 62
     3
  5
1DD
 10
885441.360523
 20
7278119.660627
 30
0.0
 40
90.494732
 50
137.840367
 51
180.925803
210
0.0
220
0.0
230
1.0
  0
ARC
  8
7
  6
CONTINUOUS
 62
     3
  5
1DE
 10
885444.128401
 20
7278103.703572
 30
0.0
 40
103.694749
 50
83.022494
 51
132.810944
210
0.0
220
0.0
230
1.0
  0
ARC
  8
7
  6
CONTINUOUS
 62
     3
  5
1DF
 10
885444.128401
 20
7278103.703572
 30
0.0
 40
123.774749
 50
83.022494
 51
132.810944
210
0.0
220
0.0
230
1.0
  0
ARC
  8
20
  6
HIDDEN
 62
   204
  5
1E1
 10
886840.473536
 20
7278545.25238
 30
0.0
 40
50.2
 50
85.937169
 51
178.351672
210
0.0
220
0.0
230
1.0
  0
ARC
  8
20
  6
HIDDEN
 62
   204
  5
1E2
 10
886843.710951
 20
7278657.753729
 30
0.0
 40
50.2
 50
178.351672
 51
265.937169
210
0.0
220
0.0
230
1.0
  0
LINE
  8
7
  6
CONTINUOUS
 62
     3
  5
1E3
 10
886790.294
 20
7278546.696
 30
0.0
 11
886784.326
 21
7278339.299
 31
0.0
  0
ARC
  8
7
  6
CONTINUOUS
 62
     3
  5
1E4
 10
886752.798441
 20
7278293.171585
 30
0.0
 40
10.04
 50
272.497436
 51
356.187372
210
0.0
220
0.0
230
1.0
  0
ARC
  8
7
  6
CONTINUOUS
 62
     3
  5
1E5
 10
886111.661252
 20
7278335.897791
 30
0.0
 40
652.599277
 50
356.187372
 51
0.319058
210
0.0
220
0.0
230
1.0
  0
ARC
  8
7
  6
CONTINUOUS
 62
     3
  5
1E6
 10
886111.661252
 20
7278335.897791
 30
0.0
 40
672.679277
 50
344.242044
 51
0.319061
210
0.0
220
0.0
230
1.0
  0
ARC
  8
7
  6
CONTINUOUS
 62
     3
  5
1E7
 10
886111.661252
 20
7278335.897791
 30
0.0
 40
652.599277
 50
344.242044
 51
353.617069
210
0.0
220
0.0
230
1.0
  0
ARC
  8
20
  6
HIDDEN
 62
   204
  5
1E8
 10
887038.02216
 20
7278643.95203
 30
0.0
 40
50.2
 50
265.937169
 51
342.142572
210
0.0
220
0.0
230
1.0
  0
LINE
  8
20
  6
HIDDEN
 62
   204
  5
1E9
 10
887053.762
 20
7278580.429
 30
0.0
 11
886844.031
 21
7278595.326
 31
0.0
  0
LINE
  8
10
  6
CONTINUOUS
 62
     2
  5
1EB
 10
886927.37
 20
7278623.029
 30
0.0
 11
886907.34
 21
7278624.452
 31
0.0
  0
LINE
  8
10
  6
CONTINUOUS
 62
     2
  5
1EC
 10
886928.792
 20
7278643.059
 30
0.0
 11
886927.37
 21
7278623.029
 31
0.0
  0
LINE
  8
10
  6
CONTINUOUS
 62
     2
  5
1ED
 10
886908.763
 20
7278644.481
 30
0.0
 11
886928.792
 21
7278643.059
 31
0.0
  0
LINE
  8
10
  6
CONTINUOUS
 62
     2
  5
1EE
 10
886907.34
 20
7278624.452
 30
0.0
 11
886908.763
 21
7278644.481
 31
0.0
  0
LINE
  8
20
  6
HIDDEN
 62
   204
  5
1EF
 10
887034.466
 20
7278593.878
 30
0.0
 11
886840.155
 21
7278607.68
 31
0.0
  0
LINE
  8
10
  6
CONTINUOUS
 62
     2
  5
1F0
 10
887104.872
 20
7278633.3
 30
0.0
 11
887099.321
 21
7278639.104
 31
0.0
  0
LINE
  8
10
  6
CONTINUOUS
 62
     2
  5
1F1
 10
887113.579
 20
7278641.626
 30
0.0
 11
887104.872
 21
7278633.3
 31
0.0
  0
LINE
  8
10
  6
CONTINUOUS
 62
     2
  5
1F2
 10
887108.029
 20
7278647.431
 30
0.0
 11
887113.579
 21
7278641.626
 31
0.0
  0
LINE
  8
10
  6
CONTINUOUS
 62
     2
  5
1F3
 10
887099.321
 20
7278639.104
 30
0.0
 11
887108.029
 21
7278647.431
 31
0.0
  0
ARC
  8
7
  6
CONTINUOUS
 62
     3
  5
1F4
 10
887230.123191
 20
7278501.196876
 30
0.0
 40
25.1
 50
39.664281
 51
120.334547
210
0.0
220
0.0
230
1.0
  0
ARC
  8
7
  6
CONTINUOUS
 62
     3
  5
1F5
 10
887230.483271
 20
7278700.290312
 30
0.0
 40
25.1
 50
239.458203
 51
320.128469
210
0.0
220
0.0
230
1.0
  0
ARC
  8
7
  6
CONTINUOUS
 62
     3
  5
1F6
 10
887171.810335
 20
7278600.849384
 30
0.0
 40
90.36
 50
59.458203
 51
162.142575
210
0.0
220
0.0
230
1.0
  0
ARC
  8
20
  6
HIDDEN
 62
   204
  5
1F7
 10
887050.205625
 20
7278530.355354
 30
0.0
 40
50.2
 50
30.100792
 51
85.937169
210
0.0
220
0.0
230
1.0
  0
ARC
  8
7
  6
CONTINUOUS
 62
     3
  5
1F8
 10
887349.9191
 20
7278600.527256
 30
0.0
 40
130.52
 50
219.664281
 51
246.172697
210
0.0
220
0.0
230
1.0
  0
ARC
  8
7
  6
CONTINUOUS
 62
     3
  5
1F9
 10
887171.810335
 20
7278600.849384
 30
0.0
 40
90.36
 50
210.100792
 51
300.334547
210
0.0
220
0.0
230
1.0
  0
LINE
  8
20
  6
HIDDEN
 62
   204
  5
1FA
 10
886982.236
 20
7280300.422
 30
0.0
 11
886979.934
 21
7280225.239
 31
0.0
  0
LINE
  8
20
  6
HIDDEN
 62
   204
  5
1FB
 10
886972.2
 20
7280300.729
 30
0.0
 11
886969.9
 21
7280225.576
 31
0.0
  0
LINE
  8
7
  6
CONTINUOUS
 62
     3
  5
1FC
 10
886843.074
 20
7280380.802
 30
0.0
 11
886839.587
 21
7280259.643
 31
0.0
  0
LINE
  8
10
  6
CONTINUOUS
 62
     2
  5
1FD
 10
887010.888
 20
7280237.405
 30
0.0
 11
886999.347
 21
7280237.749
 31
0.0
  0
LINE
  8
10
  6
CONTINUOUS
 62
     2
  5
1FE
 10
887010.947
 20
7280239.412
 30
0.0
 11
887010.888
 21
7280237.405
 31
0.0
  0
LINE
  8
10
  6
CONTINUOUS
 62
     2
  5
1FF
 10
887024.827
 20
7280238.999
 30
0.0
 11
887010.947
 21
7280239.412
 31
0.0
  0
LINE
  8
10
  6
CONTINUOUS
 62
     2
  5
200
 10
887026.022
 20
7280279.141
 30
0.0
 11
887024.827
 21
7280238.999
 31
0.0
  0
LINE
  8
10
  6
CONTINUOUS
 62
     2
  5
201
 10
887000.601
 20
7280279.898
 30
0.0
 11
887026.022
 21
7280279.141
 31
0.0
  0
LINE
  8
10
  6
CONTINUOUS
 62
     2
  5
202
 10
886999.347
 20
7280237.749
 30
0.0
 11
887000.601
 21
7280279.898
 31
0.0
  0
ARC
  8
20
  6
HIDDEN
 62
   204
  5
203
 10
886949.828548
 20
7280226.190561
 30
0.0
 40
20.08
 50
268.212886
 51
358.246094
210
0.0
220
0.0
230
1.0
  0
ARC
  8
20
  6
HIDDEN
 62
   204
  5
204
 10
887000.004139
 20
7280224.625025
 30
0.0
 40
20.08
 50
178.246094
 51
268.212886
210
0.0
220
0.0
230
1.0
  0
LINE
  8
20
  6
HIDDEN
 62
   204
  5
205
 10
887001.889
 20
7280204.476
 30
0.0
 11
887001.263
 21
7280184.406
 31
0.0
  0
LINE
  8
20
  6
HIDDEN
 62
   204
  5
206
 10
886999.378
 20
7280204.555
 30
0.0
 11
887001.889
 21
7280204.476
 31
0.0
  0
ARC
  8
20
  6
HIDDEN
 62
   204
  5
207
 10
886886.300867
 20
7280137.768726
 30
0.0
 40
50.2
 50
88.212886
 51
178.351672
210
0.0
220
0.0
230
1.0
  0
ARC
  8
20
  6
HIDDEN
 62
   204
  5
208
 10
886889.766457
 20
7280258.199225
 30
0.0
 40
50.2
 50
178.351672
 51
268.212886
210
0.0
220
0.0
230
1.0
  0
LINE
  8
20
  6
HIDDEN
 62
   204
  5
209
 10
886887.867
 20
7280187.945
 30
0.0
 11
887001.263
 21
7280184.406
 31
0.0
  0
LINE
  8
20
  6
HIDDEN
 62
   204
  5
20A
 10
886888.201
 20
7280208.024
 30
0.0
 11
886949.203
 21
7280206.12
 31
0.0
  0
LINE
  8
20
  6
HIDDEN
 62
   204
  5
20B
 10
886972.2
 20
7280300.729
 30
0.0
 11
886982.236
 21
7280300.422
 31
0.0
  0
LINE
  8
7
  6
CONTINUOUS
 62
     3
  5
20C
 10
888885.069
 20
7277211.942
 30
0.0
 11
889014.837
 21
7275626.105
 31
0.0
  0
LINE
  8
7
  6
CONTINUOUS
 62
     3
  5
20D
 10
888900.162
 20
7277212.147
 30
0.0
 11
889030.763
 21
7275616.138
 31
0.0
  0
LINE
  8
27
  6
CONTINUOUS
 62
     5
  5
20E
 10
888489.292
 20
7277405.56
 30
0.0
 11
888453.206
 21
7276214.513
 31
0.0
  0
LINE
  8
27
  6
CONTINUOUS
 62
     5
  5
20F
 10
888333.288
 20
7277229.467
 30
0.0
 11
888302.675
 21
7276219.074
 31
0.0
  0
LINE
  8
7
  6
CONTINUOUS
 62
     3
  5
210
 10
889050.426
 20
7275590.311
 30
0.0
 11
889377.34
 21
7275470.604
 31
0.0
  0
POLYLINE
  8
11
  6
CONTINUOUS
 62
    30
  5
211
 66
     1
 10
0.0
 20
0.0
 30
0.0
  0
VERTEX
  8
11
  6
CONTINUOUS
 62
    30
  5
212
 10
889266.877
 20
7275270.876
 30
0.0
  0
VERTEX
  8
11
  6
CONTINUOUS
 62
    30
  5
213
 10
889270.311
 20
7275280.31
 30
0.0
  0
VERTEX
  8
11
  6
CONTINUOUS
 62
    30
  5
214
 10
889273.746
 20
7275289.745
 30
0.0
  0
SEQEND
  8
11
  6
CONTINUOUS
 62
    30
  5
215
  0
POLYLINE
  8
11
  6
CONTINUOUS
 62
    30
  5
216
 66
     1
 10
0.0
 20
0.0
 30
0.0
  0
VERTEX
  8
11
  6
CONTINUOUS
 62
    30
  5
217
 10
887757.368
 20
7275820.336
 30
0.0
  0
VERTEX
  8
11
  6
CONTINUOUS
 62
    30
  5
218
 10
887760.803
 20
7275829.77
 30
0.0
  0
VERTEX
  8
11
  6
CONTINUOUS
 62
    30
  5
219
 10
887764.236
 20
7275839.205
 30
0.0
  0
SEQEND
  8
11
  6
CONTINUOUS
 62
    30
  5
21A
  0
POLYLINE
  8
11
  6
CONTINUOUS
 62
    30
  5
21B
 66
     1
 10
0.0
 20
0.0
 30
0.0
  0
VERTEX
  8
11
  6
CONTINUOUS
 62
    30
  5
21C
 10
888040.401
 20
7275717.312
 30
0.0
  0
VERTEX
  8
11
  6
CONTINUOUS
 62
    30
  5
21D
 10
888043.836
 20
7275726.746
 30
0.0
  0
VERTEX
  8
11
  6
CONTINUOUS
 62
    30
  5
21E
 10
888047.27
 20
7275736.181
 30
0.0
  0
SEQEND
  8
11
  6
CONTINUOUS
 62
    30
  5
21F
  0
POLYLINE
  8
11
  6
CONTINUOUS
 62
    30
  5
220
 66
     1
 10
0.0
 20
0.0
 30
0.0
  0
VERTEX
  8
11
  6
CONTINUOUS
 62
    30
  5
221
 10
887993.229
 20
7275734.483
 30
0.0
  0
VERTEX
  8
11
  6
CONTINUOUS
 62
    30
  5
222
 10
887996.663
 20
7275743.917
 30
0.0
  0
VERTEX
  8
11
  6
CONTINUOUS
 62
    30
  5
223
 10
888000.098
 20
7275753.351
 30
0.0
  0
SEQEND
  8
11
  6
CONTINUOUS
 62
    30
  5
224
  0
POLYLINE
  8
11
  6
CONTINUOUS
 62
    30
  5
225
 66
     1
 10
0.0
 20
0.0
 30
0.0
  0
VERTEX
  8
11
  6
CONTINUOUS
 62
    30
  5
226
 10
887946.057
 20
7275751.654
 30
0.0
  0
VERTEX
  8
11
  6
CONTINUOUS
 62
    30
  5
227
 10
887949.491
 20
7275761.088
 30
0.0
  0
VERTEX
  8
11
  6
CONTINUOUS
 62
    30
  5
228
 10
887952.926
 20
7275770.522
 30
0.0
  0
SEQEND
  8
11
  6
CONTINUOUS
 62
    30
  5
229
  0
POLYLINE
  8
11
  6
CONTINUOUS
 62
    30
  5
22A
 66
     1
 10
0.0
 20
0.0
 30
0.0
  0
VERTEX
  8
11
  6
CONTINUOUS
 62
    30
  5
22B
 10
887898.885
 20
7275768.824
 30
0.0
  0
VERTEX
  8
11
  6
CONTINUOUS
 62
    30
  5
22C
 10
887902.319
 20
7275778.259
 30
0.0
  0
VERTEX
  8
11
  6
CONTINUOUS
 62
    30
  5
22D
 10
887905.754
 20
7275787.692
 30
0.0
  0
SEQEND
  8
11
  6
CONTINUOUS
 62
    30
  5
22E
  0
POLYLINE
  8
11
  6
CONTINUOUS
 62
    30
  5
22F
 66
     1
 10
0.0
 20
0.0
 30
0.0
  0
VERTEX
  8
11
  6
CONTINUOUS
 62
    30
  5
230
 10
887851.713
 20
7275785.995
 30
0.0
  0
VERTEX
  8
11
  6
CONTINUOUS
 62
    30
  5
231
 10
887855.147
 20
7275795.429
 30
0.0
  0
VERTEX
  8
11
  6
CONTINUOUS
 62
    30
  5
232
 10
887858.582
 20
7275804.863
 30
0.0
  0
SEQEND
  8
11
  6
CONTINUOUS
 62
    30
  5
233
  0
POLYLINE
  8
11
  6
CONTINUOUS
 62
    30
  5
234
 66
     1
 10
0.0
 20
0.0
 30
0.0
  0
VERTEX
  8
11
  6
CONTINUOUS
 62
    30
  5
235
 10
887804.541
 20
7275803.165
 30
0.0
  0
VERTEX
  8
11
  6
CONTINUOUS
 62
    30
  5
236
 10
887807.975
 20
7275812.6
 30
0.0
  0
VERTEX
  8
11
  6
CONTINUOUS
 62
    30
  5
237
 10
887811.41
 20
7275822.034
 30
0.0
  0
SEQEND
  8
11
  6
CONTINUOUS
 62
    30
  5
238
  0
POLYLINE
  8
11
  6
CONTINUOUS
 62
    30
  5
239
 66
     1
 10
0.0
 20
0.0
 30
0.0
  0
VERTEX
  8
11
  6
CONTINUOUS
 62
    30
  5
23A
 10
888276.262
 20
7275631.459
 30
0.0
  0
VERTEX
  8
11
  6
CONTINUOUS
 62
    30
  5
23B
 10
888279.696
 20
7275640.894
 30
0.0
  0
VERTEX
  8
11
  6
CONTINUOUS
 62
    30
  5
23C
 10
888283.131
 20
7275650.328
 30
0.0
  0
SEQEND
  8
11
  6
CONTINUOUS
 62
    30
  5
23D
  0
POLYLINE
  8
11
  6
CONTINUOUS
 62
    30
  5
23E
 66
     1
 10
0.0
 20
0.0
 30
0.0
  0
VERTEX
  8
11
  6
CONTINUOUS
 62
    30
  5
23F
 10
888229.09
 20
7275648.629
 30
0.0
  0
VERTEX
  8
11
  6
CONTINUOUS
 62
    30
  5
240
 10
888232.524
 20
7275658.064
 30
0.0
  0
VERTEX
  8
11
  6
CONTINUOUS
 62
    30
  5
241
 10
888235.958
 20
7275667.499
 30
0.0
  0
SEQEND
  8
11
  6
CONTINUOUS
 62
    30
  5
242
  0
POLYLINE
  8
11
  6
CONTINUOUS
 62
    30
  5
243
 66
     1
 10
0.0
 20
0.0
 30
0.0
  0
VERTEX
  8
11
  6
CONTINUOUS
 62
    30
  5
244
 10
888181.918
 20
7275665.8
 30
0.0
  0
VERTEX
  8
11
  6
CONTINUOUS
 62
    30
  5
245
 10
888185.352
 20
7275675.235
 30
0.0
  0
VERTEX
  8
11
  6
CONTINUOUS
 62
    30
  5
246
 10
888188.786
 20
7275684.669
 30
0.0
  0
SEQEND
  8
11
  6
CONTINUOUS
 62
    30
  5
247
  0
POLYLINE
  8
11
  6
CONTINUOUS
 62
    30
  5
248
 66
     1
 10
0.0
 20
0.0
 30
0.0
  0
VERTEX
  8
11
  6
CONTINUOUS
 62
    30
  5
249
 10
888134.745
 20
7275682.971
 30
0.0
  0
VERTEX
  8
11
  6
CONTINUOUS
 62
    30
  5
24A
 10
888138.18
 20
7275692.405
 30
0.0
  0
VERTEX
  8
11
  6
CONTINUOUS
 62
    30
  5
24B
 10
888141.614
 20
7275701.84
 30
0.0
  0
SEQEND
  8
11
  6
CONTINUOUS
 62
    30
  5
24C
  0
POLYLINE
  8
11
  6
CONTINUOUS
 62
    30
  5
24D
 66
     1
 10
0.0
 20
0.0
 30
0.0
  0
VERTEX
  8
11
  6
CONTINUOUS
 62
    30
  5
24E
 10
888087.573
 20
7275700.141
 30
0.0
  0
VERTEX
  8
11
  6
CONTINUOUS
 62
    30
  5
24F
 10
888091.008
 20
7275709.576
 30
0.0
  0
VERTEX
  8
11
  6
CONTINUOUS
 62
    30
  5
250
 10
888094.442
 20
7275719.01
 30
0.0
  0
SEQEND
  8
11
  6
CONTINUOUS
 62
    30
  5
251
  0
POLYLINE
  8
11
  6
CONTINUOUS
 62
    30
  5
252
 66
     1
 10
0.0
 20
0.0
 30
0.0
  0
VERTEX
  8
11
  6
CONTINUOUS
 62
    30
  5
253
 10
887521.508
 20
7275906.188
 30
0.0
  0
VERTEX
  8
11
  6
CONTINUOUS
 62
    30
  5
254
 10
887524.942
 20
7275915.623
 30
0.0
  0
VERTEX
  8
11
  6
CONTINUOUS
 62
    30
  5
255
 10
887528.376
 20
7275925.058
 30
0.0
  0
SEQEND
  8
11
  6
CONTINUOUS
 62
    30
  5
256
  0
POLYLINE
  8
11
  6
CONTINUOUS
 62
    30
  5
257
 66
     1
 10
0.0
 20
0.0
 30
0.0
  0
VERTEX
  8
11
  6
CONTINUOUS
 62
    30
  5
258
 10
887474.336
 20
7275923.359
 30
0.0
  0
VERTEX
  8
11
  6
CONTINUOUS
 62
    30
  5
259
 10
887477.77
 20
7275932.794
 30
0.0
  0
VERTEX
  8
11
  6
CONTINUOUS
 62
    30
  5
25A
 10
887481.204
 20
7275942.228
 30
0.0
  0
SEQEND
  8
11
  6
CONTINUOUS
 62
    30
  5
25B
  0
POLYLINE
  8
11
  6
CONTINUOUS
 62
    30
  5
25C
 66
     1
 10
0.0
 20
0.0
 30
0.0
  0
VERTEX
  8
11
  6
CONTINUOUS
 62
    30
  5
25D
 10
887427.164
 20
7275940.53
 30
0.0
  0
VERTEX
  8
11
  6
CONTINUOUS
 62
    30
  5
25E
 10
887430.598
 20
7275949.964
 30
0.0
  0
VERTEX
  8
11
  6
CONTINUOUS
 62
    30
  5
25F
 10
887434.032
 20
7275959.399
 30
0.0
  0
SEQEND
  8
11
  6
CONTINUOUS
 62
    30
  5
260
  0
POLYLINE
  8
11
  6
CONTINUOUS
 62
    30
  5
261
 66
     1
 10
0.0
 20
0.0
 30
0.0
  0
VERTEX
  8
11
  6
CONTINUOUS
 62
    30
  5
262
 10
887379.992
 20
7275957.701
 30
0.0
  0
VERTEX
  8
11
  6
CONTINUOUS
 62
    30
  5
263
 10
887383.426
 20
7275967.136
 30
0.0
  0
VERTEX
  8
11
  6
CONTINUOUS
 62
    30
  5
264
 10
887386.86
 20
7275976.569
 30
0.0
  0
SEQEND
  8
11
  6
CONTINUOUS
 62
    30
  5
265
  0
POLYLINE
  8
11
  6
CONTINUOUS
 62
    30
  5
266
 66
     1
 10
0.0
 20
0.0
 30
0.0
  0
VERTEX
  8
11
  6
CONTINUOUS
 62
    30
  5
267
 10
887332.82
 20
7275974.871
 30
0.0
  0
VERTEX
  8
11
  6
CONTINUOUS
 62
    30
  5
268
 10
887336.254
 20
7275984.306
 30
0.0
  0
VERTEX
  8
11
  6
CONTINUOUS
 62
    30
  5
269
 10
887339.688
 20
7275993.74
 30
0.0
  0
SEQEND
  8
11
  6
CONTINUOUS
 62
    30
  5
26A
  0
POLYLINE
  8
11
  6
CONTINUOUS
 62
    30
  5
26B
 66
     1
 10
0.0
 20
0.0
 30
0.0
  0
VERTEX
  8
11
  6
CONTINUOUS
 62
    30
  5
26C
 10
887710.196
 20
7275837.506
 30
0.0
  0
VERTEX
  8
11
  6
CONTINUOUS
 62
    30
  5
26D
 10
887713.631
 20
7275846.941
 30
0.0
  0
VERTEX
  8
11
  6
CONTINUOUS
 62
    30
  5
26E
 10
887717.064
 20
7275856.376
 30
0.0
  0
SEQEND
  8
11
  6
CONTINUOUS
 62
    30
  5
26F
  0
POLYLINE
  8
11
  6
CONTINUOUS
 62
    30
  5
270
 66
     1
 10
0.0
 20
0.0
 30
0.0
  0
VERTEX
  8
11
  6
CONTINUOUS
 62
    30
  5
271
 10
887663.024
 20
7275854.677
 30
0.0
  0
VERTEX
  8
11
  6
CONTINUOUS
 62
    30
  5
272
 10
887666.459
 20
7275864.111
 30
0.0
  0
VERTEX
  8
11
  6
CONTINUOUS
 62
    30
  5
273
 10
887669.892
 20
7275873.546
 30
0.0
  0
SEQEND
  8
11
  6
CONTINUOUS
 62
    30
  5
274
  0
POLYLINE
  8
11
  6
CONTINUOUS
 62
    30
  5
275
 66
     1
 10
0.0
 20
0.0
 30
0.0
  0
VERTEX
  8
11
  6
CONTINUOUS
 62
    30
  5
276
 10
887615.852
 20
7275871.847
 30
0.0
  0
VERTEX
  8
11
  6
CONTINUOUS
 62
    30
  5
277
 10
887619.287
 20
7275881.282
 30
0.0
  0
VERTEX
  8
11
  6
CONTINUOUS
 62
    30
  5
278
 10
887622.72
 20
7275890.717
 30
0.0
  0
SEQEND
  8
11
  6
CONTINUOUS
 62
    30
  5
279
  0
POLYLINE
  8
11
  6
CONTINUOUS
 62
    30
  5
27A
 66
     1
 10
0.0
 20
0.0
 30
0.0
  0
VERTEX
  8
11
  6
CONTINUOUS
 62
    30
  5
27B
 10
887568.68
 20
7275889.018
 30
0.0
  0
VERTEX
  8
11
  6
CONTINUOUS
 62
    30
  5
27C
 10
887572.115
 20
7275898.452
 30
0.0
  0
VERTEX
  8
11
  6
CONTINUOUS
 62
    30
  5
27D
 10
887575.548
 20
7275907.887
 30
0.0
  0
SEQEND
  8
11
  6
CONTINUOUS
 62
    30
  5
27E
  0
POLYLINE
  8
11
  6
CONTINUOUS
 62
    30
  5
27F
 66
     1
 10
0.0
 20
0.0
 30
0.0
  0
VERTEX
  8
11
  6
CONTINUOUS
 62
    30
  5
280
 10
888512.123
 20
7275545.606
 30
0.0
  0
VERTEX
  8
11
  6
CONTINUOUS
 62
    30
  5
281
 10
888515.557
 20
7275555.041
 30
0.0
  0
VERTEX
  8
11
  6
CONTINUOUS
 62
    30
  5
282
 10
888518.991
 20
7275564.475
 30
0.0
  0
SEQEND
  8
11
  6
CONTINUOUS
 62
    30
  5
283
  0
POLYLINE
  8
11
  6
CONTINUOUS
 62
    30
  5
284
 66
     1
 10
0.0
 20
0.0
 30
0.0
  0
VERTEX
  8
11
  6
CONTINUOUS
 62
    30
  5
285
 10
888464.951
 20
7275562.777
 30
0.0
  0
VERTEX
  8
11
  6
CONTINUOUS
 62
    30
  5
286
 10
888468.384
 20
7275572.211
 30
0.0
  0
VERTEX
  8
11
  6
CONTINUOUS
 62
    30
  5
287
 10
888471.819
 20
7275581.645
 30
0.0
  0
SEQEND
  8
11
  6
CONTINUOUS
 62
    30
  5
288
  0
POLYLINE
  8
11
  6
CONTINUOUS
 62
    30
  5
289
 66
     1
 10
0.0
 20
0.0
 30
0.0
  0
VERTEX
  8
11
  6
CONTINUOUS
 62
    30
  5
28A
 10
888417.779
 20
7275579.947
 30
0.0
  0
VERTEX
  8
11
  6
CONTINUOUS
 62
    30
  5
28B
 10
888421.212
 20
7275589.382
 30
0.0
  0
VERTEX
  8
11
  6
CONTINUOUS
 62
    30
  5
28C
 10
888424.647
 20
7275598.816
 30
0.0
  0
SEQEND
  8
11
  6
CONTINUOUS
 62
    30
  5
28D
  0
POLYLINE
  8
11
  6
CONTINUOUS
 62
    30
  5
28E
 66
     1
 10
0.0
 20
0.0
 30
0.0
  0
VERTEX
  8
11
  6
CONTINUOUS
 62
    30
  5
28F
 10
888370.607
 20
7275597.118
 30
0.0
  0
VERTEX
  8
11
  6
CONTINUOUS
 62
    30
  5
290
 10
888374.04
 20
7275606.553
 30
0.0
  0
VERTEX
  8
11
  6
CONTINUOUS
 62
    30
  5
291
 10
888377.475
 20
7275615.987
 30
0.0
  0
SEQEND
  8
11
  6
CONTINUOUS
 62
    30
  5
292
  0
POLYLINE
  8
11
  6
CONTINUOUS
 62
    30
  5
293
 66
     1
 10
0.0
 20
0.0
 30
0.0
  0
VERTEX
  8
11
  6
CONTINUOUS
 62
    30
  5
294
 10
888323.435
 20
7275614.288
 30
0.0
  0
VERTEX
  8
11
  6
CONTINUOUS
 62
    30
  5
295
 10
888326.868
 20
7275623.723
 30
0.0
  0
VERTEX
  8
11
  6
CONTINUOUS
 62
    30
  5
296
 10
888330.303
 20
7275633.158
 30
0.0
  0
SEQEND
  8
11
  6
CONTINUOUS
 62
    30
  5
297
  0
POLYLINE
  8
11
  6
CONTINUOUS
 62
    30
  5
298
 66
     1
 10
0.0
 20
0.0
 30
0.0
  0
VERTEX
  8
11
  6
CONTINUOUS
 62
    30
  5
299
 10
888747.983
 20
7275459.753
 30
0.0
  0
VERTEX
  8
11
  6
CONTINUOUS
 62
    30
  5
29A
 10
888751.418
 20
7275469.187
 30
0.0
  0
VERTEX
  8
11
  6
CONTINUOUS
 62
    30
  5
29B
 10
888754.851
 20
7275478.622
 30
0.0
  0
SEQEND
  8
11
  6
CONTINUOUS
 62
    30
  5
29C
  0
POLYLINE
  8
11
  6
CONTINUOUS
 62
    30
  5
29D
 66
     1
 10
0.0
 20
0.0
 30
0.0
  0
VERTEX
  8
11
  6
CONTINUOUS
 62
    30
  5
29E
 10
888700.811
 20
7275476.923
 30
0.0
  0
VERTEX
  8
11
  6
CONTINUOUS
 62
    30
  5
29F
 10
888704.246
 20
7275486.358
 30
0.0
  0
VERTEX
  8
11
  6
CONTINUOUS
 62
    30
  5
2A0
 10
888707.679
 20
7275495.792
 30
0.0
  0
SEQEND
  8
11
  6
CONTINUOUS
 62
    30
  5
2A1
  0
POLYLINE
  8
11
  6
CONTINUOUS
 62
    30
  5
2A2
 66
     1
 10
0.0
 20
0.0
 30
0.0
  0
VERTEX
  8
11
  6
CONTINUOUS
 62
    30
  5
2A3
 10
888653.639
 20
7275494.094
 30
0.0
  0
VERTEX
  8
11
  6
CONTINUOUS
 62
    30
  5
2A4
 10
888657.074
 20
7275503.528
 30
0.0
  0
VERTEX
  8
11
  6
CONTINUOUS
 62
    30
  5
2A5
 10
888660.507
 20
7275512.963
 30
0.0
  0
SEQEND
  8
11
  6
CONTINUOUS
 62
    30
  5
2A6
  0
POLYLINE
  8
11
  6
CONTINUOUS
 62
    30
  5
2A7
 66
     1
 10
0.0
 20
0.0
 30
0.0
  0
VERTEX
  8
11
  6
CONTINUOUS
 62
    30
  5
2A8
 10
888606.467
 20
7275511.264
 30
0.0
  0
VERTEX
  8
11
  6
CONTINUOUS
 62
    30
  5
2A9
 10
888609.901
 20
7275520.699
 30
0.0
  0
VERTEX
  8
11
  6
CONTINUOUS
 62
    30
  5
2AA
 10
888613.335
 20
7275530.133
 30
0.0
  0
SEQEND
  8
11
  6
CONTINUOUS
 62
    30
  5
2AB
  0
POLYLINE
  8
11
  6
CONTINUOUS
 62
    30
  5
2AC
 66
     1
 10
0.0
 20
0.0
 30
0.0
  0
VERTEX
  8
11
  6
CONTINUOUS
 62
    30
  5
2AD
 10
888559.295
 20
7275528.436
 30
0.0
  0
VERTEX
  8
11
  6
CONTINUOUS
 62
    30
  5
2AE
 10
888562.729
 20
7275537.869
 30
0.0
  0
VERTEX
  8
11
  6
CONTINUOUS
 62
    30
  5
2AF
 10
888566.163
 20
7275547.304
 30
0.0
  0
SEQEND
  8
11
  6
CONTINUOUS
 62
    30
  5
2B0
  0
POLYLINE
  8
11
  6
CONTINUOUS
 62
    30
  5
2B1
 66
     1
 10
0.0
 20
0.0
 30
0.0
  0
VERTEX
  8
11
  6
CONTINUOUS
 62
    30
  5
2B2
 10
888795.156
 20
7275442.582
 30
0.0
  0
VERTEX
  8
11
  6
CONTINUOUS
 62
    30
  5
2B3
 10
888798.59
 20
7275452.017
 30
0.0
  0
VERTEX
  8
11
  6
CONTINUOUS
 62
    30
  5
2B4
 10
888802.024
 20
7275461.451
 30
0.0
  0
SEQEND
  8
11
  6
CONTINUOUS
 62
    30
  5
2B5
  0
TEXT
  8
19
  6
CONTINUOUS
 62
   253
  5
2B8
 10
888998.104
 20
7275350.042
 30
0.0
 40
24.096
  1
RAILROAD
 50
159.9986
  7
txt
210
0.0
220
0.0
230
1.0
  0
POLYLINE
  8
11
  6
CONTINUOUS
 62
    30
  5
2B9
 66
     1
 10
0.0
 20
0.0
 30
0.0
  0
VERTEX
  8
11
  6
CONTINUOUS
 62
    30
  5
2BA
 10
888983.844
 20
7275373.9
 30
0.0
  0
VERTEX
  8
11
  6
CONTINUOUS
 62
    30
  5
2BB
 10
888987.278
 20
7275383.335
 30
0.0
  0
VERTEX
  8
11
  6
CONTINUOUS
 62
    30
  5
2BC
 10
888990.712
 20
7275392.768
 30
0.0
  0
SEQEND
  8
11
  6
CONTINUOUS
 62
    30
  5
2BD
  0
POLYLINE
  8
11
  6
CONTINUOUS
 62
    30
  5
2BE
 66
     1
 10
0.0
 20
0.0
 30
0.0
  0
VERTEX
  8
11
  6
CONTINUOUS
 62
    30
  5
2BF
 10
888936.672
 20
7275391.071
 30
0.0
  0
VERTEX
  8
11
  6
CONTINUOUS
 62
    30
  5
2C0
 10
888940.106
 20
7275400.505
 30
0.0
  0
VERTEX
  8
11
  6
CONTINUOUS
 62
    30
  5
2C1
 10
888943.54
 20
7275409.939
 30
0.0
  0
SEQEND
  8
11
  6
CONTINUOUS
 62
    30
  5
2C2
  0
POLYLINE
  8
11
  6
CONTINUOUS
 62
    30
  5
2C3
 66
     1
 10
0.0
 20
0.0
 30
0.0
  0
VERTEX
  8
11
  6
CONTINUOUS
 62
    30
  5
2C4
 10
888889.5
 20
7275408.241
 30
0.0
  0
VERTEX
  8
11
  6
CONTINUOUS
 62
    30
  5
2C5
 10
888892.934
 20
7275417.676
 30
0.0
  0
VERTEX
  8
11
  6
CONTINUOUS
 62
    30
  5
2C6
 10
888896.368
 20
7275427.11
 30
0.0
  0
SEQEND
  8
11
  6
CONTINUOUS
 62
    30
  5
2C7
  0
POLYLINE
  8
11
  6
CONTINUOUS
 62
    30
  5
2C8
 66
     1
 10
0.0
 20
0.0
 30
0.0
  0
VERTEX
  8
11
  6
CONTINUOUS
 62
    30
  5
2C9
 10
888842.328
 20
7275425.412
 30
0.0
  0
VERTEX
  8
11
  6
CONTINUOUS
 62
    30
  5
2CA
 10
888845.762
 20
7275434.846
 30
0.0
  0
VERTEX
  8
11
  6
CONTINUOUS
 62
    30
  5
2CB
 10
888849.196
 20
7275444.281
 30
0.0
  0
SEQEND
  8
11
  6
CONTINUOUS
 62
    30
  5
2CC
  0
POLYLINE
  8
11
  6
CONTINUOUS
 62
    30
  5
2CD
 66
     1
 10
0.0
 20
0.0
 30
0.0
  0
VERTEX
  8
11
  6
CONTINUOUS
 62
    30
  5
2CE
 10
889219.704
 20
7275288.046
 30
0.0
  0
VERTEX
  8
11
  6
CONTINUOUS
 62
    30
  5
2CF
 10
889223.139
 20
7275297.481
 30
0.0
  0
VERTEX
  8
11
  6
CONTINUOUS
 62
    30
  5
2D0
 10
889226.573
 20
7275306.916
 30
0.0
  0
SEQEND
  8
11
  6
CONTINUOUS
 62
    30
  5
2D1
  0
POLYLINE
  8
11
  6
CONTINUOUS
 62
    30
  5
2D2
 66
     1
 10
0.0
 20
0.0
 30
0.0
  0
VERTEX
  8
11
  6
CONTINUOUS
 62
    30
  5
2D3
 10
889172.532
 20
7275305.217
 30
0.0
  0
VERTEX
  8
11
  6
CONTINUOUS
 62
    30
  5
2D4
 10
889175.967
 20
7275314.652
 30
0.0
  0
VERTEX
  8
11
  6
CONTINUOUS
 62
    30
  5
2D5
 10
889179.401
 20
7275324.086
 30
0.0
  0
SEQEND
  8
11
  6
CONTINUOUS
 62
    30
  5
2D6
  0
POLYLINE
  8
11
  6
CONTINUOUS
 62
    30
  5
2D7
 66
     1
 10
0.0
 20
0.0
 30
0.0
  0
VERTEX
  8
11
  6
CONTINUOUS
 62
    30
  5
2D8
 10
889125.36
 20
7275322.388
 30
0.0
  0
VERTEX
  8
11
  6
CONTINUOUS
 62
    30
  5
2D9
 10
889128.795
 20
7275331.822
 30
0.0
  0
VERTEX
  8
11
  6
CONTINUOUS
 62
    30
  5
2DA
 10
889132.228
 20
7275341.257
 30
0.0
  0
SEQEND
  8
11
  6
CONTINUOUS
 62
    30
  5
2DB
  0
POLYLINE
  8
11
  6
CONTINUOUS
 62
    30
  5
2DC
 66
     1
 10
0.0
 20
0.0
 30
0.0
  0
VERTEX
  8
11
  6
CONTINUOUS
 62
    30
  5
2DD
 10
889078.188
 20
7275339.559
 30
0.0
  0
VERTEX
  8
11
  6
CONTINUOUS
 62
    30
  5
2DE
 10
889081.623
 20
7275348.993
 30
0.0
  0
VERTEX
  8
11
  6
CONTINUOUS
 62
    30
  5
2DF
 10
889085.056
 20
7275358.427
 30
0.0
  0
SEQEND
  8
11
  6
CONTINUOUS
 62
    30
  5
2E0
  0
POLYLINE
  8
11
  6
CONTINUOUS
 62
    30
  5
2E1
 66
     1
 10
0.0
 20
0.0
 30
0.0
  0
VERTEX
  8
11
  6
CONTINUOUS
 62
    30
  5
2E2
 10
889031.016
 20
7275356.73
 30
0.0
  0
VERTEX
  8
11
  6
CONTINUOUS
 62
    30
  5
2E3
 10
889034.451
 20
7275366.164
 30
0.0
  0
VERTEX
  8
11
  6
CONTINUOUS
 62
    30
  5
2E4
 10
889037.884
 20
7275375.598
 30
0.0
  0
SEQEND
  8
11
  6
CONTINUOUS
 62
    30
  5
2E5
  0
ARC
  8
7
  6
CONTINUOUS
 62
     3
  5
2E6
 10
888999.827074
 20
7275624.8769
 30
0.0
 40
15.06
 50
249.888697
 51
4.678044
210
0.0
220
0.0
230
1.0
  0
ARC
  8
7
  6
CONTINUOUS
 62
     3
  5
2E7
 10
889060.782494
 20
7275618.594635
 30
0.0
 40
30.12
 50
184.678044
 51
249.888697
210
0.0
220
0.0
230
1.0
  0
LINE
  8
27
  6
CONTINUOUS
 62
     5
  5
2E8
 10
888302.675
 20
7276219.074
 30
0.0
 11
888453.206
 21
7276214.513
 31
0.0
  0
POLYLINE
  8
11
  6
CONTINUOUS
 62
    30
  5
2E9
 66
     1
 10
0.0
 20
0.0
 30
0.0
  0
VERTEX
  8
11
  6
CONTINUOUS
 62
    30
  5
2EA
 10
889361.221
 20
7275236.535
 30
0.0
  0
VERTEX
  8
11
  6
CONTINUOUS
 62
    30
  5
2EB
 10
889364.655
 20
7275245.969
 30
0.0
  0
VERTEX
  8
11
  6
CONTINUOUS
 62
    30
  5
2EC
 10
889368.09
 20
7275255.404
 30
0.0
  0
SEQEND
  8
11
  6
CONTINUOUS
 62
    30
  5
2ED
  0
POLYLINE
  8
11
  6
CONTINUOUS
 62
    30
  5
2EE
 66
     1
 10
0.0
 20
0.0
 30
0.0
  0
VERTEX
  8
11
  6
CONTINUOUS
 62
    30
  5
2EF
 10
889314.049
 20
7275253.705
 30
0.0
  0
VERTEX
  8
11
  6
CONTINUOUS
 62
    30
  5
2F0
 10
889317.483
 20
7275263.14
 30
0.0
  0
VERTEX
  8
11
  6
CONTINUOUS
 62
    30
  5
2F1
 10
889320.918
 20
7275272.575
 30
0.0
  0
SEQEND
  8
11
  6
CONTINUOUS
 62
    30
  5
2F2
  0
LINE
  8
27
  6
CONTINUOUS
 62
     5
  5
2F3
 10
888577.156
 20
7280305.585
 30
0.0
 11
888497.916
 21
7277690.221
 31
0.0
  0
LINE
  8
27
  6
CONTINUOUS
 62
     5
  5
2F4
 10
888426.625
 20
7280310.146
 30
0.0
 11
888344.502
 21
7277599.604
 31
0.0
  0
LINE
  8
7
  6
CONTINUOUS
 62
     3
  5
2F5
 10
889006.207
 20
7280416.911
 30
0.0
 11
889007.374
 21
7278735.12
 31
0.0
  0
LINE
  8
7
  6
CONTINUOUS
 62
     3
  5
2F6
 10
889021.266
 20
7280416.442
 30
0.0
 11
889022.583
 21
7278520.314
 31
0.0
  0
LINE
  8
27
  6
CONTINUOUS
 62
     5
  5
2F7
 10
889440.799
 20
7277507.13
 30
0.0
 11
889123.193
 21
7277490.511
 31
0.0
  0
ARC
  8
7
  6
CONTINUOUS
 62
     3
  5
2F8
 10
889266.984653
 20
7277673.974921
 30
0.0
 40
25.1
 50
206.708403
 51
272.995256
210
0.0
220
0.0
230
1.0
  0
LINE
  8
7
  6
CONTINUOUS
 62
     3
  5
2F9
 10
889415.518
 20
7278498.416
 30
0.0
 11
889076.777
 21
7278492.084
 31
0.0
  0
LINE
  8
7
  6
CONTINUOUS
 62
     3
  5
2FA
 10
889413.702
 20
7278518.465
 30
0.0
 11
889044.055
 21
7278511.556
 31
0.0
  0
LINE
  8
7
  6
CONTINUOUS
 62
     3
  5
2FB
 10
887416.701
 20
7277568.651
 30
0.0
 11
887376.29
 21
7278242.383
 31
0.0
  0
LINE
  8
7
  6
CONTINUOUS
 62
     3
  5
2FC
 10
887431.75
 20
7277569.287
 30
0.0
 11
887378.285
 21
7278460.664
 31
0.0
  0
LINE
  8
7
  6
CONTINUOUS
 62
     3
  5
2FD
 10
889212.75
 20
7277681.245
 30
0.0
 11
888918.89
 21
7278265.309
 31
0.0
  0
LINE
  8
7
  6
CONTINUOUS
 62
     3
  5
2FE
 10
889244.563
 20
7277662.693
 30
0.0
 11
888935.487
 21
7278276.998
 31
0.0
  0
SOLID
  8
18
  6
CONTINUOUS
 62
    30
  5
300
 10
888255.033
 20
7277109.189
 30
0.0
 11
888271.464
 21
7277108.635
 31
0.0
 12
888254.018
 22
7277079.087
 32
0.0
 13
888270.449
 23
7277078.533
 33
0.0
  0
SOLID
  8
18
  6
CONTINUOUS
 62
    30
  5
301
 10
888271.126
 20
7277098.602
 30
0.0
 11
888542.879
 21
7277089.438
 31
0.0
 12
888270.787
 22
7277088.567
 32
0.0
 13
888542.542
 23
7277079.404
 33
0.0
  0
SOLID
  8
18
  6
CONTINUOUS
 62
    30
  5
302
 10
888542.879
 20
7277089.438
 30
0.0
 11
888560.575
 21
7277088.842
 31
0.0
 12
888542.542
 22
7277079.404
 32
0.0
 13
888560.237
 23
7277078.808
 33
0.0
  0
LINE
  8
27
  6
CONTINUOUS
 62
     5
  5
303
 10
887452.9
 20
7277550.44
 30
0.0
 11
888344.502
 21
7277599.604
 31
0.0
  0
LINE
  8
27
  6
CONTINUOUS
 62
     5
  5
304
 10
888286.835
 20
7277243.402
 30
0.0
 11
888023.372
 21
7276816.17
 31
0.0
  0
LINE
  8
27
  6
CONTINUOUS
 62
     5
  5
305
 10
888182.33
 20
7277360.852
 30
0.0
 11
887974.434
 21
7277023.728
 31
0.0
  0
LINE
  8
27
  6
CONTINUOUS
 62
     5
  5
306
 10
888023.372
 20
7276816.17
 30
0.0
 11
887894.927
 21
7276895.757
 31
0.0
  0
ARC
  8
27
  6
CONTINUOUS
 62
     5
  5
307
 10
887888.976674
 20
7277076.427211
 30
0.0
 40
100.4
 50
273.204611
 51
328.338903
210
0.0
220
0.0
230
1.0
  0
SOLID
  8
19
  6
CONTINUOUS
 62
   253
  5
308
 10
888150.415
 20
7277134.617
 30
0.0
 11
888151.612
 21
7277200.647
 31
0.0
 12
888154.431
 22
7277134.544
 32
0.0
 13
888155.627
 23
7277200.574
 33
0.0
  0
ARC
  8
7
  6
CONTINUOUS
 62
     3
  5
309
 10
887396.657109
 20
7277567.448584
 30
0.0
 40
20.08
 50
273.156244
 51
3.432539
210
0.0
220
0.0
230
1.0
  0
ARC
  8
7
  6
CONTINUOUS
 62
     3
  5
30A
 10
887451.793987
 20
7277570.488978
 30
0.0
 40
20.08
 50
183.432539
 51
273.156244
210
0.0
220
0.0
230
1.0
  0
ARC
  8
27
  6
CONTINUOUS
 62
     5
  5
30B
 10
888139.600833
 20
7277387.200905
 30
0.0
 40
50.2
 50
328.338906
 51
93.156244
210
0.0
220
0.0
230
1.0
  0
LINE
  8
27
  6
CONTINUOUS
 62
     5
  5
30C
 10
889059.205
 20
7277236.96
 30
0.0
 11
889051.893
 21
7277412.173
 31
0.0
  0
LINE
  8
27
  6
CONTINUOUS
 62
     5
  5
30D
 10
888642.215
 20
7277417.055
 30
0.0
 11
888654.454
 21
7277213.079
 31
0.0
  0
LINE
  8
27
  6
CONTINUOUS
 62
     5
  5
30E
 10
888654.454
 20
7277213.079
 30
0.0
 11
888869.172
 21
7277225.748
 31
0.0
  0
ARC
  8
27
  6
CONTINUOUS
 62
     5
  5
30F
 10
888308.19918
 20
7277230.227196
 30
0.0
 40
25.1
 50
358.264606
 51
148.338906
210
0.0
220
0.0
230
1.0
  0
TEXT
  8
18
  6
CONTINUOUS
 62
    30
  5
310
 10
888643.362
 20
7277045.068
 30
0.0
 40
30.12
  1
MAIA
 50
88.068819
  7
txt
210
0.0
220
0.0
230
1.0
  0
LINE
  8
27
  6
CONTINUOUS
 62
     5
  5
311
 10
888914.286
 20
7277228.409
 30
0.0
 11
889059.205
 21
7277236.96
 31
0.0
  0
ARC
  8
7
  6
CONTINUOUS
 62
     3
  5
312
 10
888870.05934
 20
7277210.713774
 30
0.0
 40
15.06
 50
4.678044
 51
93.376436
210
0.0
220
0.0
230
1.0
  0
ARC
  8
7
  6
CONTINUOUS
 62
     3
  5
313
 10
888915.172554
 20
7277213.375374
 30
0.0
 40
15.06
 50
93.376436
 51
184.678044
210
0.0
220
0.0
230
1.0
  0
LINE
  8
27
  6
CONTINUOUS
 62
     5
  5
314
 10
889191.64
 20
7277644.898
 30
0.0
 11
888577.116
 21
7277612.744
 31
0.0
  0
ARC
  8
27
  6
CONTINUOUS
 62
     5
  5
315
 10
888573.181981
 20
7277687.940529
 30
0.0
 40
75.3
 50
178.264606
 51
272.995258
210
0.0
220
0.0
230
1.0
  0
LINE
  8
27
  6
CONTINUOUS
 62
     5
  5
316
 10
888489.292
 20
7277405.56
 30
0.0
 11
888642.215
 21
7277417.055
 31
0.0
  0
ARC
  8
7
  6
CONTINUOUS
 62
     3
  5
317
 10
889190.328623
 20
7277669.963912
 30
0.0
 40
25.1
 50
272.995258
 51
26.708406
210
0.0
220
0.0
230
1.0
  0
ARC
  8
27
  6
CONTINUOUS
 62
     5
  5
318
 10
889127.12771
 20
7277415.31357
 30
0.0
 40
75.3
 50
92.995258
 51
182.389836
210
0.0
220
0.0
230
1.0
  0
LINE
  8
7
  6
CONTINUOUS
 62
     3
  5
319
 10
887372.365
 20
7278307.822
 30
0.0
 11
887343.975
 21
7278456.51
 31
0.0
  0
LINE
  8
7
  6
CONTINUOUS
 62
     3
  5
31A
 10
887372.365
 20
7278307.822
 30
0.0
 11
887325.634
 21
7278452.917
 31
0.0
  0
LINE
  8
7
  6
CONTINUOUS
 62
     3
  5
31B
 10
887374.428
 20
7278252.289
 30
0.0
 11
887302.692
 21
7278475.026
 31
0.0
  0
ARC
  8
7
  6
CONTINUOUS
 62
     3
  5
31C
 10
887336.202115
 20
7278239.977948
 30
0.0
 40
40.16
 50
3.432539
 51
17.852142
210
0.0
220
0.0
230
1.0
  0
LINE
  8
10
  6
CONTINUOUS
 62
     2
  5
31D
 10
887446.435
 20
7278713.515
 30
0.0
 11
887440.884
 21
7278719.319
 31
0.0
  0
LINE
  8
10
  6
CONTINUOUS
 62
     2
  5
31E
 10
887455.142
 20
7278721.84
 30
0.0
 11
887446.435
 21
7278713.515
 31
0.0
  0
LINE
  8
10
  6
CONTINUOUS
 62
     2
  5
31F
 10
887449.593
 20
7278727.646
 30
0.0
 11
887455.142
 21
7278721.84
 31
0.0
  0
LINE
  8
10
  6
CONTINUOUS
 62
     2
  5
320
 10
887440.884
 20
7278719.319
 30
0.0
 11
887449.593
 21
7278727.646
 31
0.0
  0
LINE
  8
10
  6
CONTINUOUS
 62
     2
  5
321
 10
887350.014
 20
7278605.021
 30
0.0
 11
887359.779
 21
7278603.343
 31
0.0
  0
LINE
  8
10
  6
CONTINUOUS
 62
     2
  5
322
 10
887356.757
 20
7278612.94
 30
0.0
 11
887353.006
 21
7278592.05
 31
0.0
  0
CIRCLE
  8
10
  6
CONTINUOUS
 62
     2
  5
323
 10
887354.810021
 20
7278601.356766
 30
0.0
 40
31.124
210
0.0
220
0.0
230
1.0
  0
ARC
  8
7
  6
CONTINUOUS
 62
     3
  5
324
 10
887334.858006
 20
7278454.441315
 30
0.0
 40
9.34883
 50
12.781744
 51
189.381972
210
0.0
220
0.0
230
1.0
  0
ARC
  8
7
  6
CONTINUOUS
 62
     3
  5
325
 10
887393.317355
 20
7278461.56637
 30
0.0
 40
15.06
 50
107.343875
 51
183.432539
210
0.0
220
0.0
230
1.0
  0
LINE
  8
7
  6
CONTINUOUS
 62
     3
  5
326
 10
888860.643
 20
7278439.214
 30
0.0
 11
888821.975
 21
7278382.199
 31
0.0
  0
LINE
  8
7
  6
CONTINUOUS
 62
     3
  5
327
 10
889056.061
 20
7278480.449
 30
0.0
 11
888936.229
 21
7278291.843
 31
0.0
  0
ARC
  8
7
  6
CONTINUOUS
 62
     3
  5
328
 10
888865.077276
 20
7278238.233581
 30
0.0
 40
60.24
 50
26.708403
 51
40.298906
210
0.0
220
0.0
230
1.0
  0
ARC
  8
7
  6
CONTINUOUS
 62
     3
  5
329
 10
888948.940135
 20
7278283.766671
 30
0.0
 40
15.06
 50
147.569986
 51
206.708403
210
0.0
220
0.0
230
1.0
  0
LINE
  8
7
  6
CONTINUOUS
 62
     3
  5
32A
 10
888821.975
 20
7278382.199
 30
0.0
 11
888911.021
 21
7278277.196
 31
0.0
  0
LINE
  8
7
  6
CONTINUOUS
 62
     3
  5
32B
 10
889007.414
 20
7278676.853
 30
0.0
 11
889007.506
 21
7278546.091
 31
0.0
  0
LINE
  8
10
  6
CONTINUOUS
 62
     2
  5
32C
 10
888901.44
 20
7278716.804
 30
0.0
 11
888900.767
 21
7278696.837
 31
0.0
  0
LINE
  8
10
  6
CONTINUOUS
 62
     2
  5
32D
 10
888925.422
 20
7278715.996
 30
0.0
 11
888901.44
 21
7278716.804
 31
0.0
  0
LINE
  8
10
  6
CONTINUOUS
 62
     2
  5
32E
 10
888900.767
 20
7278696.837
 30
0.0
 11
888924.748
 21
7278696.027
 31
0.0
  0
LINE
  8
10
  6
CONTINUOUS
 62
     2
  5
32F
 10
888924.748
 20
7278696.027
 30
0.0
 11
888925.422
 21
7278715.996
 31
0.0
  0
LINE
  8
20
  6
CONTINUOUS
 62
    62
  5
330
 10
888920.896
 20
7278680.085
 30
0.0
 11
888948.992
 21
7278679.137
 31
0.0
  0
LINE
  8
20
  6
CONTINUOUS
 62
    62
  5
331
 10
888921.437
 20
7278696.139
 30
0.0
 11
888920.896
 21
7278680.085
 31
0.0
  0
LINE
  8
20
  6
CONTINUOUS
 62
    62
  5
332
 10
888949.297
 20
7278688.168
 30
0.0
 11
888948.992
 21
7278679.137
 31
0.0
  0
LINE
  8
20
  6
CONTINUOUS
 62
    62
  5
333
 10
888922.148
 20
7278717.212
 30
0.0
 11
888986.618
 21
7278715.038
 31
0.0
  0
LINE
  8
20
  6
CONTINUOUS
 62
    62
  5
334
 10
888959.669
 20
7278697.864
 30
0.0
 11
888988.012
 21
7278696.908
 31
0.0
  0
ARC
  8
20
  6
CONTINUOUS
 62
    62
  5
335
 10
888959.330687
 20
7278687.829583
 30
0.0
 40
10.04
 50
88.068819
 51
178.068819
210
0.0
220
0.0
230
1.0
  0
LINE
  8
10
  6
CONTINUOUS
 62
     2
  5
336
 10
888922.148
 20
7278717.212
 30
0.0
 11
888922.111
 21
7278716.107
 31
0.0
  0
ARC
  8
20
  6
CONTINUOUS
 62
    62
  5
337
 10
888987.33456
 20
7278676.839636
 30
0.0
 40
20.08
 50
0.039797
 51
88.068819
210
0.0
220
0.0
230
1.0
  0
ARC
  8
20
  6
CONTINUOUS
 62
    62
  5
338
 10
888987.294089
 20
7278735.106094
 30
0.0
 40
20.08
 50
268.068819
 51
0.039797
210
0.0
220
0.0
230
1.0
  0
ARC
  8
7
  6
CONTINUOUS
 62
     3
  5
339
 10
888969.612218
 20
7278506.174692
 30
0.0
 40
20.08
 50
292.537306
 51
337.886839
210
0.0
220
0.0
230
1.0
  0
LINE
  8
7
  6
CONTINUOUS
 62
     3
  5
33A
 10
889007.506
 20
7278546.091
 30
0.0
 11
888988.215
 21
7278498.616
 31
0.0
  0
LINE
  8
7
  6
CONTINUOUS
 62
     3
  5
33B
 10
888860.643
 20
7278439.214
 30
0.0
 11
888977.308
 21
7278487.628
 31
0.0
  0
ARC
  8
7
  6
CONTINUOUS
 62
     3
  5
33C
 10
889032.623287
 20
7278520.321266
 30
0.0
 40
10.04
 50
180.039797
 51
281.849697
210
0.0
220
0.0
230
1.0
  0
ARC
  8
7
  6
CONTINUOUS
 62
     3
  5
33D
 10
889077.246152
 20
7278466.98875
 30
0.0
 40
25.1
 50
91.07085
 51
147.569986
210
0.0
220
0.0
230
1.0
  0
ARC
  8
7
  6
CONTINUOUS
 62
     3
  5
33E
 10
889044.99327
 20
7278461.365002
 30
0.0
 40
50.2
 50
91.07085
 51
101.849697
210
0.0
220
0.0
230
1.0
  0
LINE
  8
27
  6
CONTINUOUS
 62
     5
  5
33F
 10
889445.506
 20
7277658.182
 30
0.0
 11
889268.296
 21
7277648.909
 31
0.0
  0
ARC
  8
7
  6
CONTINUOUS
 62
     3
  5
340
 10
889478.507951
 20
7278505.420546
 30
0.0
 40
45.18
 50
207.177272
 51
259.817344
210
0.0
220
0.0
230
1.0
  0
LINE
  8
10
  6
CONTINUOUS
 62
     2
  5
341
 10
889439.387
 20
7278530.305
 30
0.0
 11
889439.642
 21
7278539.019
 31
0.0
  0
LINE
  8
10
  6
CONTINUOUS
 62
     2
  5
342
 10
889423.502
 20
7278530.495
 30
0.0
 11
889423.765
 21
7278539.483
 31
0.0
  0
LINE
  8
10
  6
CONTINUOUS
 62
     2
  5
343
 10
889439.642
 20
7278539.019
 30
0.0
 11
889423.765
 21
7278539.483
 31
0.0
  0
LINE
  8
10
  6
CONTINUOUS
 62
     2
  5
344
 10
889423.502
 20
7278530.495
 30
0.0
 11
889439.387
 21
7278530.305
 31
0.0
  0
ARC
  8
7
  6
CONTINUOUS
 62
     3
  5
345
 10
889478.507951
 20
7278505.420546
 30
0.0
 40
45.18
 50
96.613072
 51
142.268714
210
0.0
220
0.0
230
1.0
  0
ARC
  8
7
  6
CONTINUOUS
 62
     3
  5
346
 10
889415.987031
 20
7278473.320501
 30
0.0
 40
25.1
 50
27.177272
 51
91.070847
210
0.0
220
0.0
230
1.0
  0
ARC
  8
7
  6
CONTINUOUS
 62
     3
  5
347
 10
889412.998574
 20
7278556.109109
 30
0.0
 40
37.65
 50
271.07085
 51
322.268714
210
0.0
220
0.0
230
1.0
  0
ARC
  8
7
  6
CONTINUOUS
 62
     3
  5
348
 10
889478.507951
 20
7278505.420546
 30
0.0
 40
25.1
 50
103.456408
 51
252.974008
210
0.0
220
0.0
230
1.0
  0
LINE
  8
7
  6
CONTINUOUS
 62
     3
  5
349
 10
889298.255
 20
7280407.811
 30
0.0
 11
889359.433
 21
7280370.495
 31
0.0
  0
LINE
  8
27
  6
CONTINUOUS
 62
     5
  5
34A
 10
888581.624
 20
7280430.141
 30
0.0
 11
888577.128
 21
7280304.751
 31
0.0
  0
ARC
  8
7
  6
CONTINUOUS
 62
     3
  5
34B
 10
889541.154002
 20
7280665.805847
 30
0.0
 40
346.743293
 50
238.387011
 51
266.209225
210
0.0
220
0.0
230
1.0
  0
ARC
  8
7
  6
CONTINUOUS
 62
     3
  5
34C
 10
889541.154002
 20
7280665.805847
 30
0.0
 40
326.663293
 50
238.387011
 51
266.209225
210
0.0
220
0.0
230
1.0
  0
LINE
  8
7
  6
CONTINUOUS
 62
     3
  5
34D
 10
889338.892
 20
7280406.544
 30
0.0
 11
889369.889
 21
7280387.638
 31
0.0
  0
LINE
  8
7
  6
CONTINUOUS
 62
     3
  5
34E
 10
889518.403
 20
7280319.811
 30
0.0
 11
889528.429
 21
7280319.321
 31
0.0
  0
LINE
  8
7
  6
CONTINUOUS
 62
     3
  5
34F
 10
889519.384
 20
7280339.868
 30
0.0
 11
889529.054
 21
7280339.394
 31
0.0
  0
TEXT
  8
19
  6
CONTINUOUS
 62
     1
  5
351
 10
887511.373
 20
7277457.311
 30
0.0
 40
24.0
  1
TAXIWAY C
 50
3.156236
  7
ROMANC
210
0.0
220
0.0
230
1.0
  0
TEXT
  8
15
  6
CONTINUOUS
 62
    30
  5
353
 10
887043.901
 20
7280023.133
 30
0.0
 40
50.0
  1
REESE A.F.B.
 50
28.215208
  7
ROMANC
210
0.0
220
0.0
230
1.0
  0
TEXT
  8
15
  6
CONTINUOUS
 62
    30
  5
354
 10
888751.916
 20
7277783.336
 30
0.0
 40
50.0
  1
REESE A.F.B.
 50
28.215208
  7
ROMANC
210
0.0
220
0.0
230
1.0
  0
TEXT
  8
15
  6
CONTINUOUS
 62
    30
  5
355
 10
887072.264
 20
7276409.307
 30
0.0
 40
50.0
  1
REESE A.F.B.
 50
28.215208
  7
ROMANC
210
0.0
220
0.0
230
1.0
  0
POLYLINE
  8
1
  6
HIDDEN
 62
   253
  5
357
 66
     1
 10
0.0
 20
0.0
 30
0.0
 70
     1
  0
VERTEX
  8
1
  6
HIDDEN
 62
   253
  5
358
 10
884253.522
 20
7280565.007
 30
0.0
  0
VERTEX
  8
1
  6
HIDDEN
 62
   253
  5
359
 10
889530.96
 20
7280400.559
 30
0.0
  0
VERTEX
  8
1
  6
HIDDEN
 62
   253
  5
35A
 10
889366.512
 20
7275123.121
 30
0.0
  0
VERTEX
  8
1
  6
HIDDEN
 62
   253
  5
35B
 10
884089.074
 20
7275287.569
 30
0.0
  0
SEQEND
  8
1
  6
HIDDEN
 62
   253
  5
35C
  0
ENDSEC
  0
EOF
