  0
SECTION
  2
HEADER
  9
$ACADVER
  1
AC1009
  9
$INSBASE
 10
0.0
 20
0.0
 30
0.0
  9
$EXTMIN
 10
889222.771
 20
7269703.664
 30
0.0
  9
$EXTMAX
 10
894670.005
 20
7275238.295
 30
0.0
  9
$LIMMIN
 10
0.0
 20
0.0
  9
$LIMMAX
 10
12.0
 20
9.0
  9
$ORTHOMODE
 70
     0
  9
$REGENMODE
 70
     1
  9
$FILLMODE
 70
     1
  9
$QTEXTMODE
 70
     0
  9
$MIRRTEXT
 70
     1
  9
$DRAGMODE
 70
     2
  9
$LTSCALE
 40
1.0
  9
$OSMODE
 70
     0
  9
$ATTMODE
 70
     1
  9
$TEXTSIZE
 40
0.2
  9
$TRACEWID
 40
0.05
  9
$TEXTSTYLE
  7
STANDARD
  9
$CLAYER
  8
0
  9
$CELTYPE
  6
CONTINUOUS
  9
$CECOLOR
 62
   256
  9
$DIMSCALE
 40
1.0
  9
$DIMASZ
 40
0.18
  9
$DIMEXO
 40
0.0625
  9
$DIMDLI
 40
0.38
  9
$DIMRND
 40
0.0
  9
$DIMDLE
 40
0.0
  9
$DIMEXE
 40
0.18
  9
$DIMTP
 40
0.0
  9
$DIMTM
 40
0.0
  9
$DIMTXT
 40
0.18
  9
$DIMCEN
 40
0.09
  9
$DIMTSZ
 40
0.0
  9
$DIMTOL
 70
     0
  9
$DIMLIM
 70
     0
  9
$DIMTIH
 70
     1
  9
$DIMTOH
 70
     1
  9
$DIMSE1
 70
     0
  9
$DIMSE2
 70
     0
  9
$DIMTAD
 70
     0
  9
$DIMZIN
 70
     0
  9
$DIMBLK
  1

  9
$DIMASO
 70
     1
  9
$DIMSHO
 70
     1
  9
$DIMPOST
  1

  9
$DIMAPOST
  1

  9
$DIMALT
 70
     0
  9
$DIMALTD
 70
     2
  9
$DIMALTF
 40
25.4
  9
$DIMLFAC
 40
1.0
  9
$DIMTOFL
 70
     0
  9
$DIMTVP
 40
0.0
  9
$DIMTIX
 70
     0
  9
$DIMSOXD
 70
     0
  9
$DIMSAH
 70
     0
  9
$DIMBLK1
  1

  9
$DIMBLK2
  1

  9
$DIMSTYLE
  2
STANDARD
  9
$DIMCLRD
 70
     0
  9
$DIMCLRE
 70
     0
  9
$DIMCLRT
 70
     0
  9
$DIMTFAC
 40
1.0
  9
$DIMGAP
 40
0.09
  9
$LUNITS
 70
     2
  9
$LUPREC
 70
     4
  9
$AXISMODE
 70
     0
  9
$AXISUNIT
 10
0.0
 20
0.0
  9
$SKETCHINC
 40
0.1
  9
$FILLETRAD
 40
0.0
  9
$AUNITS
 70
     0
  9
$AUPREC
 70
     0
  9
$MENU
  1
acad
  9
$ELEVATION
 40
0.0
  9
$PELEVATION
 40
0.0
  9
$THICKNESS
 40
0.0
  9
$LIMCHECK
 70
     0
  9
$BLIPMODE
 70
     1
  9
$CHAMFERA
 40
0.0
  9
$CHAMFERB
 40
0.0
  9
$SKPOLY
 70
     0
  9
$TDCREATE
 40
2453013.905208333
  9
$TDUPDATE
 40
2453013.905208333
  9
$TDINDWG
 40
0.0000000000
  9
$TDUSRTIMER
 40
0.0000000000
  9
$USRTIMER
 70
     1
  9
$ANGBASE
 50
0.0
  9
$ANGDIR
 70
     0
  9
$PDMODE
 70
     0
  9
$PDSIZE
 40
0.0
  9
$PLINEWID
 40
0.0
  9
$COORDS
 70
     0
  9
$SPLFRAME
 70
     0
  9
$SPLINETYPE
 70
     6
  9
$SPLINESEGS
 70
    10
  9
$ATTDIA
 70
     0
  9
$ATTREQ
 70
     1
  9
$HANDLING
 70
     1
  9
$HANDSEED
  5
8F
  9
$SURFTAB1
 70
     6
  9
$SURFTAB2
 70
     6
  9
$SURFTYPE
 70
     6
  9
$SURFU
 70
     6
  9
$SURFV
 70
     6
  9
$UCSNAME
  2

  9
$UCSORG
 10
0.0
 20
0.0
 30
0.0
  9
$UCSXDIR
 10
1.0
 20
0.0
 30
0.0
  9
$UCSYDIR
 10
0.0
 20
1.0
 30
0.0
  9
$PUCSNAME
  2

  9
$PUCSORG
 10
0.0
 20
0.0
 30
0.0
  9
$PUCSXDIR
 10
1.0
 20
0.0
 30
0.0
  9
$PUCSYDIR
 10
0.0
 20
1.0
 30
0.0
  9
$USERI1
 70
     0
  9
$USERI2
 70
     0
  9
$USERI3
 70
     0
  9
$USERI4
 70
     0
  9
$USERI5
 70
     0
  9
$USERR1
 40
0.0
  9
$USERR2
 40
0.0
  9
$USERR3
 40
0.0
  9
$USERR4
 40
0.0
  9
$USERR5
 40
0.0
  9
$WORLDVIEW
 70
     1
  9
$SHADEDGE
 70
     3
  9
$SHADEDIF
 70
    70
  9
$TILEMODE
 70
     1
  9
$MAXACTVP
 70
    16
  9
$PINSBASE
 10
0.0
 20
0.0
 30
0.0
  9
$PLIMCHECK
 70
     0
  9
$PEXTMIN
 10
-1.000000E+20
 20
-1.000000E+20
 30
-1.000000E+20
  9
$PEXTMAX
 10
-1.000000E+20
 20
-1.000000E+20
 30
-1.000000E+20
  9
$PLIMMIN
 10
0.0
 20
0.0
  9
$PLIMMAX
 10
12.0
 20
9.0
  9
$UNITMODE
 70
     0
  9
$VISRETAIN
 70
     0
  9
$PLINEGEN
 70
     1
  9
$PSLTSCALE
 70
     0
  9
$TREEDEPTH
 70
  3020
  9
$DWGCODEPAGE
  3
ansi_1252
  0
ENDSEC
  0
SECTION
  2
TABLES
  0
TABLE
  2
VPORT
 70
     1
  0
VPORT
  2
*ACTIVE
 70
     0
 10
0.0
 20
0.0
 11
1.0
 21
1.0
 12
0.0
 22
0.0
 13
0.0
 23
0.0
 14
0.0
 24
0.0
 15
0.0
 25
0.0
 16
0.0
 26
0.0
 36
1.0
 17
891591.903431
 27
7272349.7265
 37
0.0
 40
5475.125
 41
1.097996
 42
50.0
 43
0.004
 44
0.0
 50
0.0
 51
0.0
 71
     0
 72
   100
 73
     1
 74
     0
 75
     0
 76
     0
 77
     0
 78
     0
  0
ENDTAB
  0
TABLE
  2
LTYPE
 70
     7
  0
LTYPE
  2
CONTINUOUS
 70
     0
  3
Solid line
 72
    65
 73
     0
 40
0.0
  0
LTYPE
  2
DOT
 70
    64
  3
. . . . . . . . . . . . . . . . . . . . . . . . . . . . . . . . .
 72
    65
 73
     2
 40
0.25
 49
0.0
 49
-0.25
  0
LTYPE
  2
HIDDEN
 70
    64
  3
__ __ __ __ __ __ __ __ __ __ __ __ __ __ __ __ __ __ __ __ __ 
 72
    65
 73
     2
 40
0.375
 49
0.25
 49
-0.125
  0
LTYPE
  2
DASHED
 70
    64
  3
__ __ __ __ __ __ __ __ __ __ __ __ __ __ __ __ __ __ __ __ __
 72
    65
 73
     2
 40
0.75
 49
0.5
 49
-0.25
  0
LTYPE
  2
DASHDOT
 70
    64
  3
__ . __ . __ . __ . __ . __ . __ . __ . __ . __ . __ . __ . _
 72
    65
 73
     4
 40
1.0
 49
0.5
 49
-0.25
 49
0.0
 49
-0.25
  0
LTYPE
  2
DIVIDE
 70
    64
  3
____ . . ____ . . ____ . . ____ . . ____ . . ____ . . ____ . .
 72
    65
 73
     6
 40
1.25
 49
0.5
 49
-0.25
 49
0.0
 49
-0.25
 49
0.0
 49
-0.25
  0
LTYPE
  2
CENTER
 70
    64
  3
____ _ ____ _ ____ _ ____ _ ____ _ ____ _ ____ _ ____ _ ____ _
 72
    65
 73
     4
 40
2.0
 49
1.25
 49
-0.25
 49
0.25
 49
-0.25
  0
ENDTAB
  0
TABLE
  2
LAYER
 70
    12
  0
LAYER
  2
0
 70
    64
 62
     7
  6
CONTINUOUS
  0
LAYER
  2
CONSTRUCTION_CLASS
 70
     1
 62
     7
  6
CONTINUOUS
  0
LAYER
  2
PATTERN_CLASS
 70
     0
 62
     7
  6
CONTINUOUS
  0
LAYER
  2
6
 70
    64
 62
     7
  6
CONTINUOUS
  0
LAYER
  2
10
 70
    64
 62
     7
  6
CONTINUOUS
  0
LAYER
  2
27
 70
    64
 62
     7
  6
CONTINUOUS
  0
LAYER
  2
11
 70
    64
 62
     7
  6
CONTINUOUS
  0
LAYER
  2
28
 70
    64
 62
     7
  6
CONTINUOUS
  0
LAYER
  2
DEFPOINTS
 70
    64
 62
     7
  6
CONTINUOUS
  0
LAYER
  2
1
 70
    64
 62
     7
  6
CONTINUOUS
  0
LAYER
  2
58
 70
    64
 62
     7
  6
CONTINUOUS
  0
LAYER
  2
19
 70
    64
 62
     7
  6
CONTINUOUS
  0
ENDTAB
  0
TABLE
  2
STYLE
 70
     4
  0
STYLE
  2
STANDARD
 70
     0
 40
0.0
 41
1.0
 50
0.0
 71
     0
 42
0.0
  3
txt
  4

  0
STYLE
  2
ROMANS
 70
     0
 40
0.2
 41
1.0
 50
0.0
 71
     0
 42
0.2
  3
ROMANS
  4

  0
STYLE
  2
ROMANC
 70
     0
 40
0.2
 41
1.0
 50
0.0
 71
     0
 42
0.2
  3
ROMANC
  4

  0
STYLE
  2
MONOTXT
 70
     0
 40
0.2
 41
1.0
 50
0.0
 71
     0
 42
0.2
  3
MONOTXT
  4

  0
ENDTAB
  0
TABLE
  2
VIEW
 70
     0
  0
ENDTAB
  0
TABLE
  2
UCS
 70
     0
  0
ENDTAB
  0
TABLE
  2
APPID
 70
     1
  0
APPID
  2
ACAD
 70
     0
  0
ENDTAB
  0
TABLE
  2
DIMSTYLE
 70
     2
  0
DIMSTYLE
  2
STANDARD
 70
     0
  3

  4

  5

  6

  7

 40
1.0
 41
0.18
 42
0.0625
 43
0.38
 44
0.18
 45
0.0
 46
0.0
 47
0.0
 48
0.0
140
0.18
141
0.09
142
0.0
143
25.4
144
1.0
145
0.0
146
1.0
147
0.09
 71
     0
 72
     0
 73
     1
 74
     1
 75
     0
 76
     0
 77
     0
 78
     0
170
     0
171
     2
172
     0
173
     0
174
     0
175
     0
176
     0
177
     0
178
     0
  0
DIMSTYLE
  2
MSADIM
 70
     0
  3

  4

  5

  6

  7

 40
1.0
 41
10.0
 42
5.0
 43
0.0
 44
5.0
 45
0.0
 46
0.0
 47
0.0
 48
0.0
140
10.0
141
5.0
142
0.0
143
25.4
144
1.0
145
5.0
146
1.0
147
5.0
 71
     0
 72
     0
 73
     1
 74
     1
 75
     1
 76
     1
 77
     0
 78
     2
170
     0
171
     2
172
     0
173
     0
174
     0
175
     0
176
     0
177
     0
178
     0
  0
ENDTAB
  0
ENDSEC
  0
SECTION
  2
BLOCKS
  0
BLOCK
  8
11
  6
CONTINUOUS
 62
     7
  5
70
  2
*D0
 70
     1
 10
0.0
 20
0.0
 30
0.0
  3
*N0
  0
TEXT
  8
11
  6
CONTINUOUS
 62
     7
  5
71
 10
892051.828
 20
7274360.863
 30
0.0
 40
10.0
  1
S70%%d13'40"E
 50
340.227789
  7
MONOTXT
 72
     1
 11
892099.882219
 21
7274354.215224
 31
0.0
210
0.0
220
0.0
230
1.0
 73
     3
  0
TEXT
  8
11
  6
CONTINUOUS
 62
     7
  5
72
 10
892070.255
 20
7274375.492
 30
0.0
 40
10.0
  1
4754.25'
 50
340.227789
  7
MONOTXT
 72
     1
 11
892103.264975
 21
7274363.62576
 31
0.0
210
0.0
220
0.0
230
1.0
  0
ENDBLK
  8
11
  6
CONTINUOUS
 62
     7
  5
73
  0
ENDSEC
  0
SECTION
  2
ENTITIES
  0
LINE
  8
6
  6
CONTINUOUS
 62
     7
  5
29
 10
894633.788
 20
7274905.599
 30
0.0
 11
894586.112
 21
7273455.356
 31
0.0
  0
TEXT
  8
10
  6
CONTINUOUS
 62
     4
  5
2C
 10
893352.071
 20
7274415.74
 30
0.0
 40
13.999
  1
UNSUBDIVIDED
 50
358.1171
  7
ROMANS
 11
893352.530964
 21
7274429.731441
 31
0.0
210
0.0
220
0.0
230
1.0
 73
     3
  0
TEXT
  8
10
  6
CONTINUOUS
 62
     4
  5
2D
 10
891578.975
 20
7272127.069
 30
0.0
 40
13.999
  1
UNSUBDIVIDED
 50
358.1171
  7
ROMANS
 11
891579.434964
 21
7272141.060441
 31
0.0
210
0.0
220
0.0
230
1.0
 73
     3
  0
LINE
  8
6
  6
CONTINUOUS
 62
     7
  5
2E
 10
894623.918
 20
7273453.486
 30
0.0
 11
889977.87
 21
7275119.377
 31
0.0
  0
LINE
  8
6
  6
CONTINUOUS
 62
     7
  5
2F
 10
894620.466
 20
7273348.489
 30
0.0
 11
889652.605
 21
7275129.768
 31
0.0
  0
LINE
  8
27
  6
CONTINUOUS
 62
    32
  5
31
 10
894622.192
 20
7273400.988
 30
0.0
 11
889815.238
 21
7275124.573
 31
0.0
  0
LINE
  8
6
  6
CONTINUOUS
 62
     7
  5
32
 10
894633.788
 20
7274905.599
 30
0.0
 11
890128.409
 21
7275053.712
 31
0.0
  0
LINE
  8
6
  6
CONTINUOUS
 62
     7
  5
33
 10
889852.872
 20
7275057.96
 30
0.0
 11
889447.364
 21
7275071.292
 31
0.0
  0
TEXT
  8
11
  6
CONTINUOUS
 62
     7
  5
35
 10
894597.491
 20
7274944.25
 30
0.0
 40
8.0
  1
65'
 50
88.1171
  7
ROMANS
210
0.0
220
0.0
230
1.0
  0
TEXT
  8
11
  6
CONTINUOUS
 62
     7
  5
36
 10
894641.978
 20
7274870.647
 30
0.0
 40
8.0
  1
40'
 50
358.1171
  7
ROMANS
210
0.0
220
0.0
230
1.0
  0
TEXT
  8
11
  6
CONTINUOUS
 62
     7
  5
37
 10
889436.653
 20
7275110.753
 30
0.0
 40
8.0
  1
65'
 50
88.1171
  7
ROMANS
210
0.0
220
0.0
230
1.0
  0
TEXT
  8
11
  6
CONTINUOUS
 62
     7
  5
38
 10
894299.936
 20
7274916.656
 30
0.0
 40
8.0
  1
620'
 50
358.1171
  7
ROMANS
210
0.0
220
0.0
230
1.0
  0
TEXT
  8
11
  6
CONTINUOUS
 62
     7
  5
39
 10
894578.195
 20
7273461.771
 30
0.0
 40
8.0
  1
4
 50
340.227803
  7
ROMANS
 72
     1
 11
894583.09765
 21
7273468.509812
 31
0.0
210
0.0
220
0.0
230
1.0
 73
     3
  0
TEXT
  8
11
  6
CONTINUOUS
 62
     7
  5
3A
 10
894585.723
 20
7273459.065
 30
0.0
 40
8.0
  1
2
 50
340.227803
  7
ROMANS
 72
     1
 11
894590.62565
 21
7273465.803812
 31
0.0
210
0.0
220
0.0
230
1.0
 73
     3
  0
TEXT
  8
11
  6
CONTINUOUS
 62
     7
  5
3B
 10
894594.201
 20
7273456.017
 30
0.0
 40
8.0
  1
.
 50
340.227803
  7
ROMANS
 72
     1
 11
894598.151312
 21
7273463.098152
 31
0.0
210
0.0
220
0.0
230
1.0
 73
     3
  0
TEXT
  8
11
  6
CONTINUOUS
 62
     7
  5
3C
 10
894600.483
 20
7273453.759
 30
0.0
 40
8.0
  1
0
 50
340.227803
  7
ROMANS
 72
     1
 11
894605.683961
 21
7273460.390576
 31
0.0
210
0.0
220
0.0
230
1.0
 73
     3
  0
TEXT
  8
11
  6
CONTINUOUS
 62
     7
  5
3D
 10
894608.309
 20
7273450.946
 30
0.0
 40
8.0
  1
3
 50
340.227803
  7
ROMANS
 72
     1
 11
894613.21165
 21
7273457.684812
 31
0.0
210
0.0
220
0.0
230
1.0
 73
     3
  0
TEXT
  8
11
  6
CONTINUOUS
 62
     7
  5
3E
 10
894616.785
 20
7273447.898
 30
0.0
 40
8.0
  1
'
 50
340.227803
  7
ROMANS
 72
     1
 11
894620.746605
 21
7273454.975093
 31
0.0
210
0.0
220
0.0
230
1.0
 73
     3
  0
TEXT
  8
28
  6
CONTINUOUS
 62
    32
  5
41
 10
894054.835
 20
7273566.176
 30
0.0
 40
24.0
  1
P
 50
340.274158
  7
ROMANC
 72
     1
 11
894072.006962
 21
7273585.514963
 31
0.0
210
0.0
220
0.0
230
1.0
 73
     3
  0
TEXT
  8
28
  6
CONTINUOUS
 62
    32
  5
42
 10
894080.451
 20
7273556.99
 30
0.0
 40
24.0
  1
A
 50
340.274158
  7
ROMANC
 72
     1
 11
894098.156689
 21
7273576.137589
 31
0.0
210
0.0
220
0.0
230
1.0
 73
     3
  0
TEXT
  8
28
  6
CONTINUOUS
 62
    32
  5
43
 10
894107.134
 20
7273547.423
 30
0.0
 40
24.0
  1
C
 50
340.274158
  7
ROMANC
 72
     1
 11
894123.238507
 21
7273567.144711
 31
0.0
210
0.0
220
0.0
230
1.0
 73
     3
  0
TEXT
  8
28
  6
CONTINUOUS
 62
    32
  5
44
 10
894130.616
 20
7273539.003
 30
0.0
 40
24.0
  1
I
 50
340.274158
  7
ROMANC
 72
     1
 11
894142.451628
 21
7273560.255363
 31
0.0
210
0.0
220
0.0
230
1.0
 73
     3
  0
TEXT
  8
28
  6
CONTINUOUS
 62
    32
  5
45
 10
894145.558
 20
7273533.646
 30
0.0
 40
24.0
  1
F
 50
340.274158
  7
ROMANC
 72
     1
 11
894162.196234
 21
7273553.176337
 31
0.0
210
0.0
220
0.0
230
1.0
 73
     3
  0
TEXT
  8
28
  6
CONTINUOUS
 62
    32
  5
46
 10
894170.106
 20
7273524.843
 30
0.0
 40
24.0
  1
I
 50
340.274158
  7
ROMANC
 72
     1
 11
894181.941628
 21
7273546.095363
 31
0.0
210
0.0
220
0.0
230
1.0
 73
     3
  0
TEXT
  8
28
  6
CONTINUOUS
 62
    32
  5
47
 10
894185.048
 20
7273519.486
 30
0.0
 40
24.0
  1
C
 50
340.274158
  7
ROMANC
 72
     1
 11
894201.152507
 21
7273539.207711
 31
0.0
210
0.0
220
0.0
230
1.0
 73
     3
  0
TEXT
  8
28
  6
CONTINUOUS
 62
    32
  5
48
 10
894208.53
 20
7273511.065
 30
0.0
 40
24.0
  1
 
 50
340.274158
  7
ROMANC
 72
     1
 11
894224.161024
 21
7273530.956483
 31
0.0
210
0.0
220
0.0
230
1.0
 73
     3
  0
TEXT
  8
28
  6
CONTINUOUS
 62
    32
  5
49
 10
894232.009
 20
7273502.647
 30
0.0
 40
24.0
  1
&
 50
340.274158
  7
ROMANC
 72
     1
 11
894247.757688
 21
7273522.496293
 31
0.0
210
0.0
220
0.0
230
1.0
 73
     3
  0
TEXT
  8
28
  6
CONTINUOUS
 62
    32
  5
4A
 10
894254.78
 20
7273494.483
 30
0.0
 40
24.0
  1
 
 50
340.274158
  7
ROMANC
 72
     1
 11
894270.411024
 21
7273514.374483
 31
0.0
210
0.0
220
0.0
230
1.0
 73
     3
  0
TEXT
  8
28
  6
CONTINUOUS
 62
    32
  5
4B
 10
894277.55
 20
7273486.318
 30
0.0
 40
24.0
  1
S
 50
340.274158
  7
ROMANC
 72
     1
 11
894293.120779
 21
7273506.231084
 31
0.0
210
0.0
220
0.0
230
1.0
 73
     3
  0
TEXT
  8
28
  6
CONTINUOUS
 62
    32
  5
4C
 10
894299.964
 20
7273478.282
 30
0.0
 40
24.0
  1
A
 50
340.274158
  7
ROMANC
 72
     1
 11
894317.669689
 21
7273497.429589
 31
0.0
210
0.0
220
0.0
230
1.0
 73
     3
  0
TEXT
  8
28
  6
CONTINUOUS
 62
    32
  5
4D
 10
894326.647
 20
7273468.715
 30
0.0
 40
24.0
  1
N
 50
340.274158
  7
ROMANC
 72
     1
 11
894344.886417
 21
7273487.671216
 31
0.0
210
0.0
220
0.0
230
1.0
 73
     3
  0
TEXT
  8
28
  6
CONTINUOUS
 62
    32
  5
4E
 10
894354.396
 20
7273458.765
 30
0.0
 40
24.0
  1
T
 50
340.274158
  7
ROMANC
 72
     1
 11
894370.500507
 21
7273478.486711
 31
0.0
210
0.0
220
0.0
230
1.0
 73
     3
  0
TEXT
  8
28
  6
CONTINUOUS
 62
    32
  5
4F
 10
894377.878
 20
7273450.344
 30
0.0
 40
24.0
  1
A
 50
340.274158
  7
ROMANC
 72
     1
 11
894395.583689
 21
7273469.491589
 31
0.0
210
0.0
220
0.0
230
1.0
 73
     3
  0
TEXT
  8
28
  6
CONTINUOUS
 62
    32
  5
50
 10
894404.561
 20
7273440.777
 30
0.0
 40
24.0
  1
 
 50
340.274158
  7
ROMANC
 72
     1
 11
894420.192024
 21
7273460.668483
 31
0.0
210
0.0
220
0.0
230
1.0
 73
     3
  0
TEXT
  8
28
  6
CONTINUOUS
 62
    32
  5
51
 10
894431.244
 20
7273431.21
 30
0.0
 40
24.0
  1
F
 50
340.274158
  7
ROMANC
 72
     1
 11
894447.882234
 21
7273450.740337
 31
0.0
210
0.0
220
0.0
230
1.0
 73
     3
  0
TEXT
  8
28
  6
CONTINUOUS
 62
    32
  5
52
 10
894455.793
 20
7273422.408
 30
0.0
 40
24.0
  1
E
 50
340.274158
  7
ROMANC
 72
     1
 11
894472.431234
 21
7273441.938337
 31
0.0
210
0.0
220
0.0
230
1.0
 73
     3
  0
TEXT
  8
28
  6
CONTINUOUS
 62
    32
  5
53
 10
889889.397
 20
7275110.73
 30
0.0
 40
24.0
  1
P
 50
340.274158
  7
ROMANC
 72
     1
 11
889898.468486
 21
7275107.477321
 31
0.0
210
0.0
220
0.0
230
1.0
  0
TEXT
  8
28
  6
CONTINUOUS
 62
    32
  5
54
 10
889915.015
 20
7275101.545
 30
0.0
 40
24.0
  1
A
 50
340.274158
  7
ROMANC
 72
     1
 11
889924.620213
 21
7275098.100947
 31
0.0
210
0.0
220
0.0
230
1.0
  0
TEXT
  8
28
  6
CONTINUOUS
 62
    32
  5
55
 10
889941.696
 20
7275091.978
 30
0.0
 40
24.0
  1
C
 50
340.274158
  7
ROMANC
 72
     1
 11
889949.70003
 21
7275089.108069
 31
0.0
210
0.0
220
0.0
230
1.0
  0
TEXT
  8
28
  6
CONTINUOUS
 62
    32
  5
56
 10
889965.178
 20
7275083.558
 30
0.0
 40
24.0
  1
I
 50
340.274158
  7
ROMANC
 72
     1
 11
889968.913151
 21
7275082.218721
 31
0.0
210
0.0
220
0.0
230
1.0
  0
TEXT
  8
28
  6
CONTINUOUS
 62
    32
  5
57
 10
889980.12
 20
7275078.2
 30
0.0
 40
24.0
  1
F
 50
340.274158
  7
ROMANC
 72
     1
 11
889988.657758
 21
7275075.138695
 31
0.0
210
0.0
220
0.0
230
1.0
  0
TEXT
  8
28
  6
CONTINUOUS
 62
    32
  5
58
 10
890004.669
 20
7275069.399
 30
0.0
 40
24.0
  1
I
 50
340.274158
  7
ROMANC
 72
     1
 11
890008.404151
 21
7275068.059721
 31
0.0
210
0.0
220
0.0
230
1.0
  0
TEXT
  8
28
  6
CONTINUOUS
 62
    32
  5
59
 10
890019.611
 20
7275064.041
 30
0.0
 40
24.0
  1
C
 50
340.274158
  7
ROMANC
 72
     1
 11
890027.61503
 21
7275061.171069
 31
0.0
210
0.0
220
0.0
230
1.0
  0
TEXT
  8
28
  6
CONTINUOUS
 62
    32
  5
5A
 10
890043.093
 20
7275055.621
 30
0.0
 40
24.0
  1
 
 50
340.274158
  7
ROMANC
 72
     1
 11
890050.623547
 21
7275052.920841
 31
0.0
210
0.0
220
0.0
230
1.0
  0
TEXT
  8
28
  6
CONTINUOUS
 62
    32
  5
5B
 10
890066.573
 20
7275047.202
 30
0.0
 40
24.0
  1
&
 50
340.274158
  7
ROMANC
 72
     1
 11
890074.221212
 21
7275044.459651
 31
0.0
210
0.0
220
0.0
230
1.0
  0
TEXT
  8
28
  6
CONTINUOUS
 62
    32
  5
5C
 10
890089.342
 20
7275039.038
 30
0.0
 40
24.0
  1
 
 50
340.274158
  7
ROMANC
 72
     1
 11
890096.872547
 21
7275036.337841
 31
0.0
210
0.0
220
0.0
230
1.0
  0
TEXT
  8
28
  6
CONTINUOUS
 62
    32
  5
5D
 10
890112.112
 20
7275030.874
 30
0.0
 40
24.0
  1
S
 50
340.274158
  7
ROMANC
 72
     1
 11
890119.582303
 21
7275028.195442
 31
0.0
210
0.0
220
0.0
230
1.0
  0
TEXT
  8
28
  6
CONTINUOUS
 62
    32
  5
5E
 10
890134.526
 20
7275022.837
 30
0.0
 40
24.0
  1
A
 50
340.274158
  7
ROMANC
 72
     1
 11
890144.131213
 21
7275019.392947
 31
0.0
210
0.0
220
0.0
230
1.0
  0
TEXT
  8
28
  6
CONTINUOUS
 62
    32
  5
5F
 10
890161.209
 20
7275013.269
 30
0.0
 40
24.0
  1
N
 50
340.274158
  7
ROMANC
 72
     1
 11
890171.347941
 21
7275009.633574
 31
0.0
210
0.0
220
0.0
230
1.0
  0
TEXT
  8
28
  6
CONTINUOUS
 62
    32
  5
60
 10
890188.959
 20
7275003.319
 30
0.0
 40
24.0
  1
T
 50
340.274158
  7
ROMANC
 72
     1
 11
890196.96303
 21
7275000.449069
 31
0.0
210
0.0
220
0.0
230
1.0
  0
TEXT
  8
28
  6
CONTINUOUS
 62
    32
  5
61
 10
890212.442
 20
7274994.9
 30
0.0
 40
24.0
  1
A
 50
340.274158
  7
ROMANC
 72
     1
 11
890222.047213
 21
7274991.455947
 31
0.0
210
0.0
220
0.0
230
1.0
  0
TEXT
  8
28
  6
CONTINUOUS
 62
    32
  5
62
 10
890239.124
 20
7274985.332
 30
0.0
 40
24.0
  1
 
 50
340.274158
  7
ROMANC
 72
     1
 11
890246.654547
 21
7274982.631841
 31
0.0
210
0.0
220
0.0
230
1.0
  0
TEXT
  8
28
  6
CONTINUOUS
 62
    32
  5
63
 10
890265.806
 20
7274975.764
 30
0.0
 40
24.0
  1
F
 50
340.274158
  7
ROMANC
 72
     1
 11
890274.343758
 21
7274972.702695
 31
0.0
210
0.0
220
0.0
230
1.0
  0
TEXT
  8
28
  6
CONTINUOUS
 62
    32
  5
64
 10
890290.354
 20
7274966.962
 30
0.0
 40
24.0
  1
E
 50
340.274158
  7
ROMANC
 72
     1
 11
890298.891758
 21
7274963.900695
 31
0.0
210
0.0
220
0.0
230
1.0
  0
TEXT
  8
11
  6
CONTINUOUS
 62
     7
  5
65
 10
889742.849
 20
7275114.704
 30
0.0
 40
8.0
  1
50'
 50
68.1171
  7
ROMANS
 72
     4
 11
889742.616093
 21
7275124.856306
 31
0.0
210
0.0
220
0.0
230
1.0
  0
TEXT
  8
11
  6
CONTINUOUS
 62
     7
  5
66
 10
889861.509
 20
7275113.265
 30
0.0
 40
8.0
  1
50'
 50
68.1171
  7
ROMANS
 72
     4
 11
889861.276093
 21
7275123.417306
 31
0.0
210
0.0
220
0.0
230
1.0
  0
TEXT
  8
11
  6
CONTINUOUS
 62
     7
  5
67
 10
894538.462
 20
7273447.61
 30
0.0
 40
8.0
  1
50'
 50
68.1171
  7
ROMANS
 72
     4
 11
894538.229093
 21
7273457.762306
 31
0.0
210
0.0
220
0.0
230
1.0
  0
TEXT
  8
11
  6
CONTINUOUS
 62
     7
  5
68
 10
894582.36
 20
7273379.705
 30
0.0
 40
8.0
  1
50'
 50
68.1171
  7
ROMANS
 72
     4
 11
894582.127093
 21
7273389.857306
 31
0.0
210
0.0
220
0.0
230
1.0
  0
TEXT
  8
11
  6
CONTINUOUS
 62
     7
  5
69
 10
894601.881
 20
7274182.03
 30
0.0
 40
8.0
  1
1447.49'
 50
88.1171
  7
ROMANS
 72
     4
 11
894598.846951
 21
7274211.47859
 31
0.0
210
0.0
220
0.0
230
1.0
  0
TEXT
  8
11
  6
CONTINUOUS
 62
     7
  5
6A
 10
889538.053
 20
7275074.086
 30
0.0
 40
8.0
  1
405.82'
 50
358.1171
  7
ROMANS
 72
     4
 11
889563.503749
 21
7275077.251477
 31
0.0
210
0.0
220
0.0
230
1.0
  0
TEXT
  8
11
  6
CONTINUOUS
 62
     7
  5
6B
 10
892052.791
 20
7274992.414
 30
0.0
 40
8.0
  1
3888.25'
 50
358.1171
  7
ROMANS
 72
     4
 11
892082.23959
 21
7274995.448049
 31
0.0
210
0.0
220
0.0
230
1.0
  0
INSERT
  8
11
  6
CONTINUOUS
 62
     7
  5
74
  2
*D0
 10
889655.295
 20
7275238.295
 30
0.0
 70
     0
 71
     0
  0
POLYLINE
  8
1
  6
HIDDEN
 62
   253
  5
76
 66
     1
 10
0.0
 20
0.0
 30
0.0
 70
     1
  0
VERTEX
  8
1
  6
HIDDEN
 62
   253
  5
77
 10
894665.268
 20
7274978.128
 30
0.0
  0
VERTEX
  8
1
  6
HIDDEN
 62
   253
  5
78
 10
889390.405
 20
7275138.61
 30
0.0
  0
VERTEX
  8
1
  6
HIDDEN
 62
   253
  5
79
 10
889223.419
 20
7269871.041
 30
0.0
  0
VERTEX
  8
1
  6
HIDDEN
 62
   253
  5
7A
 10
894498.893
 20
7269703.664
 30
0.0
  0
SEQEND
  8
1
  6
HIDDEN
 62
   253
  5
7B
  0
LINE
  8
58
  6
DIVIDE
 62
   216
  5
7D
 10
894014.509
 20
7275003.25
 30
0.0
 11
893841.025
 21
7269726.1
 31
0.0
  0
TEXT
  8
19
  6
CONTINUOUS
 62
     1
  5
7F
 10
894648.735
 20
7274479.842
 30
0.0
 40
24.0
  1
QUITSNA AVE
 50
88.1171
  7
ROMANC
 72
     4
 11
894641.379426
 21
7274621.316068
 31
0.0
210
0.0
220
0.0
230
1.0
  0
TEXT
  8
19
  6
CONTINUOUS
 62
     1
  5
80
 10
894569.731
 20
7271995.424
 30
0.0
 40
24.0
  1
QUITSNA AVE
 50
88.1171
  7
ROMANC
 72
     4
 11
894562.375426
 21
7272136.898068
 31
0.0
210
0.0
220
0.0
230
1.0
  0
TEXT
  8
19
  6
CONTINUOUS
 62
     1
  5
81
 10
894497.395
 20
7269756.868
 30
0.0
 40
24.0
  1
QUITSNA AVE
 50
88.1171
  7
ROMANC
 72
     4
 11
894490.039426
 21
7269898.342068
 31
0.0
210
0.0
220
0.0
230
1.0
  0
TEXT
  8
19
  6
CONTINUOUS
 62
     1
  5
82
 10
889413.45
 20
7274683.703
 30
0.0
 40
24.0
  1
ZEELAND AVE
 50
88.1171
  7
ROMANC
 72
     4
 11
889406.187576
 21
7274828.010537
 31
0.0
210
0.0
220
0.0
230
1.0
  0
TEXT
  8
19
  6
CONTINUOUS
 62
     1
  5
83
 10
889258.751
 20
7270013.29
 30
0.0
 40
24.0
  1
ZEELAND AVE
 50
88.1171
  7
ROMANC
 72
     4
 11
889251.488576
 21
7270157.597537
 31
0.0
210
0.0
220
0.0
230
1.0
  0
TEXT
  8
19
  6
CONTINUOUS
 62
     1
  5
84
 10
889338.439
 20
7272280.75
 30
0.0
 40
24.0
  1
ZEELAND AVE
 50
88.1171
  7
ROMANC
 72
     4
 11
889331.176576
 21
7272425.057537
 31
0.0
210
0.0
220
0.0
230
1.0
  0
TEXT
  8
19
  6
CONTINUOUS
 62
     1
  5
85
 10
889296.758
 20
7269880.999
 30
0.0
 40
24.0
  1
34TH ST
 50
358.1171
  7
ROMANC
 72
     4
 11
889385.730431
 21
7269890.080546
 31
0.0
210
0.0
220
0.0
230
1.0
  0
TEXT
  8
19
  6
CONTINUOUS
 62
     1
  5
86
 10
891566.327
 20
7269807.529
 30
0.0
 40
24.0
  1
34TH ST
 50
358.1171
  7
ROMANC
 72
     4
 11
891655.299431
 21
7269816.610546
 31
0.0
210
0.0
220
0.0
230
1.0
  0
TEXT
  8
19
  6
CONTINUOUS
 62
     1
  5
87
 10
894051.438
 20
7269725.006
 30
0.0
 40
24.0
  1
34TH ST
 50
358.1171
  7
ROMANC
 72
     4
 11
894140.410431
 21
7269734.087546
 31
0.0
210
0.0
220
0.0
230
1.0
  0
TEXT
  8
19
  6
CONTINUOUS
 62
     1
  5
88
 10
893454.926
 20
7274973.673
 30
0.0
 40
24.0
  1
STATE HIGHWAY 114 (19TH ST)
 50
358.1171
  7
ROMANC
 72
     4
 11
893787.248966
 21
7274974.754485
 31
0.0
210
0.0
220
0.0
230
1.0
  0
TEXT
  8
19
  6
CONTINUOUS
 62
     1
  5
89
 10
890165.192
 20
7275079.68
 30
0.0
 40
24.0
  1
STATE HIGHWAY 114 (19TH ST)
 50
358.1171
  7
ROMANC
 72
     4
 11
890497.514966
 21
7275080.761485
 31
0.0
210
0.0
220
0.0
230
1.0
  0
LINE
  8
0
  6
CONTINUOUS
 62
     2
  5
8A
 10
889447.364
 20
7275071.292
 30
0.0
 11
889281.484
 21
7269880.691
 31
0.0
  0
LINE
  8
0
  6
CONTINUOUS
 62
     2
  5
8B
 10
889281.484
 20
7269880.691
 30
0.0
 11
894464.203
 21
7269713.739
 31
0.0
  0
ENDSEC
  0
EOF
