  0
SECTION
  2
HEADER
  9
$ACADVER
  1
AC1009
  9
$INSBASE
 10
0.0
 20
0.0
 30
0.0
  9
$EXTMIN
 10
887970.673
 20
7235503.352
 30
0.0
  9
$EXTMAX
 10
979615.286
 20
7315959.785
 30
0.0
  9
$LIMMIN
 10
0.0
 20
0.0
  9
$LIMMAX
 10
12.0
 20
9.0
  9
$ORTHOMODE
 70
     0
  9
$REGENMODE
 70
     1
  9
$FILLMODE
 70
     1
  9
$QTEXTMODE
 70
     0
  9
$MIRRTEXT
 70
     1
  9
$DRAGMODE
 70
     2
  9
$LTSCALE
 40
1.0
  9
$OSMODE
 70
     0
  9
$ATTMODE
 70
     1
  9
$TEXTSIZE
 40
0.2
  9
$TRACEWID
 40
0.05
  9
$TEXTSTYLE
  7
STANDARD
  9
$CLAYER
  8
0
  9
$CELTYPE
  6
CONTINUOUS
  9
$CECOLOR
 62
   256
  9
$DIMSCALE
 40
1.0
  9
$DIMASZ
 40
0.18
  9
$DIMEXO
 40
0.0625
  9
$DIMDLI
 40
0.38
  9
$DIMRND
 40
0.0
  9
$DIMDLE
 40
0.0
  9
$DIMEXE
 40
0.18
  9
$DIMTP
 40
0.0
  9
$DIMTM
 40
0.0
  9
$DIMTXT
 40
0.18
  9
$DIMCEN
 40
0.09
  9
$DIMTSZ
 40
0.0
  9
$DIMTOL
 70
     0
  9
$DIMLIM
 70
     0
  9
$DIMTIH
 70
     1
  9
$DIMTOH
 70
     1
  9
$DIMSE1
 70
     0
  9
$DIMSE2
 70
     0
  9
$DIMTAD
 70
     0
  9
$DIMZIN
 70
     0
  9
$DIMBLK
  1

  9
$DIMASO
 70
     1
  9
$DIMSHO
 70
     1
  9
$DIMPOST
  1

  9
$DIMAPOST
  1

  9
$DIMALT
 70
     0
  9
$DIMALTD
 70
     2
  9
$DIMALTF
 40
25.4
  9
$DIMLFAC
 40
1.0
  9
$DIMTOFL
 70
     0
  9
$DIMTVP
 40
0.0
  9
$DIMTIX
 70
     0
  9
$DIMSOXD
 70
     0
  9
$DIMSAH
 70
     0
  9
$DIMBLK1
  1

  9
$DIMBLK2
  1

  9
$DIMSTYLE
  2
STANDARD
  9
$DIMCLRD
 70
     0
  9
$DIMCLRE
 70
     0
  9
$DIMCLRT
 70
     0
  9
$DIMTFAC
 40
1.0
  9
$DIMGAP
 40
0.09
  9
$LUNITS
 70
     2
  9
$LUPREC
 70
     4
  9
$AXISMODE
 70
     0
  9
$AXISUNIT
 10
0.0
 20
0.0
  9
$SKETCHINC
 40
0.1
  9
$FILLETRAD
 40
0.0
  9
$AUNITS
 70
     0
  9
$AUPREC
 70
     0
  9
$MENU
  1
acad
  9
$ELEVATION
 40
0.0
  9
$PELEVATION
 40
0.0
  9
$THICKNESS
 40
0.0
  9
$LIMCHECK
 70
     0
  9
$BLIPMODE
 70
     1
  9
$CHAMFERA
 40
0.0
  9
$CHAMFERB
 40
0.0
  9
$SKPOLY
 70
     0
  9
$TDCREATE
 40
2453013.905185185
  9
$TDUPDATE
 40
2453013.905185185
  9
$TDINDWG
 40
0.0000000000
  9
$TDUSRTIMER
 40
0.0000000000
  9
$USRTIMER
 70
     1
  9
$ANGBASE
 50
0.0
  9
$ANGDIR
 70
     0
  9
$PDMODE
 70
     0
  9
$PDSIZE
 40
0.0
  9
$PLINEWID
 40
0.0
  9
$COORDS
 70
     0
  9
$SPLFRAME
 70
     0
  9
$SPLINETYPE
 70
     6
  9
$SPLINESEGS
 70
    10
  9
$ATTDIA
 70
     0
  9
$ATTREQ
 70
     1
  9
$HANDLING
 70
     1
  9
$HANDSEED
  5
1F8
  9
$SURFTAB1
 70
     6
  9
$SURFTAB2
 70
     6
  9
$SURFTYPE
 70
     6
  9
$SURFU
 70
     6
  9
$SURFV
 70
     6
  9
$UCSNAME
  2

  9
$UCSORG
 10
0.0
 20
0.0
 30
0.0
  9
$UCSXDIR
 10
1.0
 20
0.0
 30
0.0
  9
$UCSYDIR
 10
0.0
 20
1.0
 30
0.0
  9
$PUCSNAME
  2

  9
$PUCSORG
 10
0.0
 20
0.0
 30
0.0
  9
$PUCSXDIR
 10
1.0
 20
0.0
 30
0.0
  9
$PUCSYDIR
 10
0.0
 20
1.0
 30
0.0
  9
$USERI1
 70
     0
  9
$USERI2
 70
     0
  9
$USERI3
 70
     0
  9
$USERI4
 70
     0
  9
$USERI5
 70
     0
  9
$USERR1
 40
0.0
  9
$USERR2
 40
0.0
  9
$USERR3
 40
0.0
  9
$USERR4
 40
0.0
  9
$USERR5
 40
0.0
  9
$WORLDVIEW
 70
     1
  9
$SHADEDGE
 70
     3
  9
$SHADEDIF
 70
    70
  9
$TILEMODE
 70
     1
  9
$MAXACTVP
 70
    16
  9
$PINSBASE
 10
0.0
 20
0.0
 30
0.0
  9
$PLIMCHECK
 70
     0
  9
$PEXTMIN
 10
-1.000000E+20
 20
-1.000000E+20
 30
-1.000000E+20
  9
$PEXTMAX
 10
-1.000000E+20
 20
-1.000000E+20
 30
-1.000000E+20
  9
$PLIMMIN
 10
0.0
 20
0.0
  9
$PLIMMAX
 10
12.0
 20
9.0
  9
$UNITMODE
 70
     0
  9
$VISRETAIN
 70
     0
  9
$PLINEGEN
 70
     1
  9
$PSLTSCALE
 70
     0
  9
$TREEDEPTH
 70
  3020
  9
$DWGCODEPAGE
  3
ansi_1252
  0
ENDSEC
  0
SECTION
  2
TABLES
  0
TABLE
  2
VPORT
 70
     1
  0
VPORT
  2
*ACTIVE
 70
     0
 10
0.0
 20
0.0
 11
1.0
 21
1.0
 12
0.0
 22
0.0
 13
0.0
 23
0.0
 14
0.0
 24
0.0
 15
0.0
 25
0.0
 16
0.0
 26
0.0
 36
1.0
 17
891577.29248
 27
7267034.3345
 37
0.0
 40
5397.389
 41
1.099553
 42
50.0
 43
0.004
 44
0.0
 50
0.0
 51
0.0
 71
     0
 72
   100
 73
     1
 74
     0
 75
     0
 76
     0
 77
     0
 78
     0
  0
ENDTAB
  0
TABLE
  2
LTYPE
 70
     7
  0
LTYPE
  2
CONTINUOUS
 70
     0
  3
Solid line
 72
    65
 73
     0
 40
0.0
  0
LTYPE
  2
DOT
 70
    64
  3
. . . . . . . . . . . . . . . . . . . . . . . . . . . . . . . . .
 72
    65
 73
     2
 40
0.25
 49
0.0
 49
-0.25
  0
LTYPE
  2
HIDDEN
 70
    64
  3
__ __ __ __ __ __ __ __ __ __ __ __ __ __ __ __ __ __ __ __ __ 
 72
    65
 73
     2
 40
0.375
 49
0.25
 49
-0.125
  0
LTYPE
  2
DASHED
 70
    64
  3
__ __ __ __ __ __ __ __ __ __ __ __ __ __ __ __ __ __ __ __ __
 72
    65
 73
     2
 40
0.75
 49
0.5
 49
-0.25
  0
LTYPE
  2
DASHDOT
 70
    64
  3
__ . __ . __ . __ . __ . __ . __ . __ . __ . __ . __ . __ . _
 72
    65
 73
     4
 40
1.0
 49
0.5
 49
-0.25
 49
0.0
 49
-0.25
  0
LTYPE
  2
DIVIDE
 70
    64
  3
____ . . ____ . . ____ . . ____ . . ____ . . ____ . . ____ . .
 72
    65
 73
     6
 40
1.25
 49
0.5
 49
-0.25
 49
0.0
 49
-0.25
 49
0.0
 49
-0.25
  0
LTYPE
  2
CENTER
 70
    64
  3
____ _ ____ _ ____ _ ____ _ ____ _ ____ _ ____ _ ____ _ ____ _
 72
    65
 73
     4
 40
2.0
 49
1.25
 49
-0.25
 49
0.25
 49
-0.25
  0
ENDTAB
  0
TABLE
  2
LAYER
 70
    11
  0
LAYER
  2
0
 70
    64
 62
     7
  6
CONTINUOUS
  0
LAYER
  2
CONSTRUCTION_CLASS
 70
     1
 62
     7
  6
CONTINUOUS
  0
LAYER
  2
PATTERN_CLASS
 70
     0
 62
     7
  6
CONTINUOUS
  0
LAYER
  2
10
 70
    64
 62
     7
  6
CONTINUOUS
  0
LAYER
  2
11
 70
    64
 62
     7
  6
CONTINUOUS
  0
LAYER
  2
1
 70
    64
 62
     7
  6
CONTINUOUS
  0
LAYER
  2
19
 70
    64
 62
     7
  6
CONTINUOUS
  0
LAYER
  2
58
 70
    64
 62
     7
  6
CONTINUOUS
  0
LAYER
  2
-62
 70
    64
 62
     7
  6
CONTINUOUS
  0
LAYER
  2
-1
 70
    64
 62
     7
  6
CONTINUOUS
  0
LAYER
  2
-48
 70
    64
 62
     7
  6
CONTINUOUS
  0
ENDTAB
  0
TABLE
  2
STYLE
 70
     4
  0
STYLE
  2
STANDARD
 70
     0
 40
0.0
 41
1.0
 50
0.0
 71
     0
 42
0.0
  3
txt
  4

  0
STYLE
  2
ROMANS
 70
     0
 40
0.2
 41
1.0
 50
0.0
 71
     0
 42
0.2
  3
ROMANS
  4

  0
STYLE
  2
ROMANC
 70
     0
 40
0.2
 41
1.0
 50
0.0
 71
     0
 42
0.2
  3
ROMANC
  4

  0
STYLE
  2
txt
 70
     0
 40
0.2
 41
1.0
 50
0.0
 71
     0
 42
0.2
  3
TXT
  4

  0
ENDTAB
  0
TABLE
  2
VIEW
 70
     0
  0
ENDTAB
  0
TABLE
  2
UCS
 70
     0
  0
ENDTAB
  0
TABLE
  2
APPID
 70
     1
  0
APPID
  2
ACAD
 70
     0
  0
ENDTAB
  0
TABLE
  2
DIMSTYLE
 70
     1
  0
DIMSTYLE
  2
STANDARD
 70
     0
  3

  4

  5

  6

  7

 40
1.0
 41
0.18
 42
0.0625
 43
0.38
 44
0.18
 45
0.0
 46
0.0
 47
0.0
 48
0.0
140
0.18
141
0.09
142
0.0
143
25.4
144
1.0
145
0.0
146
1.0
147
0.09
 71
     0
 72
     0
 73
     1
 74
     1
 75
     0
 76
     0
 77
     0
 78
     0
170
     0
171
     2
172
     0
173
     0
174
     0
175
     0
176
     0
177
     0
178
     0
  0
ENDTAB
  0
ENDSEC
  0
SECTION
  2
BLOCKS
  0
ENDSEC
  0
SECTION
  2
ENTITIES
  0
TEXT
  8
10
  6
CONTINUOUS
 62
     4
  5
2A
 10
891471.812
 20
7267075.229
 30
0.0
 40
13.999
  1
UNSUBDIVIDED
 50
358.2152
  7
ROMANS
210
0.0
220
0.0
230
1.0
  0
TEXT
  8
11
  6
CONTINUOUS
 62
     7
  5
2C
 10
894120.943
 20
7269037.211
 30
0.0
 40
8.0
  1
660'
 50
358.2152
  7
ROMANS
210
0.0
220
0.0
230
1.0
  0
TEXT
  8
11
  6
CONTINUOUS
 62
     7
  5
2D
 10
893821.775
 20
7269352.07
 30
0.0
 40
8.0
  1
660'
 50
88.2152
  7
ROMANS
210
0.0
220
0.0
230
1.0
  0
POLYLINE
  8
1
  6
HIDDEN
 62
   253
  5
2F
 66
     1
 10
0.0
 20
0.0
 30
0.0
 70
     1
  0
VERTEX
  8
1
  6
HIDDEN
 62
   253
  5
30
 10
894498.893
 20
7269703.664
 30
0.0
  0
VERTEX
  8
1
  6
HIDDEN
 62
   253
  5
31
 10
889223.419
 20
7269871.041
 30
0.0
  0
VERTEX
  8
1
  6
HIDDEN
 62
   253
  5
32
 10
889055.74
 20
7264581.618
 30
0.0
  0
VERTEX
  8
1
  6
HIDDEN
 62
   253
  5
33
 10
894332.908
 20
7264441.563
 30
0.0
  0
SEQEND
  8
1
  6
HIDDEN
 62
   253
  5
34
  0
TEXT
  8
19
  6
CONTINUOUS
 62
     1
  5
37
 10
894007.472
 20
7269679.608
 30
0.0
 40
24.0
  1
34TH ST
 50
358.2152
  7
ROMANC
 72
     4
 11
894096.428751
 21
7269688.841868
 31
0.0
210
0.0
220
0.0
230
1.0
  0
TEXT
  8
19
  6
CONTINUOUS
 62
     1
  5
38
 10
889223.248
 20
7269820.304
 30
0.0
 40
24.0
  1
34TH ST
 50
358.2152
  7
ROMANC
 72
     4
 11
889312.204751
 21
7269829.537868
 31
0.0
210
0.0
220
0.0
230
1.0
  0
TEXT
  8
19
  6
CONTINUOUS
 62
     1
  5
39
 10
891533.678
 20
7269754.68
 30
0.0
 40
24.0
  1
34TH ST
 50
358.2152
  7
ROMANC
 72
     4
 11
891622.634751
 21
7269763.913868
 31
0.0
210
0.0
220
0.0
230
1.0
  0
TEXT
  8
19
  6
CONTINUOUS
 62
     1
  5
3A
 10
893992.053
 20
7264425.853
 30
0.0
 40
24.0
  1
50TH ST
 50
358.2152
  7
ROMANC
 72
     4
 11
894079.876301
 21
7264435.122188
 31
0.0
210
0.0
220
0.0
230
1.0
  0
TEXT
  8
19
  6
CONTINUOUS
 62
     1
  5
3B
 10
889195.415
 20
7264575.388
 30
0.0
 40
24.0
  1
50TH ST
 50
358.2152
  7
ROMANC
 72
     4
 11
889283.238301
 21
7264584.657188
 31
0.0
210
0.0
220
0.0
230
1.0
  0
TEXT
  8
19
  6
CONTINUOUS
 62
     1
  5
3C
 10
891661.173
 20
7264496.784
 30
0.0
 40
24.0
  1
50TH ST
 50
358.2152
  7
ROMANC
 72
     4
 11
891748.996301
 21
7264506.053188
 31
0.0
210
0.0
220
0.0
230
1.0
  0
TEXT
  8
19
  6
CONTINUOUS
 62
     1
  5
3D
 10
894454.305
 20
7269265.588
 30
0.0
 40
24.0
  1
QUITSNA AVE
 50
88.2152
  7
ROMANC
 72
     4
 11
894446.70721
 21
7269407.049267
 31
0.0
210
0.0
220
0.0
230
1.0
  0
TEXT
  8
19
  6
CONTINUOUS
 62
     1
  5
3E
 10
894377.98
 20
7266782.526
 30
0.0
 40
24.0
  1
QUITSNA AVE
 50
88.2152
  7
ROMANC
 72
     4
 11
894370.38221
 21
7266923.987267
 31
0.0
210
0.0
220
0.0
230
1.0
  0
TEXT
  8
19
  6
CONTINUOUS
 62
     1
  5
3F
 10
894307.92
 20
7264549.131
 30
0.0
 40
24.0
  1
QUITSNA AVE
 50
88.2152
  7
ROMANC
 72
     4
 11
894300.32221
 21
7264690.592267
 31
0.0
210
0.0
220
0.0
230
1.0
  0
TEXT
  8
19
  6
CONTINUOUS
 62
     1
  5
40
 10
889223.737
 20
7269384.047
 30
0.0
 40
24.0
  1
ZEELAND AVE
 50
88.2152
  7
ROMANC
 72
     4
 11
889216.227508
 21
7269528.341891
 31
0.0
210
0.0
220
0.0
230
1.0
  0
TEXT
  8
19
  6
CONTINUOUS
 62
     1
  5
41
 10
889139.531
 20
7266908.077
 30
0.0
 40
24.0
  1
ZEELAND AVE
 50
88.2152
  7
ROMANC
 72
     4
 11
889132.021508
 21
7267052.371891
 31
0.0
210
0.0
220
0.0
230
1.0
  0
TEXT
  8
19
  6
CONTINUOUS
 62
     1
  5
42
 10
889078.473
 20
7264729.002
 30
0.0
 40
24.0
  1
ZEELAND AVE
 50
88.2152
  7
ROMANC
 72
     4
 11
889070.963508
 21
7264873.296891
 31
0.0
210
0.0
220
0.0
230
1.0
  0
POLYLINE
  8
58
  6
DIVIDE
 62
   216
  5
44
 66
     1
 10
0.0
 20
0.0
 30
0.0
  0
VERTEX
  8
58
  6
DIVIDE
 62
   216
  5
45
 10
893819.822
 20
7269701.79
 30
0.0
  0
VERTEX
  8
58
  6
DIVIDE
 62
   216
  5
46
 10
893799.266
 20
7269042.111
 30
0.0
  0
VERTEX
  8
58
  6
DIVIDE
 62
   216
  5
47
 10
894458.945
 20
7269021.554
 30
0.0
  0
SEQEND
  8
58
  6
DIVIDE
 62
   216
  5
48
  0
LINE
  8
0
  6
CONTINUOUS
 62
     2
  5
49
 10
889265.208
 20
7269841.193
 30
0.0
 11
894477.045
 21
7269673.305
 31
0.0
  0
LINE
  8
0
  6
CONTINUOUS
 62
     2
  5
4A
 10
894477.045
 20
7269673.305
 30
0.0
 11
894299.63
 21
7264457.636
 31
0.0
  0
LINE
  8
0
  6
CONTINUOUS
 62
     2
  5
4B
 10
894299.63
 20
7264457.636
 30
0.0
 11
889097.081
 21
7264620.343
 31
0.0
  0
LINE
  8
0
  6
CONTINUOUS
 62
     2
  5
4C
 10
889097.081
 20
7264620.343
 30
0.0
 11
889265.208
 21
7269841.193
 31
0.0
  0
LINE
  8
-62
  6
CONTINUOUS
 62
     6
  5
4E
 10
898452.165
 20
7237763.073
 30
0.0
 11
898752.021
 21
7237753.792
 31
0.0
  0
LINE
  8
-62
  6
CONTINUOUS
 62
     6
  5
4F
 10
898752.021
 20
7237753.792
 30
0.0
 11
909296.096
 21
7237427.431
 31
0.0
  0
LINE
  8
-62
  6
CONTINUOUS
 62
     6
  5
50
 10
909296.096
 20
7237427.431
 30
0.0
 11
914612.317
 21
7237262.883
 31
0.0
  0
LINE
  8
-62
  6
CONTINUOUS
 62
     6
  5
51
 10
914612.317
 20
7237262.883
 30
0.0
 11
946274.964
 21
7236282.859
 31
0.0
  0
LINE
  8
-62
  6
CONTINUOUS
 62
     6
  5
52
 10
946274.964
 20
7236282.859
 30
0.0
 11
946574.82
 21
7236273.578
 31
0.0
  0
LINE
  8
-62
  6
CONTINUOUS
 62
     6
  5
53
 10
898324.353
 20
7243162.089
 30
0.0
 11
898923.323
 21
7243143.023
 31
0.0
  0
LINE
  8
-62
  6
CONTINUOUS
 62
     6
  5
54
 10
898923.323
 20
7243143.023
 30
0.0
 11
904196.723
 21
7242975.161
 31
0.0
  0
LINE
  8
-62
  6
CONTINUOUS
 62
     6
  5
55
 10
904196.723
 20
7242975.161
 30
0.0
 11
909469.118
 21
7242807.331
 31
0.0
  0
LINE
  8
-62
  6
CONTINUOUS
 62
     6
  5
56
 10
909469.118
 20
7242807.331
 30
0.0
 11
914782.015
 21
7242638.211
 31
0.0
  0
LINE
  8
-62
  6
CONTINUOUS
 62
     6
  5
57
 10
914782.015
 20
7242638.211
 30
0.0
 11
920071.558
 21
7242469.836
 31
0.0
  0
LINE
  8
-62
  6
CONTINUOUS
 62
     6
  5
58
 10
920071.558
 20
7242469.836
 30
0.0
 11
925338.588
 21
7242302.176
 31
0.0
  0
LINE
  8
-62
  6
CONTINUOUS
 62
     6
  5
59
 10
925338.588
 20
7242302.176
 30
0.0
 11
930621.917
 21
7242133.998
 31
0.0
  0
LINE
  8
-62
  6
CONTINUOUS
 62
     6
  5
5A
 10
930621.917
 20
7242133.998
 30
0.0
 11
935896.459
 21
7241966.1
 31
0.0
  0
LINE
  8
-62
  6
CONTINUOUS
 62
     6
  5
5B
 10
935896.459
 20
7241966.1
 30
0.0
 11
941180.649
 21
7241797.895
 31
0.0
  0
LINE
  8
-62
  6
CONTINUOUS
 62
     6
  5
5C
 10
941180.649
 20
7241797.895
 30
0.0
 11
946444.149
 21
7241630.348
 31
0.0
  0
LINE
  8
-62
  6
CONTINUOUS
 62
     6
  5
5D
 10
946444.149
 20
7241630.348
 30
0.0
 11
946743.997
 21
7241620.803
 31
0.0
  0
LINE
  8
-62
  6
CONTINUOUS
 62
     6
  5
5E
 10
898789.949
 20
7248424.964
 30
0.0
 11
899090.928
 21
7248415.976
 31
0.0
  0
LINE
  8
-62
  6
CONTINUOUS
 62
     6
  5
5F
 10
899090.928
 20
7248415.976
 30
0.0
 11
904367.901
 21
7248258.395
 31
0.0
  0
LINE
  8
-62
  6
CONTINUOUS
 62
     6
  5
60
 10
904367.901
 20
7248258.395
 30
0.0
 11
909639.366
 21
7248100.979
 31
0.0
  0
LINE
  8
-62
  6
CONTINUOUS
 62
     6
  5
61
 10
909639.366
 20
7248100.979
 30
0.0
 11
914949.467
 21
7247942.409
 31
0.0
  0
LINE
  8
-62
  6
CONTINUOUS
 62
     6
  5
62
 10
914949.467
 20
7247942.409
 30
0.0
 11
920238.084
 21
7247784.48
 31
0.0
  0
LINE
  8
-62
  6
CONTINUOUS
 62
     6
  5
63
 10
920238.084
 20
7247784.48
 30
0.0
 11
925508.022
 21
7247627.109
 31
0.0
  0
LINE
  8
-62
  6
CONTINUOUS
 62
     6
  5
64
 10
925508.022
 20
7247627.109
 30
0.0
 11
930788.988
 21
7247469.409
 31
0.0
  0
LINE
  8
-62
  6
CONTINUOUS
 62
     6
  5
65
 10
930788.988
 20
7247469.409
 30
0.0
 11
936061.735
 21
7247311.955
 31
0.0
  0
LINE
  8
-62
  6
CONTINUOUS
 62
     6
  5
66
 10
936061.735
 20
7247311.955
 30
0.0
 11
941346.686
 21
7247154.135
 31
0.0
  0
LINE
  8
-62
  6
CONTINUOUS
 62
     6
  5
67
 10
941346.686
 20
7247154.135
 30
0.0
 11
946613.936
 21
7246996.845
 31
0.0
  0
LINE
  8
-62
  6
CONTINUOUS
 62
     6
  5
68
 10
946613.936
 20
7246996.845
 30
0.0
 11
951898.009
 21
7246839.052
 31
0.0
  0
LINE
  8
-62
  6
CONTINUOUS
 62
     6
  5
69
 10
951898.009
 20
7246839.052
 30
0.0
 11
957192.715
 21
7246680.942
 31
0.0
  0
LINE
  8
-62
  6
CONTINUOUS
 62
     6
  5
6A
 10
957192.715
 20
7246680.942
 30
0.0
 11
963609.521
 21
7246489.323
 31
0.0
  0
LINE
  8
-62
  6
CONTINUOUS
 62
     6
  5
6B
 10
963609.521
 20
7246489.323
 30
0.0
 11
968887.174
 21
7246331.722
 31
0.0
  0
LINE
  8
-62
  6
CONTINUOUS
 62
     6
  5
6C
 10
968887.174
 20
7246331.722
 30
0.0
 11
974164.827
 21
7246174.121
 31
0.0
  0
LINE
  8
-62
  6
CONTINUOUS
 62
     6
  5
6D
 10
974164.827
 20
7246174.121
 30
0.0
 11
974464.693
 21
7246165.166
 31
0.0
  0
LINE
  8
-62
  6
CONTINUOUS
 62
     6
  5
6E
 10
898963.161
 20
7253693.025
 30
0.0
 11
899258.377
 21
7253683.992
 31
0.0
  0
LINE
  8
-62
  6
CONTINUOUS
 62
     6
  5
6F
 10
899258.377
 20
7253683.992
 30
0.0
 11
904538.456
 21
7253522.431
 31
0.0
  0
LINE
  8
-62
  6
CONTINUOUS
 62
     6
  5
70
 10
904538.456
 20
7253522.431
 30
0.0
 11
909808.538
 21
7253361.176
 31
0.0
  0
LINE
  8
-62
  6
CONTINUOUS
 62
     6
  5
71
 10
909808.538
 20
7253361.176
 30
0.0
 11
915115.41
 21
7253198.795
 31
0.0
  0
LINE
  8
-62
  6
CONTINUOUS
 62
     6
  5
72
 10
915115.41
 20
7253198.795
 30
0.0
 11
920402.664
 21
7253037.014
 31
0.0
  0
LINE
  8
-62
  6
CONTINUOUS
 62
     6
  5
73
 10
920402.664
 20
7253037.014
 30
0.0
 11
925675.027
 21
7252875.689
 31
0.0
  0
LINE
  8
-62
  6
CONTINUOUS
 62
     6
  5
74
 10
925675.027
 20
7252875.689
 30
0.0
 11
930953.221
 21
7252714.185
 31
0.0
  0
LINE
  8
-62
  6
CONTINUOUS
 62
     6
  5
75
 10
930953.221
 20
7252714.185
 30
0.0
 11
936223.768
 21
7252552.916
 31
0.0
  0
LINE
  8
-62
  6
CONTINUOUS
 62
     6
  5
76
 10
936223.768
 20
7252552.916
 30
0.0
 11
941509.029
 21
7252391.196
 31
0.0
  0
LINE
  8
-62
  6
CONTINUOUS
 62
     6
  5
77
 10
941509.029
 20
7252391.196
 30
0.0
 11
946779.501
 21
7252229.929
 31
0.0
  0
LINE
  8
-62
  6
CONTINUOUS
 62
     6
  5
78
 10
946779.501
 20
7252229.929
 30
0.0
 11
952061.337
 21
7252068.314
 31
0.0
  0
LINE
  8
-62
  6
CONTINUOUS
 62
     6
  5
79
 10
952061.337
 20
7252068.314
 30
0.0
 11
957336.691
 21
7251906.898
 31
0.0
  0
LINE
  8
-62
  6
CONTINUOUS
 62
     6
  5
7A
 10
957336.691
 20
7251906.898
 30
0.0
 11
963773.278
 21
7251709.95
 31
0.0
  0
LINE
  8
-62
  6
CONTINUOUS
 62
     6
  5
7B
 10
963773.278
 20
7251709.95
 30
0.0
 11
969050.809
 21
7251548.466
 31
0.0
  0
LINE
  8
-62
  6
CONTINUOUS
 62
     6
  5
7C
 10
969050.809
 20
7251548.466
 30
0.0
 11
974328.341
 21
7251386.983
 31
0.0
  0
LINE
  8
-62
  6
CONTINUOUS
 62
     6
  5
7D
 10
974328.341
 20
7251386.983
 30
0.0
 11
974628.201
 21
7251377.808
 31
0.0
  0
LINE
  8
-62
  6
CONTINUOUS
 62
     6
  5
7E
 10
899134.225
 20
7258981.052
 30
0.0
 11
899426.458
 21
7258971.9
 31
0.0
  0
LINE
  8
-62
  6
CONTINUOUS
 62
     6
  5
7F
 10
899426.458
 20
7258971.9
 30
0.0
 11
904709.658
 21
7258806.436
 31
0.0
  0
LINE
  8
-62
  6
CONTINUOUS
 62
     6
  5
80
 10
904709.658
 20
7258806.436
 30
0.0
 11
909978.354
 21
7258641.426
 31
0.0
  0
LINE
  8
-62
  6
CONTINUOUS
 62
     6
  5
81
 10
909978.354
 20
7258641.426
 30
0.0
 11
915281.989
 21
7258475.322
 31
0.0
  0
LINE
  8
-62
  6
CONTINUOUS
 62
     6
  5
82
 10
915281.989
 20
7258475.322
 30
0.0
 11
920567.877
 21
7258309.774
 31
0.0
  0
LINE
  8
-62
  6
CONTINUOUS
 62
     6
  5
83
 10
920567.877
 20
7258309.774
 30
0.0
 11
925842.678
 21
7258144.573
 31
0.0
  0
LINE
  8
-62
  6
CONTINUOUS
 62
     6
  5
84
 10
925842.678
 20
7258144.573
 30
0.0
 11
931118.092
 21
7257979.353
 31
0.0
  0
LINE
  8
-62
  6
CONTINUOUS
 62
     6
  5
85
 10
931118.092
 20
7257979.353
 30
0.0
 11
936386.434
 21
7257814.354
 31
0.0
  0
LINE
  8
-62
  6
CONTINUOUS
 62
     6
  5
86
 10
936386.434
 20
7257814.354
 30
0.0
 11
941672.009
 21
7257648.816
 31
0.0
  0
LINE
  8
-62
  6
CONTINUOUS
 62
     6
  5
87
 10
941672.009
 20
7257648.816
 30
0.0
 11
946945.72
 21
7257483.649
 31
0.0
  0
LINE
  8
-62
  6
CONTINUOUS
 62
     6
  5
88
 10
946945.72
 20
7257483.649
 30
0.0
 11
952225.313
 21
7257318.298
 31
0.0
  0
LINE
  8
-62
  6
CONTINUOUS
 62
     6
  5
89
 10
952225.313
 20
7257318.298
 30
0.0
 11
957481.242
 21
7257153.688
 31
0.0
  0
LINE
  8
-62
  6
CONTINUOUS
 62
     6
  5
8A
 10
957481.242
 20
7257153.688
 30
0.0
 11
962797.574
 21
7256987.187
 31
0.0
  0
LINE
  8
-62
  6
CONTINUOUS
 62
     6
  5
8B
 10
962797.574
 20
7256987.187
 30
0.0
 11
963937.692
 21
7256951.479
 31
0.0
  0
LINE
  8
-62
  6
CONTINUOUS
 62
     6
  5
8C
 10
963937.692
 20
7256951.479
 30
0.0
 11
968074.197
 21
7256821.929
 31
0.0
  0
LINE
  8
-62
  6
CONTINUOUS
 62
     6
  5
8D
 10
968074.197
 20
7256821.929
 30
0.0
 11
969215.104
 21
7256786.197
 31
0.0
  0
LINE
  8
-62
  6
CONTINUOUS
 62
     6
  5
8E
 10
969215.104
 20
7256786.197
 30
0.0
 11
973347.012
 21
7256656.79
 31
0.0
  0
LINE
  8
-62
  6
CONTINUOUS
 62
     6
  5
8F
 10
973347.012
 20
7256656.79
 30
0.0
 11
974492.516
 21
7256620.914
 31
0.0
  0
LINE
  8
-62
  6
CONTINUOUS
 62
     6
  5
90
 10
974492.516
 20
7256620.914
 30
0.0
 11
974792.369
 21
7256611.523
 31
0.0
  0
LINE
  8
-62
  6
CONTINUOUS
 62
     6
  5
91
 10
888755.891
 20
7264591.134
 30
0.0
 11
899594.137
 21
7264247.155
 31
0.0
  0
LINE
  8
-62
  6
CONTINUOUS
 62
     6
  5
92
 10
899594.137
 20
7264247.155
 30
0.0
 11
904880.502
 21
7264079.379
 31
0.0
  0
LINE
  8
-62
  6
CONTINUOUS
 62
     6
  5
93
 10
904880.502
 20
7264079.379
 30
0.0
 11
910147.867
 21
7263912.206
 31
0.0
  0
LINE
  8
-62
  6
CONTINUOUS
 62
     6
  5
94
 10
910147.867
 20
7263912.206
 30
0.0
 11
915448.32
 21
7263743.983
 31
0.0
  0
LINE
  8
-62
  6
CONTINUOUS
 62
     6
  5
95
 10
915448.32
 20
7263743.983
 30
0.0
 11
920732.894
 21
7263576.264
 31
0.0
  0
LINE
  8
-62
  6
CONTINUOUS
 62
     6
  5
96
 10
920732.894
 20
7263576.264
 30
0.0
 11
926010.179
 21
7263408.776
 31
0.0
  0
LINE
  8
-62
  6
CONTINUOUS
 62
     6
  5
97
 10
926010.179
 20
7263408.776
 30
0.0
 11
931282.867
 21
7263241.435
 31
0.0
  0
LINE
  8
-62
  6
CONTINUOUS
 62
     6
  5
98
 10
931282.867
 20
7263241.435
 30
0.0
 11
936549.053
 21
7263074.299
 31
0.0
  0
LINE
  8
-62
  6
CONTINUOUS
 62
     6
  5
99
 10
936549.053
 20
7263074.299
 30
0.0
 11
941834.992
 21
7262906.537
 31
0.0
  0
LINE
  8
-62
  6
CONTINUOUS
 62
     6
  5
9A
 10
941834.992
 20
7262906.537
 30
0.0
 11
947111.992
 21
7262739.058
 31
0.0
  0
LINE
  8
-62
  6
CONTINUOUS
 62
     6
  5
9B
 10
947111.992
 20
7262739.058
 30
0.0
 11
952389.391
 21
7262571.567
 31
0.0
  0
LINE
  8
-62
  6
CONTINUOUS
 62
     6
  5
9C
 10
952389.391
 20
7262571.567
 30
0.0
 11
957625.928
 21
7262405.372
 31
0.0
  0
LINE
  8
-62
  6
CONTINUOUS
 62
     6
  5
9D
 10
957625.928
 20
7262405.372
 30
0.0
 11
962939.073
 21
7262236.746
 31
0.0
  0
LINE
  8
-62
  6
CONTINUOUS
 62
     6
  5
9E
 10
962939.073
 20
7262236.746
 30
0.0
 11
968215.469
 21
7262069.287
 31
0.0
  0
LINE
  8
-62
  6
CONTINUOUS
 62
     6
  5
9F
 10
968215.469
 20
7262069.287
 30
0.0
 11
974638.163
 21
7261865.446
 31
0.0
  0
LINE
  8
-62
  6
CONTINUOUS
 62
     6
  5
A0
 10
974638.176
 20
7261865.925
 30
0.0
 11
974938.025
 21
7261856.409
 31
0.0
  0
LINE
  8
-62
  6
CONTINUOUS
 62
     6
  5
A1
 10
888926.297
 20
7269880.468
 30
0.0
 11
889223.419
 21
7269871.041
 31
0.0
  0
LINE
  8
-62
  6
CONTINUOUS
 62
     6
  5
A2
 10
889223.419
 20
7269871.041
 30
0.0
 11
894498.893
 21
7269703.664
 31
0.0
  0
LINE
  8
-62
  6
CONTINUOUS
 62
     6
  5
A3
 10
894498.893
 20
7269703.664
 30
0.0
 11
899762.27
 21
7269536.67
 31
0.0
  0
LINE
  8
-62
  6
CONTINUOUS
 62
     6
  5
A4
 10
899762.27
 20
7269536.67
 30
0.0
 11
905051.881
 21
7269368.844
 31
0.0
  0
LINE
  8
-62
  6
CONTINUOUS
 62
     6
  5
A5
 10
905051.881
 20
7269368.844
 30
0.0
 11
910317.983
 21
7269201.765
 31
0.0
  0
LINE
  8
-62
  6
CONTINUOUS
 62
     6
  5
A6
 10
910317.983
 20
7269201.765
 30
0.0
 11
915615.314
 21
7269033.694
 31
0.0
  0
LINE
  8
-62
  6
CONTINUOUS
 62
     6
  5
A7
 10
915615.314
 20
7269033.694
 30
0.0
 11
920898.642
 21
7268866.067
 31
0.0
  0
LINE
  8
-62
  6
CONTINUOUS
 62
     6
  5
A8
 10
920898.642
 20
7268866.067
 30
0.0
 11
926178.495
 21
7268698.551
 31
0.0
  0
LINE
  8
-62
  6
CONTINUOUS
 62
     6
  5
A9
 10
926178.495
 20
7268698.551
 30
0.0
 11
931448.513
 21
7268531.347
 31
0.0
  0
LINE
  8
-62
  6
CONTINUOUS
 62
     6
  5
AA
 10
931448.513
 20
7268531.347
 30
0.0
 11
936712.603
 21
7268364.331
 31
0.0
  0
LINE
  8
-62
  6
CONTINUOUS
 62
     6
  5
AB
 10
936712.603
 20
7268364.331
 30
0.0
 11
941998.978
 21
7268196.608
 31
0.0
  0
LINE
  8
-62
  6
CONTINUOUS
 62
     6
  5
AC
 10
941998.978
 20
7268196.608
 30
0.0
 11
947279.359
 21
7268029.075
 31
0.0
  0
LINE
  8
-62
  6
CONTINUOUS
 62
     6
  5
AD
 10
947279.359
 20
7268029.075
 30
0.0
 11
952554.62
 21
7267861.704
 31
0.0
  0
LINE
  8
-62
  6
CONTINUOUS
 62
     6
  5
AE
 10
952554.62
 20
7267861.704
 30
0.0
 11
957771.692
 21
7267696.18
 31
0.0
  0
LINE
  8
-62
  6
CONTINUOUS
 62
     6
  5
AF
 10
957771.692
 20
7267696.18
 30
0.0
 11
963081.688
 21
7267527.707
 31
0.0
  0
LINE
  8
-62
  6
CONTINUOUS
 62
     6
  5
B0
 10
963081.688
 20
7267527.707
 30
0.0
 11
968357.918
 21
7267360.306
 31
0.0
  0
LINE
  8
-62
  6
CONTINUOUS
 62
     6
  5
B1
 10
968357.918
 20
7267360.306
 30
0.0
 11
973639.607
 21
7267192.731
 31
0.0
  0
LINE
  8
-62
  6
CONTINUOUS
 62
     6
  5
B2
 10
973639.607
 20
7267192.731
 30
0.0
 11
973939.456
 21
7267183.218
 31
0.0
  0
LINE
  8
-62
  6
CONTINUOUS
 62
     6
  5
B3
 10
889094.62
 20
7275147.609
 30
0.0
 11
889390.405
 21
7275138.61
 31
0.0
  0
LINE
  8
-62
  6
CONTINUOUS
 62
     6
  5
B4
 10
889390.405
 20
7275138.61
 30
0.0
 11
894665.268
 21
7274978.128
 31
0.0
  0
LINE
  8
-62
  6
CONTINUOUS
 62
     6
  5
B5
 10
894665.268
 20
7274978.128
 30
0.0
 11
899930.14
 21
7274817.95
 31
0.0
  0
LINE
  8
-62
  6
CONTINUOUS
 62
     6
  5
B6
 10
899930.14
 20
7274817.95
 30
0.0
 11
905223.215
 21
7274656.914
 31
0.0
  0
LINE
  8
-62
  6
CONTINUOUS
 62
     6
  5
B7
 10
905223.215
 20
7274656.914
 30
0.0
 11
910488.273
 21
7274496.731
 31
0.0
  0
LINE
  8
-62
  6
CONTINUOUS
 62
     6
  5
B8
 10
910488.273
 20
7274496.731
 30
0.0
 11
915782.696
 21
7274335.654
 31
0.0
  0
LINE
  8
-62
  6
CONTINUOUS
 62
     6
  5
B9
 10
915782.696
 20
7274335.654
 30
0.0
 11
921064.987
 21
7274174.946
 31
0.0
  0
LINE
  8
-62
  6
CONTINUOUS
 62
     6
  5
BA
 10
921064.987
 20
7274174.946
 30
0.0
 11
926347.634
 21
7274014.228
 31
0.0
  0
LINE
  8
-62
  6
CONTINUOUS
 62
     6
  5
BB
 10
926347.634
 20
7274014.228
 30
0.0
 11
931615.184
 21
7273853.968
 31
0.0
  0
LINE
  8
-62
  6
CONTINUOUS
 62
     6
  5
BC
 10
931615.184
 20
7273853.968
 30
0.0
 11
936877.374
 21
7273693.872
 31
0.0
  0
LINE
  8
-62
  6
CONTINUOUS
 62
     6
  5
BD
 10
936877.374
 20
7273693.872
 30
0.0
 11
942164.401
 21
7273533.02
 31
0.0
  0
LINE
  8
-62
  6
CONTINUOUS
 62
     6
  5
BE
 10
942164.401
 20
7273533.02
 30
0.0
 11
947448.408
 21
7273372.26
 31
0.0
  0
LINE
  8
-62
  6
CONTINUOUS
 62
     6
  5
BF
 10
947448.408
 20
7273372.26
 30
0.0
 11
952721.723
 21
7273211.825
 31
0.0
  0
LINE
  8
-62
  6
CONTINUOUS
 62
     6
  5
C0
 10
952721.723
 20
7273211.825
 30
0.0
 11
957919.293
 21
7273053.695
 31
0.0
  0
LINE
  8
-62
  6
CONTINUOUS
 62
     6
  5
C1
 10
957919.293
 20
7273053.695
 30
0.0
 11
963226.287
 21
7272892.236
 31
0.0
  0
LINE
  8
-62
  6
CONTINUOUS
 62
     6
  5
C2
 10
963226.287
 20
7272892.236
 30
0.0
 11
968502.53
 21
7272731.712
 31
0.0
  0
LINE
  8
-62
  6
CONTINUOUS
 62
     6
  5
C3
 10
968502.53
 20
7272731.712
 30
0.0
 11
973788.964
 21
7272570.878
 31
0.0
  0
LINE
  8
-62
  6
CONTINUOUS
 62
     6
  5
C4
 10
973788.964
 20
7272570.878
 30
0.0
 11
974166.561
 21
7272559.39
 31
0.0
  0
LINE
  8
-62
  6
CONTINUOUS
 62
     6
  5
C5
 10
889256.561
 20
7280384.752
 30
0.0
 11
894830.588
 21
7280219.137
 31
0.0
  0
LINE
  8
-62
  6
CONTINUOUS
 62
     6
  5
C6
 10
894830.588
 20
7280219.137
 30
0.0
 11
900096.848
 21
7280062.667
 31
0.0
  0
LINE
  8
-62
  6
CONTINUOUS
 62
     6
  5
C7
 10
900096.848
 20
7280062.667
 30
0.0
 11
905393.263
 21
7279905.3
 31
0.0
  0
LINE
  8
-62
  6
CONTINUOUS
 62
     6
  5
C8
 10
905393.263
 20
7279905.3
 30
0.0
 11
910657.187
 21
7279748.899
 31
0.0
  0
LINE
  8
-62
  6
CONTINUOUS
 62
     6
  5
C9
 10
910657.187
 20
7279748.899
 30
0.0
 11
915948.628
 21
7279591.68
 31
0.0
  0
LINE
  8
-62
  6
CONTINUOUS
 62
     6
  5
CA
 10
915948.628
 20
7279591.68
 30
0.0
 11
921229.795
 21
7279434.767
 31
0.0
  0
LINE
  8
-62
  6
CONTINUOUS
 62
     6
  5
CB
 10
921229.795
 20
7279434.767
 30
0.0
 11
926515.114
 21
7279277.73
 31
0.0
  0
LINE
  8
-62
  6
CONTINUOUS
 62
     6
  5
CC
 10
926515.114
 20
7279277.73
 30
0.0
 11
931780.123
 21
7279121.297
 31
0.0
  0
LINE
  8
-62
  6
CONTINUOUS
 62
     6
  5
CD
 10
931780.123
 20
7279121.297
 30
0.0
 11
937040.34
 21
7278965.006
 31
0.0
  0
LINE
  8
-62
  6
CONTINUOUS
 62
     6
  5
CE
 10
937040.34
 20
7278965.006
 30
0.0
 11
942327.916
 21
7278807.902
 31
0.0
  0
LINE
  8
-62
  6
CONTINUOUS
 62
     6
  5
CF
 10
942327.916
 20
7278807.902
 30
0.0
 11
947615.412
 21
7278650.801
 31
0.0
  0
LINE
  8
-62
  6
CONTINUOUS
 62
     6
  5
D0
 10
947615.412
 20
7278650.801
 30
0.0
 11
952886.71
 21
7278494.18
 31
0.0
  0
LINE
  8
-62
  6
CONTINUOUS
 62
     6
  5
D1
 10
952886.71
 20
7278494.18
 30
0.0
 11
958064.942
 21
7278340.325
 31
0.0
  0
LINE
  8
-62
  6
CONTINUOUS
 62
     6
  5
D2
 10
958064.942
 20
7278340.325
 30
0.0
 11
963368.889
 21
7278182.735
 31
0.0
  0
LINE
  8
-62
  6
CONTINUOUS
 62
     6
  5
D3
 10
963368.889
 20
7278182.735
 30
0.0
 11
968645.066
 21
7278025.97
 31
0.0
  0
LINE
  8
-62
  6
CONTINUOUS
 62
     6
  5
D4
 10
968645.066
 20
7278025.97
 30
0.0
 11
973936.092
 21
7277868.763
 31
0.0
  0
LINE
  8
-62
  6
CONTINUOUS
 62
     6
  5
D5
 10
973936.092
 20
7277868.763
 30
0.0
 11
974310.504
 21
7277857.639
 31
0.0
  0
LINE
  8
-62
  6
CONTINUOUS
 62
     6
  5
D6
 10
894698.432
 20
7285544.906
 30
0.0
 11
900265.735
 21
7285375.939
 31
0.0
  0
LINE
  8
-62
  6
CONTINUOUS
 62
     6
  5
D7
 10
900265.735
 20
7285375.939
 30
0.0
 11
905565.301
 21
7285215.098
 31
0.0
  0
LINE
  8
-62
  6
CONTINUOUS
 62
     6
  5
D8
 10
905565.301
 20
7285215.098
 30
0.0
 11
910827.848
 21
7285055.38
 31
0.0
  0
LINE
  8
-62
  6
CONTINUOUS
 62
     6
  5
D9
 10
910827.848
 20
7285055.38
 30
0.0
 11
916116.049
 21
7284894.884
 31
0.0
  0
LINE
  8
-62
  6
CONTINUOUS
 62
     6
  5
DA
 10
916116.049
 20
7284894.884
 30
0.0
 11
921395.859
 21
7284734.642
 31
0.0
  0
LINE
  8
-62
  6
CONTINUOUS
 62
     6
  5
DB
 10
921395.859
 20
7284734.642
 30
0.0
 11
926683.641
 21
7284574.159
 31
0.0
  0
LINE
  8
-62
  6
CONTINUOUS
 62
     6
  5
DC
 10
926683.641
 20
7284574.159
 30
0.0
 11
931945.871
 21
7284414.451
 31
0.0
  0
LINE
  8
-62
  6
CONTINUOUS
 62
     6
  5
DD
 10
931945.871
 20
7284414.451
 30
0.0
 11
937203.885
 21
7284254.871
 31
0.0
  0
LINE
  8
-62
  6
CONTINUOUS
 62
     6
  5
DE
 10
937203.885
 20
7284254.871
 30
0.0
 11
942491.791
 21
7284094.383
 31
0.0
  0
LINE
  8
-62
  6
CONTINUOUS
 62
     6
  5
DF
 10
942491.791
 20
7284094.383
 30
0.0
 11
947782.557
 21
7283933.809
 31
0.0
  0
LINE
  8
-62
  6
CONTINUOUS
 62
     6
  5
E0
 10
947782.557
 20
7283933.809
 30
0.0
 11
953051.614
 21
7283773.894
 31
0.0
  0
LINE
  8
-62
  6
CONTINUOUS
 62
     6
  5
E1
 10
953051.614
 20
7283773.894
 30
0.0
 11
958210.325
 21
7283617.328
 31
0.0
  0
LINE
  8
-62
  6
CONTINUOUS
 62
     6
  5
E2
 10
958210.325
 20
7283617.328
 30
0.0
 11
963511.04
 21
7283456.452
 31
0.0
  0
LINE
  8
-62
  6
CONTINUOUS
 62
     6
  5
E3
 10
963511.04
 20
7283456.452
 30
0.0
 11
968786.958
 21
7283296.328
 31
0.0
  0
LINE
  8
-62
  6
CONTINUOUS
 62
     6
  5
E4
 10
968786.958
 20
7283296.328
 30
0.0
 11
979444.123
 21
7282972.884
 31
0.0
  0
LINE
  8
-62
  6
CONTINUOUS
 62
     6
  5
E5
 10
974082.359
 20
7283135.613
 30
0.0
 11
974439.109
 21
7283124.786
 31
0.0
  0
LINE
  8
-62
  6
CONTINUOUS
 62
     6
  5
E6
 10
915981.387
 20
7290136.828
 30
0.0
 11
916281.251
 21
7290127.818
 31
0.0
  0
LINE
  8
-62
  6
CONTINUOUS
 62
     6
  5
E7
 10
916281.251
 20
7290127.818
 30
0.0
 11
921559.876
 21
7289969.218
 31
0.0
  0
LINE
  8
-62
  6
CONTINUOUS
 62
     6
  5
E8
 10
921559.876
 20
7289969.218
 30
0.0
 11
926850.249
 21
7289810.265
 31
0.0
  0
LINE
  8
-62
  6
CONTINUOUS
 62
     6
  5
E9
 10
926850.249
 20
7289810.265
 30
0.0
 11
932109.885
 21
7289652.235
 31
0.0
  0
LINE
  8
-62
  6
CONTINUOUS
 62
     6
  5
EA
 10
932109.885
 20
7289652.235
 30
0.0
 11
937365.87
 21
7289494.315
 31
0.0
  0
LINE
  8
-62
  6
CONTINUOUS
 62
     6
  5
EB
 10
937365.87
 20
7289494.315
 30
0.0
 11
942654.257
 21
7289335.422
 31
0.0
  0
LINE
  8
-62
  6
CONTINUOUS
 62
     6
  5
EC
 10
942654.257
 20
7289335.422
 30
0.0
 11
947948.422
 21
7289176.355
 31
0.0
  0
LINE
  8
-62
  6
CONTINUOUS
 62
     6
  5
ED
 10
947948.422
 20
7289176.355
 30
0.0
 11
953215.409
 21
7289018.104
 31
0.0
  0
LINE
  8
-62
  6
CONTINUOUS
 62
     6
  5
EE
 10
953215.409
 20
7289018.104
 30
0.0
 11
958354.864
 21
7288863.685
 31
0.0
  0
LINE
  8
-62
  6
CONTINUOUS
 62
     6
  5
EF
 10
958354.864
 20
7288863.685
 30
0.0
 11
963652.498
 21
7288704.514
 31
0.0
  0
LINE
  8
-62
  6
CONTINUOUS
 62
     6
  5
F0
 10
963652.498
 20
7288704.514
 30
0.0
 11
968928.293
 21
7288545.999
 31
0.0
  0
LINE
  8
-62
  6
CONTINUOUS
 62
     6
  5
F1
 10
968928.293
 20
7288545.999
 30
0.0
 11
979615.286
 21
7288224.901
 31
0.0
  0
LINE
  8
-62
  6
CONTINUOUS
 62
     6
  5
F2
 10
974228.189
 20
7288386.76
 30
0.0
 11
974528.054
 21
7288377.75
 31
0.0
  0
LINE
  8
-62
  6
CONTINUOUS
 62
     6
  5
F3
 10
889055.74
 20
7264581.618
 30
0.0
 11
889223.419
 21
7269871.041
 31
0.0
  0
LINE
  8
-62
  6
CONTINUOUS
 62
     6
  5
F4
 10
889223.419
 20
7269871.041
 30
0.0
 11
889390.405
 21
7275138.61
 31
0.0
  0
LINE
  8
-62
  6
CONTINUOUS
 62
     6
  5
F5
 10
889390.405
 20
7275138.61
 30
0.0
 11
889556.415
 21
7280375.383
 31
0.0
  0
LINE
  8
-62
  6
CONTINUOUS
 62
     6
  5
F6
 10
894332.908
 20
7264441.563
 30
0.0
 11
894498.893
 21
7269703.664
 31
0.0
  0
LINE
  8
-62
  6
CONTINUOUS
 62
     6
  5
F7
 10
894498.893
 20
7269703.664
 30
0.0
 11
894665.268
 21
7274978.128
 31
0.0
  0
LINE
  8
-62
  6
CONTINUOUS
 62
     6
  5
F8
 10
894665.268
 20
7274978.128
 30
0.0
 11
894830.588
 21
7280219.137
 31
0.0
  0
LINE
  8
-62
  6
CONTINUOUS
 62
     6
  5
F9
 10
894830.588
 20
7280219.137
 30
0.0
 11
894998.275
 21
7285535.209
 31
0.0
  0
LINE
  8
-62
  6
CONTINUOUS
 62
     6
  5
FA
 10
898742.49
 20
7237453.943
 30
0.0
 11
898752.021
 21
7237753.792
 31
0.0
  0
LINE
  8
-62
  6
CONTINUOUS
 62
     6
  5
FB
 10
898752.021
 20
7237753.792
 30
0.0
 11
898923.323
 21
7243143.023
 31
0.0
  0
LINE
  8
-62
  6
CONTINUOUS
 62
     6
  5
FC
 10
898923.323
 20
7243143.023
 30
0.0
 11
899090.928
 21
7248415.976
 31
0.0
  0
LINE
  8
-62
  6
CONTINUOUS
 62
     6
  5
FD
 10
899090.928
 20
7248415.976
 30
0.0
 11
899258.377
 21
7253683.992
 31
0.0
  0
LINE
  8
-62
  6
CONTINUOUS
 62
     6
  5
FE
 10
899258.377
 20
7253683.992
 30
0.0
 11
899426.458
 21
7258971.9
 31
0.0
  0
LINE
  8
-62
  6
CONTINUOUS
 62
     6
  5
FF
 10
899426.458
 20
7258971.9
 30
0.0
 11
899594.137
 21
7264247.155
 31
0.0
  0
LINE
  8
-62
  6
CONTINUOUS
 62
     6
  5
100
 10
899594.137
 20
7264247.155
 30
0.0
 11
899762.27
 21
7269536.67
 31
0.0
  0
LINE
  8
-62
  6
CONTINUOUS
 62
     6
  5
101
 10
899762.27
 20
7269536.67
 30
0.0
 11
899930.14
 21
7274817.95
 31
0.0
  0
LINE
  8
-62
  6
CONTINUOUS
 62
     6
  5
102
 10
899930.14
 20
7274817.95
 30
0.0
 11
900096.848
 21
7280062.667
 31
0.0
  0
LINE
  8
-62
  6
CONTINUOUS
 62
     6
  5
103
 10
900096.848
 20
7280062.667
 30
0.0
 11
900265.735
 21
7285375.939
 31
0.0
  0
LINE
  8
-62
  6
CONTINUOUS
 62
     6
  5
104
 10
900265.735
 20
7285375.939
 30
0.0
 11
900274.435
 21
7285649.63
 31
0.0
  0
LINE
  8
-62
  6
CONTINUOUS
 62
     6
  5
105
 10
904024.686
 20
7237665.378
 30
0.0
 11
904196.723
 21
7242975.161
 31
0.0
  0
LINE
  8
-62
  6
CONTINUOUS
 62
     6
  5
106
 10
904196.723
 20
7242975.161
 30
0.0
 11
904367.901
 21
7248258.395
 31
0.0
  0
LINE
  8
-62
  6
CONTINUOUS
 62
     6
  5
107
 10
904367.901
 20
7248258.395
 30
0.0
 11
904538.456
 21
7253522.431
 31
0.0
  0
LINE
  8
-62
  6
CONTINUOUS
 62
     6
  5
108
 10
904538.456
 20
7253522.431
 30
0.0
 11
904709.658
 21
7258806.436
 31
0.0
  0
LINE
  8
-62
  6
CONTINUOUS
 62
     6
  5
109
 10
904709.658
 20
7258806.436
 30
0.0
 11
904880.502
 21
7264079.379
 31
0.0
  0
LINE
  8
-62
  6
CONTINUOUS
 62
     6
  5
10A
 10
904880.502
 20
7264079.379
 30
0.0
 11
905051.881
 21
7269368.844
 31
0.0
  0
LINE
  8
-62
  6
CONTINUOUS
 62
     6
  5
10B
 10
905051.881
 20
7269368.844
 30
0.0
 11
905223.215
 21
7274656.914
 31
0.0
  0
LINE
  8
-62
  6
CONTINUOUS
 62
     6
  5
10C
 10
905223.215
 20
7274656.914
 30
0.0
 11
905393.263
 21
7279905.3
 31
0.0
  0
LINE
  8
-62
  6
CONTINUOUS
 62
     6
  5
10D
 10
905393.263
 20
7279905.3
 30
0.0
 11
905565.301
 21
7285215.098
 31
0.0
  0
LINE
  8
-62
  6
CONTINUOUS
 62
     6
  5
10E
 10
905565.301
 20
7285215.098
 30
0.0
 11
905574.143
 21
7285487.994
 31
0.0
  0
LINE
  8
-62
  6
CONTINUOUS
 62
     6
  5
10F
 10
909296.096
 20
7237427.431
 30
0.0
 11
909469.118
 21
7242807.331
 31
0.0
  0
LINE
  8
-62
  6
CONTINUOUS
 62
     6
  5
110
 10
909469.118
 20
7242807.331
 30
0.0
 11
909639.366
 21
7248100.979
 31
0.0
  0
LINE
  8
-62
  6
CONTINUOUS
 62
     6
  5
111
 10
909639.366
 20
7248100.979
 30
0.0
 11
909808.538
 21
7253361.176
 31
0.0
  0
LINE
  8
-62
  6
CONTINUOUS
 62
     6
  5
112
 10
909808.538
 20
7253361.176
 30
0.0
 11
909978.354
 21
7258641.426
 31
0.0
  0
LINE
  8
-62
  6
CONTINUOUS
 62
     6
  5
113
 10
909978.354
 20
7258641.426
 30
0.0
 11
910147.867
 21
7263912.206
 31
0.0
  0
LINE
  8
-62
  6
CONTINUOUS
 62
     6
  5
114
 10
910147.867
 20
7263912.206
 30
0.0
 11
910317.983
 21
7269201.765
 31
0.0
  0
LINE
  8
-62
  6
CONTINUOUS
 62
     6
  5
115
 10
910317.983
 20
7269201.765
 30
0.0
 11
910488.273
 21
7274496.731
 31
0.0
  0
LINE
  8
-62
  6
CONTINUOUS
 62
     6
  5
116
 10
910488.273
 20
7274496.731
 30
0.0
 11
910657.187
 21
7279748.899
 31
0.0
  0
LINE
  8
-62
  6
CONTINUOUS
 62
     6
  5
117
 10
910657.187
 20
7279748.899
 30
0.0
 11
910827.848
 21
7285055.38
 31
0.0
  0
LINE
  8
-62
  6
CONTINUOUS
 62
     6
  5
118
 10
910827.848
 20
7285055.38
 30
0.0
 11
910836.226
 21
7285315.893
 31
0.0
  0
LINE
  8
-62
  6
CONTINUOUS
 62
     6
  5
119
 10
914612.282
 20
7237261.768
 30
0.0
 11
914612.317
 21
7237262.883
 31
0.0
  0
LINE
  8
-62
  6
CONTINUOUS
 62
     6
  5
11A
 10
914612.317
 20
7237262.883
 30
0.0
 11
914782.015
 21
7242638.211
 31
0.0
  0
LINE
  8
-62
  6
CONTINUOUS
 62
     6
  5
11B
 10
914782.015
 20
7242638.211
 30
0.0
 11
914949.467
 21
7247942.409
 31
0.0
  0
LINE
  8
-62
  6
CONTINUOUS
 62
     6
  5
11C
 10
914949.467
 20
7247942.409
 30
0.0
 11
915115.41
 21
7253198.795
 31
0.0
  0
LINE
  8
-62
  6
CONTINUOUS
 62
     6
  5
11D
 10
915115.41
 20
7253198.795
 30
0.0
 11
915281.989
 21
7258475.322
 31
0.0
  0
LINE
  8
-62
  6
CONTINUOUS
 62
     6
  5
11E
 10
915281.989
 20
7258475.322
 30
0.0
 11
915448.32
 21
7263743.983
 31
0.0
  0
LINE
  8
-62
  6
CONTINUOUS
 62
     6
  5
11F
 10
915448.32
 20
7263743.983
 30
0.0
 11
915615.314
 21
7269033.694
 31
0.0
  0
LINE
  8
-62
  6
CONTINUOUS
 62
     6
  5
120
 10
915615.314
 20
7269033.694
 30
0.0
 11
915782.696
 21
7274335.654
 31
0.0
  0
LINE
  8
-62
  6
CONTINUOUS
 62
     6
  5
121
 10
915782.696
 20
7274335.654
 30
0.0
 11
915948.628
 21
7279591.68
 31
0.0
  0
LINE
  8
-62
  6
CONTINUOUS
 62
     6
  5
122
 10
915948.628
 20
7279591.68
 30
0.0
 11
916116.049
 21
7284894.884
 31
0.0
  0
LINE
  8
-62
  6
CONTINUOUS
 62
     6
  5
123
 10
916116.049
 20
7284894.884
 30
0.0
 11
916281.251
 21
7290127.818
 31
0.0
  0
LINE
  8
-62
  6
CONTINUOUS
 62
     6
  5
124
 10
916281.251
 20
7290127.818
 30
0.0
 11
916290.69
 21
7290426.801
 31
0.0
  0
LINE
  8
-62
  6
CONTINUOUS
 62
     6
  5
125
 10
919903.284
 20
7237099.403
 30
0.0
 11
920071.558
 21
7242469.836
 31
0.0
  0
LINE
  8
-62
  6
CONTINUOUS
 62
     6
  5
126
 10
920071.558
 20
7242469.836
 30
0.0
 11
920238.084
 21
7247784.48
 31
0.0
  0
LINE
  8
-62
  6
CONTINUOUS
 62
     6
  5
127
 10
920238.084
 20
7247784.48
 30
0.0
 11
920402.664
 21
7253037.014
 31
0.0
  0
LINE
  8
-62
  6
CONTINUOUS
 62
     6
  5
128
 10
920402.664
 20
7253037.014
 30
0.0
 11
920567.877
 21
7258309.774
 31
0.0
  0
LINE
  8
-62
  6
CONTINUOUS
 62
     6
  5
129
 10
920567.877
 20
7258309.774
 30
0.0
 11
920732.894
 21
7263576.264
 31
0.0
  0
LINE
  8
-62
  6
CONTINUOUS
 62
     6
  5
12A
 10
920732.894
 20
7263576.264
 30
0.0
 11
920898.642
 21
7268866.067
 31
0.0
  0
LINE
  8
-62
  6
CONTINUOUS
 62
     6
  5
12B
 10
920898.642
 20
7268866.067
 30
0.0
 11
921064.987
 21
7274174.946
 31
0.0
  0
LINE
  8
-62
  6
CONTINUOUS
 62
     6
  5
12C
 10
921064.987
 20
7274174.946
 30
0.0
 11
921229.795
 21
7279434.767
 31
0.0
  0
LINE
  8
-62
  6
CONTINUOUS
 62
     6
  5
12D
 10
921229.795
 20
7279434.767
 30
0.0
 11
921395.859
 21
7284734.642
 31
0.0
  0
LINE
  8
-62
  6
CONTINUOUS
 62
     6
  5
12E
 10
921395.859
 20
7284734.642
 30
0.0
 11
921559.876
 21
7289969.218
 31
0.0
  0
LINE
  8
-62
  6
CONTINUOUS
 62
     6
  5
12F
 10
921559.876
 20
7289969.218
 30
0.0
 11
921568.906
 21
7290257.418
 31
0.0
  0
LINE
  8
-62
  6
CONTINUOUS
 62
     6
  5
130
 10
925169.409
 20
7236985.264
 30
0.0
 11
925338.588
 21
7242302.176
 31
0.0
  0
LINE
  8
-62
  6
CONTINUOUS
 62
     6
  5
131
 10
925338.588
 20
7242302.176
 30
0.0
 11
925508.022
 21
7247627.109
 31
0.0
  0
LINE
  8
-62
  6
CONTINUOUS
 62
     6
  5
132
 10
925508.022
 20
7247627.109
 30
0.0
 11
925675.027
 21
7252875.689
 31
0.0
  0
LINE
  8
-62
  6
CONTINUOUS
 62
     6
  5
133
 10
925675.027
 20
7252875.689
 30
0.0
 11
925842.678
 21
7258144.573
 31
0.0
  0
LINE
  8
-62
  6
CONTINUOUS
 62
     6
  5
134
 10
925842.678
 20
7258144.573
 30
0.0
 11
926010.179
 21
7263408.776
 31
0.0
  0
LINE
  8
-62
  6
CONTINUOUS
 62
     6
  5
135
 10
926010.179
 20
7263408.776
 30
0.0
 11
926178.495
 21
7268698.551
 31
0.0
  0
LINE
  8
-62
  6
CONTINUOUS
 62
     6
  5
136
 10
926178.495
 20
7268698.551
 30
0.0
 11
926347.634
 21
7274014.228
 31
0.0
  0
LINE
  8
-62
  6
CONTINUOUS
 62
     6
  5
137
 10
926347.634
 20
7274014.228
 30
0.0
 11
926515.114
 21
7279277.73
 31
0.0
  0
LINE
  8
-62
  6
CONTINUOUS
 62
     6
  5
138
 10
926515.114
 20
7279277.73
 30
0.0
 11
926683.641
 21
7284574.159
 31
0.0
  0
LINE
  8
-62
  6
CONTINUOUS
 62
     6
  5
139
 10
926683.641
 20
7284574.159
 30
0.0
 11
926850.249
 21
7289810.265
 31
0.0
  0
LINE
  8
-62
  6
CONTINUOUS
 62
     6
  5
13A
 10
926850.249
 20
7289810.265
 30
0.0
 11
927017.225
 21
7295057.941
 31
0.0
  0
LINE
  8
-62
  6
CONTINUOUS
 62
     6
  5
13B
 10
927017.225
 20
7295057.941
 30
0.0
 11
927026.725
 21
7295356.508
 31
0.0
  0
LINE
  8
-62
  6
CONTINUOUS
 62
     6
  5
13C
 10
930455.685
 20
7236825.392
 30
0.0
 11
930621.917
 21
7242133.998
 31
0.0
  0
LINE
  8
-62
  6
CONTINUOUS
 62
     6
  5
13D
 10
930621.917
 20
7242133.998
 30
0.0
 11
930788.988
 21
7247469.409
 31
0.0
  0
LINE
  8
-62
  6
CONTINUOUS
 62
     6
  5
13E
 10
930788.988
 20
7247469.409
 30
0.0
 11
930953.221
 21
7252714.185
 31
0.0
  0
LINE
  8
-62
  6
CONTINUOUS
 62
     6
  5
13F
 10
930953.221
 20
7252714.185
 30
0.0
 11
931118.092
 21
7257979.353
 31
0.0
  0
LINE
  8
-62
  6
CONTINUOUS
 62
     6
  5
140
 10
931118.092
 20
7257979.353
 30
0.0
 11
931282.867
 21
7263241.435
 31
0.0
  0
LINE
  8
-62
  6
CONTINUOUS
 62
     6
  5
141
 10
931282.867
 20
7263241.435
 30
0.0
 11
931448.513
 21
7268531.347
 31
0.0
  0
LINE
  8
-62
  6
CONTINUOUS
 62
     6
  5
142
 10
931448.513
 20
7268531.347
 30
0.0
 11
931615.184
 21
7273853.968
 31
0.0
  0
LINE
  8
-62
  6
CONTINUOUS
 62
     6
  5
143
 10
931615.184
 20
7273853.968
 30
0.0
 11
931780.123
 21
7279121.297
 31
0.0
  0
LINE
  8
-62
  6
CONTINUOUS
 62
     6
  5
144
 10
931780.123
 20
7279121.297
 30
0.0
 11
931945.871
 21
7284414.451
 31
0.0
  0
LINE
  8
-62
  6
CONTINUOUS
 62
     6
  5
145
 10
931945.871
 20
7284414.451
 30
0.0
 11
932109.885
 21
7289652.235
 31
0.0
  0
LINE
  8
-62
  6
CONTINUOUS
 62
     6
  5
146
 10
932109.885
 20
7289652.235
 30
0.0
 11
932274.582
 21
7294911.837
 31
0.0
  0
LINE
  8
-62
  6
CONTINUOUS
 62
     6
  5
147
 10
932274.582
 20
7294911.837
 30
0.0
 11
932283.917
 21
7295209.952
 31
0.0
  0
LINE
  8
-62
  6
CONTINUOUS
 62
     6
  5
148
 10
935732.49
 20
7236662.5
 30
0.0
 11
935896.459
 21
7241966.1
 31
0.0
  0
LINE
  8
-62
  6
CONTINUOUS
 62
     6
  5
149
 10
935896.459
 20
7241966.1
 30
0.0
 11
936061.735
 21
7247311.955
 31
0.0
  0
LINE
  8
-62
  6
CONTINUOUS
 62
     6
  5
14A
 10
936061.735
 20
7247311.955
 30
0.0
 11
936223.768
 21
7252552.916
 31
0.0
  0
LINE
  8
-62
  6
CONTINUOUS
 62
     6
  5
14B
 10
936223.768
 20
7252552.916
 30
0.0
 11
936386.434
 21
7257814.354
 31
0.0
  0
LINE
  8
-62
  6
CONTINUOUS
 62
     6
  5
14C
 10
936386.434
 20
7257814.354
 30
0.0
 11
936549.053
 21
7263074.299
 31
0.0
  0
LINE
  8
-62
  6
CONTINUOUS
 62
     6
  5
14D
 10
936549.053
 20
7263074.299
 30
0.0
 11
936712.603
 21
7268364.331
 31
0.0
  0
LINE
  8
-62
  6
CONTINUOUS
 62
     6
  5
14E
 10
936712.603
 20
7268364.331
 30
0.0
 11
936877.374
 21
7273693.872
 31
0.0
  0
LINE
  8
-62
  6
CONTINUOUS
 62
     6
  5
14F
 10
936877.374
 20
7273693.872
 30
0.0
 11
937040.34
 21
7278965.006
 31
0.0
  0
LINE
  8
-62
  6
CONTINUOUS
 62
     6
  5
150
 10
937040.34
 20
7278965.006
 30
0.0
 11
937203.885
 21
7284254.871
 31
0.0
  0
LINE
  8
-62
  6
CONTINUOUS
 62
     6
  5
151
 10
937203.885
 20
7284254.871
 30
0.0
 11
937365.87
 21
7289494.315
 31
0.0
  0
LINE
  8
-62
  6
CONTINUOUS
 62
     6
  5
152
 10
937365.87
 20
7289494.315
 30
0.0
 11
937528.847
 21
7294765.819
 31
0.0
  0
LINE
  8
-62
  6
CONTINUOUS
 62
     6
  5
153
 10
937528.847
 20
7294765.819
 30
0.0
 11
937690.811
 21
7300004.558
 31
0.0
  0
LINE
  8
-62
  6
CONTINUOUS
 62
     6
  5
154
 10
937690.811
 20
7300004.558
 30
0.0
 11
937699.852
 21
7300296.977
 31
0.0
  0
LINE
  8
-62
  6
CONTINUOUS
 62
     6
  5
155
 10
941015.837
 20
7236481.192
 30
0.0
 11
941180.649
 21
7241797.895
 31
0.0
  0
LINE
  8
-62
  6
CONTINUOUS
 62
     6
  5
156
 10
941180.649
 20
7241797.895
 30
0.0
 11
941346.686
 21
7247154.135
 31
0.0
  0
LINE
  8
-62
  6
CONTINUOUS
 62
     6
  5
157
 10
941346.686
 20
7247154.135
 30
0.0
 11
941509.029
 21
7252391.196
 31
0.0
  0
LINE
  8
-62
  6
CONTINUOUS
 62
     6
  5
158
 10
941509.029
 20
7252391.196
 30
0.0
 11
941672.009
 21
7257648.816
 31
0.0
  0
LINE
  8
-62
  6
CONTINUOUS
 62
     6
  5
159
 10
941672.009
 20
7257648.816
 30
0.0
 11
941834.992
 21
7262906.537
 31
0.0
  0
LINE
  8
-62
  6
CONTINUOUS
 62
     6
  5
15A
 10
941834.992
 20
7262906.537
 30
0.0
 11
941998.978
 21
7268196.608
 31
0.0
  0
LINE
  8
-62
  6
CONTINUOUS
 62
     6
  5
15B
 10
941998.978
 20
7268196.608
 30
0.0
 11
942164.401
 21
7273533.02
 31
0.0
  0
LINE
  8
-62
  6
CONTINUOUS
 62
     6
  5
15C
 10
942164.401
 20
7273533.02
 30
0.0
 11
942327.916
 21
7278807.902
 31
0.0
  0
LINE
  8
-62
  6
CONTINUOUS
 62
     6
  5
15D
 10
942327.916
 20
7278807.902
 30
0.0
 11
942491.791
 21
7284094.383
 31
0.0
  0
LINE
  8
-62
  6
CONTINUOUS
 62
     6
  5
15E
 10
942491.791
 20
7284094.383
 30
0.0
 11
942654.257
 21
7289335.422
 31
0.0
  0
LINE
  8
-62
  6
CONTINUOUS
 62
     6
  5
15F
 10
942654.257
 20
7289335.422
 30
0.0
 11
942818.036
 21
7294618.83
 31
0.0
  0
LINE
  8
-62
  6
CONTINUOUS
 62
     6
  5
160
 10
942818.036
 20
7294618.83
 30
0.0
 11
942980.555
 21
7299861.556
 31
0.0
  0
LINE
  8
-62
  6
CONTINUOUS
 62
     6
  5
161
 10
942980.555
 20
7299861.556
 30
0.0
 11
943142.656
 21
7305090.841
 31
0.0
  0
LINE
  8
-62
  6
CONTINUOUS
 62
     6
  5
162
 10
943142.656
 20
7305090.841
 30
0.0
 11
943306.202
 21
7310366.693
 31
0.0
  0
LINE
  8
-62
  6
CONTINUOUS
 62
     6
  5
163
 10
943306.202
 20
7310366.693
 30
0.0
 11
943470.286
 21
7315659.929
 31
0.0
  0
LINE
  8
-62
  6
CONTINUOUS
 62
     6
  5
164
 10
943470.286
 20
7315659.929
 30
0.0
 11
943479.581
 21
7315959.785
 31
0.0
  0
LINE
  8
-62
  6
CONTINUOUS
 62
     6
  5
165
 10
946265.477
 20
7235983.009
 30
0.0
 11
946274.964
 21
7236282.859
 31
0.0
  0
LINE
  8
-62
  6
CONTINUOUS
 62
     6
  5
166
 10
946274.964
 20
7236282.859
 30
0.0
 11
946444.149
 21
7241630.348
 31
0.0
  0
LINE
  8
-62
  6
CONTINUOUS
 62
     6
  5
167
 10
946444.149
 20
7241630.348
 30
0.0
 11
946613.936
 21
7246996.845
 31
0.0
  0
LINE
  8
-62
  6
CONTINUOUS
 62
     6
  5
168
 10
946613.936
 20
7246996.845
 30
0.0
 11
946779.501
 21
7252229.929
 31
0.0
  0
LINE
  8
-62
  6
CONTINUOUS
 62
     6
  5
169
 10
946779.501
 20
7252229.929
 30
0.0
 11
946945.72
 21
7257483.649
 31
0.0
  0
LINE
  8
-62
  6
CONTINUOUS
 62
     6
  5
16A
 10
946945.72
 20
7257483.649
 30
0.0
 11
947111.992
 21
7262739.058
 31
0.0
  0
LINE
  8
-62
  6
CONTINUOUS
 62
     6
  5
16B
 10
947111.992
 20
7262739.058
 30
0.0
 11
947279.359
 21
7268029.075
 31
0.0
  0
LINE
  8
-62
  6
CONTINUOUS
 62
     6
  5
16C
 10
947279.359
 20
7268029.075
 30
0.0
 11
947448.408
 21
7273372.26
 31
0.0
  0
LINE
  8
-62
  6
CONTINUOUS
 62
     6
  5
16D
 10
947448.408
 20
7273372.26
 30
0.0
 11
947615.412
 21
7278650.801
 31
0.0
  0
LINE
  8
-62
  6
CONTINUOUS
 62
     6
  5
16E
 10
947615.412
 20
7278650.801
 30
0.0
 11
947782.557
 21
7283933.809
 31
0.0
  0
LINE
  8
-62
  6
CONTINUOUS
 62
     6
  5
16F
 10
947782.557
 20
7283933.809
 30
0.0
 11
947948.422
 21
7289176.355
 31
0.0
  0
LINE
  8
-62
  6
CONTINUOUS
 62
     6
  5
170
 10
947948.422
 20
7289176.355
 30
0.0
 11
948115.954
 21
7294471.599
 31
0.0
  0
LINE
  8
-62
  6
CONTINUOUS
 62
     6
  5
171
 10
948115.954
 20
7294471.599
 30
0.0
 11
948281.949
 21
7299718.24
 31
0.0
  0
LINE
  8
-62
  6
CONTINUOUS
 62
     6
  5
172
 10
948281.949
 20
7299718.24
 30
0.0
 11
948447.39
 21
7304947.403
 31
0.0
  0
LINE
  8
-62
  6
CONTINUOUS
 62
     6
  5
173
 10
948447.39
 20
7304947.403
 30
0.0
 11
948614.274
 21
7310222.149
 31
0.0
  0
LINE
  8
-62
  6
CONTINUOUS
 62
     6
  5
174
 10
948614.274
 20
7310222.149
 30
0.0
 11
948780.928
 21
7315489.637
 31
0.0
  0
LINE
  8
-62
  6
CONTINUOUS
 62
     6
  5
175
 10
948780.928
 20
7315489.637
 30
0.0
 11
948790.415
 21
7315789.488
 31
0.0
  0
LINE
  8
-62
  6
CONTINUOUS
 62
     6
  5
176
 10
926717.338
 20
7295066.275
 30
0.0
 11
927017.225
 21
7295057.941
 31
0.0
  0
LINE
  8
-62
  6
CONTINUOUS
 62
     6
  5
177
 10
927017.225
 20
7295057.941
 30
0.0
 11
932274.582
 21
7294911.837
 31
0.0
  0
LINE
  8
-62
  6
CONTINUOUS
 62
     6
  5
178
 10
932274.582
 20
7294911.837
 30
0.0
 11
937528.847
 21
7294765.819
 31
0.0
  0
LINE
  8
-62
  6
CONTINUOUS
 62
     6
  5
179
 10
937528.847
 20
7294765.819
 30
0.0
 11
942818.036
 21
7294618.83
 31
0.0
  0
LINE
  8
-62
  6
CONTINUOUS
 62
     6
  5
17A
 10
942818.036
 20
7294618.83
 30
0.0
 11
948115.954
 21
7294471.599
 31
0.0
  0
LINE
  8
-62
  6
CONTINUOUS
 62
     6
  5
17B
 10
948115.954
 20
7294471.599
 30
0.0
 11
953381.17
 21
7294325.276
 31
0.0
  0
LINE
  8
-62
  6
CONTINUOUS
 62
     6
  5
17C
 10
953381.17
 20
7294325.276
 30
0.0
 11
958501.413
 21
7294182.982
 31
0.0
  0
LINE
  8
-62
  6
CONTINUOUS
 62
     6
  5
17D
 10
958501.413
 20
7294182.982
 30
0.0
 11
963796.201
 21
7294035.838
 31
0.0
  0
LINE
  8
-62
  6
CONTINUOUS
 62
     6
  5
17E
 10
963796.201
 20
7294035.838
 30
0.0
 11
969072.147
 21
7293889.217
 31
0.0
  0
LINE
  8
-62
  6
CONTINUOUS
 62
     6
  5
17F
 10
969072.147
 20
7293889.217
 30
0.0
 11
974376.904
 21
7293741.796
 31
0.0
  0
LINE
  8
-62
  6
CONTINUOUS
 62
     6
  5
180
 10
974376.904
 20
7293741.796
 30
0.0
 11
974676.788
 21
7293733.462
 31
0.0
  0
LINE
  8
-62
  6
CONTINUOUS
 62
     6
  5
181
 10
951894.145
 20
7246715.329
 30
0.0
 11
951898.009
 21
7246839.052
 31
0.0
  0
LINE
  8
-62
  6
CONTINUOUS
 62
     6
  5
182
 10
951898.009
 20
7246839.052
 30
0.0
 11
952061.337
 21
7252068.314
 31
0.0
  0
LINE
  8
-62
  6
CONTINUOUS
 62
     6
  5
183
 10
952061.337
 20
7252068.314
 30
0.0
 11
952225.313
 21
7257318.298
 31
0.0
  0
LINE
  8
-62
  6
CONTINUOUS
 62
     6
  5
184
 10
952225.313
 20
7257318.298
 30
0.0
 11
952389.391
 21
7262571.567
 31
0.0
  0
LINE
  8
-62
  6
CONTINUOUS
 62
     6
  5
185
 10
952389.391
 20
7262571.567
 30
0.0
 11
952554.62
 21
7267861.704
 31
0.0
  0
LINE
  8
-62
  6
CONTINUOUS
 62
     6
  5
186
 10
952554.62
 20
7267861.704
 30
0.0
 11
952721.723
 21
7273211.825
 31
0.0
  0
LINE
  8
-62
  6
CONTINUOUS
 62
     6
  5
187
 10
952721.723
 20
7273211.825
 30
0.0
 11
952886.71
 21
7278494.18
 31
0.0
  0
LINE
  8
-62
  6
CONTINUOUS
 62
     6
  5
188
 10
952886.71
 20
7278494.18
 30
0.0
 11
953051.614
 21
7283773.894
 31
0.0
  0
LINE
  8
-62
  6
CONTINUOUS
 62
     6
  5
189
 10
953051.614
 20
7283773.894
 30
0.0
 11
953215.409
 21
7289018.104
 31
0.0
  0
LINE
  8
-62
  6
CONTINUOUS
 62
     6
  5
18A
 10
953215.409
 20
7289018.104
 30
0.0
 11
953381.17
 21
7294325.276
 31
0.0
  0
LINE
  8
-62
  6
CONTINUOUS
 62
     6
  5
18B
 10
953381.17
 20
7294325.276
 30
0.0
 11
953545.168
 21
7299575.956
 31
0.0
  0
LINE
  8
-62
  6
CONTINUOUS
 62
     6
  5
18C
 10
953545.168
 20
7299575.956
 30
0.0
 11
953708.493
 21
7304805.145
 31
0.0
  0
LINE
  8
-62
  6
CONTINUOUS
 62
     6
  5
18D
 10
953708.493
 20
7304805.145
 30
0.0
 11
953873.213
 21
7310078.944
 31
0.0
  0
LINE
  8
-62
  6
CONTINUOUS
 62
     6
  5
18E
 10
953873.213
 20
7310078.944
 30
0.0
 11
954036.943
 21
7315321.097
 31
0.0
  0
LINE
  8
-62
  6
CONTINUOUS
 62
     6
  5
18F
 10
954036.943
 20
7315321.097
 30
0.0
 11
954046.309
 21
7315620.952
 31
0.0
  0
LINE
  8
-62
  6
CONTINUOUS
 62
     6
  5
190
 10
957179.812
 20
7246212.617
 30
0.0
 11
957192.715
 21
7246680.942
 31
0.0
  0
LINE
  8
-62
  6
CONTINUOUS
 62
     6
  5
191
 10
957192.715
 20
7246680.942
 30
0.0
 11
957336.691
 21
7251906.898
 31
0.0
  0
LINE
  8
-62
  6
CONTINUOUS
 62
     6
  5
192
 10
957336.691
 20
7251906.898
 30
0.0
 11
957481.242
 21
7257153.688
 31
0.0
  0
LINE
  8
-62
  6
CONTINUOUS
 62
     6
  5
193
 10
957481.242
 20
7257153.688
 30
0.0
 11
957625.928
 21
7262405.372
 31
0.0
  0
LINE
  8
-62
  6
CONTINUOUS
 62
     6
  5
194
 10
957625.928
 20
7262405.372
 30
0.0
 11
957771.692
 21
7267696.18
 31
0.0
  0
LINE
  8
-62
  6
CONTINUOUS
 62
     6
  5
195
 10
957771.692
 20
7267696.18
 30
0.0
 11
957919.293
 21
7273053.695
 31
0.0
  0
LINE
  8
-62
  6
CONTINUOUS
 62
     6
  5
196
 10
957919.293
 20
7273053.695
 30
0.0
 11
958064.942
 21
7278340.325
 31
0.0
  0
LINE
  8
-62
  6
CONTINUOUS
 62
     6
  5
197
 10
958064.942
 20
7278340.325
 30
0.0
 11
958210.325
 21
7283617.328
 31
0.0
  0
LINE
  8
-62
  6
CONTINUOUS
 62
     6
  5
198
 10
958210.325
 20
7283617.328
 30
0.0
 11
958354.864
 21
7288863.685
 31
0.0
  0
LINE
  8
-62
  6
CONTINUOUS
 62
     6
  5
199
 10
958354.864
 20
7288863.685
 30
0.0
 11
958501.413
 21
7294182.982
 31
0.0
  0
LINE
  8
-62
  6
CONTINUOUS
 62
     6
  5
19A
 10
958501.413
 20
7294182.982
 30
0.0
 11
958646.192
 21
7299438.056
 31
0.0
  0
LINE
  8
-62
  6
CONTINUOUS
 62
     6
  5
19B
 10
958646.192
 20
7299438.056
 30
0.0
 11
958790.272
 21
7304667.735
 31
0.0
  0
LINE
  8
-62
  6
CONTINUOUS
 62
     6
  5
19C
 10
958790.272
 20
7304667.735
 30
0.0
 11
958935.555
 21
7309941.091
 31
0.0
  0
LINE
  8
-62
  6
CONTINUOUS
 62
     6
  5
19D
 10
958935.555
 20
7309941.091
 30
0.0
 11
959079.321
 21
7315159.408
 31
0.0
  0
LINE
  8
-62
  6
CONTINUOUS
 62
     6
  5
19E
 10
959079.321
 20
7315159.408
 30
0.0
 11
959087.583
 21
7315459.294
 31
0.0
  0
LINE
  8
-62
  6
CONTINUOUS
 62
     6
  5
19F
 10
962939.073
 20
7262236.746
 30
0.0
 11
963081.688
 21
7267527.707
 31
0.0
  0
LINE
  8
-62
  6
CONTINUOUS
 62
     6
  5
1A0
 10
963081.688
 20
7267527.707
 30
0.0
 11
963226.287
 21
7272892.236
 31
0.0
  0
LINE
  8
-62
  6
CONTINUOUS
 62
     6
  5
1A1
 10
963226.287
 20
7272892.236
 30
0.0
 11
963368.889
 21
7278182.735
 31
0.0
  0
LINE
  8
-62
  6
CONTINUOUS
 62
     6
  5
1A2
 10
963368.889
 20
7278182.735
 30
0.0
 11
963511.04
 21
7283456.452
 31
0.0
  0
LINE
  8
-62
  6
CONTINUOUS
 62
     6
  5
1A3
 10
963511.04
 20
7283456.452
 30
0.0
 11
963652.498
 21
7288704.514
 31
0.0
  0
LINE
  8
-62
  6
CONTINUOUS
 62
     6
  5
1A4
 10
963652.498
 20
7288704.514
 30
0.0
 11
963796.201
 21
7294035.838
 31
0.0
  0
LINE
  8
-62
  6
CONTINUOUS
 62
     6
  5
1A5
 10
963796.201
 20
7294035.838
 30
0.0
 11
963937.96
 21
7299295.0
 31
0.0
  0
LINE
  8
-62
  6
CONTINUOUS
 62
     6
  5
1A6
 10
963937.96
 20
7299295.0
 30
0.0
 11
964078.924
 21
7304524.732
 31
0.0
  0
LINE
  8
-62
  6
CONTINUOUS
 62
     6
  5
1A7
 10
964078.924
 20
7304524.732
 30
0.0
 11
964221.004
 21
7309795.83
 31
0.0
  0
LINE
  8
-62
  6
CONTINUOUS
 62
     6
  5
1A8
 10
969356.376
 20
7262033.555
 30
0.0
 11
969363.032
 21
7262280.765
 31
0.0
  0
LINE
  8
-62
  6
CONTINUOUS
 62
     6
  5
1A9
 10
969215.104
 20
7256786.197
 30
0.0
 11
969356.376
 21
7262033.555
 31
0.0
  0
LINE
  8
-62
  6
CONTINUOUS
 62
     6
  5
1AA
 10
968215.469
 20
7262069.287
 30
0.0
 11
968357.918
 21
7267360.306
 31
0.0
  0
LINE
  8
-62
  6
CONTINUOUS
 62
     6
  5
1AB
 10
968357.918
 20
7267360.306
 30
0.0
 11
968502.53
 21
7272731.712
 31
0.0
  0
LINE
  8
-62
  6
CONTINUOUS
 62
     6
  5
1AC
 10
968502.53
 20
7272731.712
 30
0.0
 11
968645.066
 21
7278025.97
 31
0.0
  0
LINE
  8
-62
  6
CONTINUOUS
 62
     6
  5
1AD
 10
968645.066
 20
7278025.97
 30
0.0
 11
968786.958
 21
7283296.328
 31
0.0
  0
LINE
  8
-62
  6
CONTINUOUS
 62
     6
  5
1AE
 10
968786.958
 20
7283296.328
 30
0.0
 11
968928.293
 21
7288545.999
 31
0.0
  0
LINE
  8
-62
  6
CONTINUOUS
 62
     6
  5
1AF
 10
968928.293
 20
7288545.999
 30
0.0
 11
969072.147
 21
7293889.217
 31
0.0
  0
LINE
  8
-62
  6
CONTINUOUS
 62
     6
  5
1B0
 10
969072.147
 20
7293889.217
 30
0.0
 11
969213.845
 21
7299152.373
 31
0.0
  0
LINE
  8
-62
  6
CONTINUOUS
 62
     6
  5
1B1
 10
969213.845
 20
7299152.373
 30
0.0
 11
969354.642
 21
7304382.078
 31
0.0
  0
LINE
  8
-62
  6
CONTINUOUS
 62
     6
  5
1B2
 10
969354.642
 20
7304382.078
 30
0.0
 11
969496.563
 21
7309653.505
 31
0.0
  0
LINE
  8
-62
  6
CONTINUOUS
 62
     6
  5
1B3
 10
969496.563
 20
7309653.505
 30
0.0
 11
969504.637
 21
7309953.396
 31
0.0
  0
LINE
  8
-62
  6
CONTINUOUS
 62
     6
  5
1B4
 10
973485.919
 20
7261658.627
 30
0.0
 11
973492.672
 21
7261901.801
 31
0.0
  0
LINE
  8
-62
  6
CONTINUOUS
 62
     6
  5
1B5
 10
974492.516
 20
7256620.914
 30
0.0
 11
974638.176
 21
7261865.925
 31
0.0
  0
LINE
  8
-62
  6
CONTINUOUS
 62
     6
  5
1B6
 10
973492.672
 20
7261901.801
 30
0.0
 11
973639.607
 21
7267192.731
 31
0.0
  0
LINE
  8
-62
  6
CONTINUOUS
 62
     6
  5
1B7
 10
973639.607
 20
7267192.731
 30
0.0
 11
973788.964
 21
7272570.878
 31
0.0
  0
LINE
  8
-62
  6
CONTINUOUS
 62
     6
  5
1B8
 10
973788.964
 20
7272570.878
 30
0.0
 11
973936.092
 21
7277868.763
 31
0.0
  0
LINE
  8
-62
  6
CONTINUOUS
 62
     6
  5
1B9
 10
973936.092
 20
7277868.763
 30
0.0
 11
974082.359
 21
7283135.613
 31
0.0
  0
LINE
  8
-62
  6
CONTINUOUS
 62
     6
  5
1BA
 10
974082.359
 20
7283135.613
 30
0.0
 11
974228.189
 21
7288386.76
 31
0.0
  0
LINE
  8
-62
  6
CONTINUOUS
 62
     6
  5
1BB
 10
974228.189
 20
7288386.76
 30
0.0
 11
974376.904
 21
7293741.796
 31
0.0
  0
LINE
  8
-62
  6
CONTINUOUS
 62
     6
  5
1BC
 10
974376.904
 20
7293741.796
 30
0.0
 11
974523.176
 21
7299008.842
 31
0.0
  0
LINE
  8
-62
  6
CONTINUOUS
 62
     6
  5
1BD
 10
974523.176
 20
7299008.842
 30
0.0
 11
974531.504
 21
7299308.726
 31
0.0
  0
LINE
  8
-62
  6
CONTINUOUS
 62
     6
  5
1BE
 10
937390.919
 20
7300012.665
 30
0.0
 11
937690.811
 21
7300004.558
 31
0.0
  0
LINE
  8
-62
  6
CONTINUOUS
 62
     6
  5
1BF
 10
937690.811
 20
7300004.558
 30
0.0
 11
942980.555
 21
7299861.556
 31
0.0
  0
LINE
  8
-62
  6
CONTINUOUS
 62
     6
  5
1C0
 10
942980.555
 20
7299861.556
 30
0.0
 11
948281.949
 21
7299718.24
 31
0.0
  0
LINE
  8
-62
  6
CONTINUOUS
 62
     6
  5
1C1
 10
948281.949
 20
7299718.24
 30
0.0
 11
953545.168
 21
7299575.956
 31
0.0
  0
LINE
  8
-62
  6
CONTINUOUS
 62
     6
  5
1C2
 10
953545.168
 20
7299575.956
 30
0.0
 11
958646.192
 21
7299438.056
 31
0.0
  0
LINE
  8
-62
  6
CONTINUOUS
 62
     6
  5
1C3
 10
958646.192
 20
7299438.056
 30
0.0
 11
963937.96
 21
7299295.0
 31
0.0
  0
LINE
  8
-62
  6
CONTINUOUS
 62
     6
  5
1C4
 10
963937.96
 20
7299295.0
 30
0.0
 11
969213.845
 21
7299152.373
 31
0.0
  0
LINE
  8
-62
  6
CONTINUOUS
 62
     6
  5
1C5
 10
969213.845
 20
7299152.373
 30
0.0
 11
974523.176
 21
7299008.842
 31
0.0
  0
LINE
  8
-62
  6
CONTINUOUS
 62
     6
  5
1C6
 10
974523.176
 20
7299008.842
 30
0.0
 11
974822.917
 21
7299000.739
 31
0.0
  0
LINE
  8
-62
  6
CONTINUOUS
 62
     6
  5
1C7
 10
942732.973
 20
7305101.919
 30
0.0
 11
943142.656
 21
7305090.841
 31
0.0
  0
LINE
  8
-62
  6
CONTINUOUS
 62
     6
  5
1C8
 10
943142.656
 20
7305090.841
 30
0.0
 11
948447.39
 21
7304947.403
 31
0.0
  0
LINE
  8
-62
  6
CONTINUOUS
 62
     6
  5
1C9
 10
948447.39
 20
7304947.403
 30
0.0
 11
953708.493
 21
7304805.145
 31
0.0
  0
LINE
  8
-62
  6
CONTINUOUS
 62
     6
  5
1CA
 10
953708.493
 20
7304805.145
 30
0.0
 11
958790.272
 21
7304667.735
 31
0.0
  0
LINE
  8
-62
  6
CONTINUOUS
 62
     6
  5
1CB
 10
958790.272
 20
7304667.735
 30
0.0
 11
964078.924
 21
7304524.732
 31
0.0
  0
LINE
  8
-62
  6
CONTINUOUS
 62
     6
  5
1CC
 10
964078.924
 20
7304524.732
 30
0.0
 11
969354.642
 21
7304382.078
 31
0.0
  0
LINE
  8
-62
  6
CONTINUOUS
 62
     6
  5
1CD
 10
969354.642
 20
7304382.078
 30
0.0
 11
969672.732
 21
7304373.477
 31
0.0
  0
LINE
  8
-62
  6
CONTINUOUS
 62
     6
  5
1CE
 10
942871.556
 20
7310378.529
 30
0.0
 11
943306.202
 21
7310366.693
 31
0.0
  0
LINE
  8
-62
  6
CONTINUOUS
 62
     6
  5
1CF
 10
943306.202
 20
7310366.693
 30
0.0
 11
948614.274
 21
7310222.149
 31
0.0
  0
LINE
  8
-62
  6
CONTINUOUS
 62
     6
  5
1D0
 10
948614.274
 20
7310222.149
 30
0.0
 11
953873.213
 21
7310078.944
 31
0.0
  0
LINE
  8
-62
  6
CONTINUOUS
 62
     6
  5
1D1
 10
953873.213
 20
7310078.944
 30
0.0
 11
958935.555
 21
7309941.091
 31
0.0
  0
LINE
  8
-62
  6
CONTINUOUS
 62
     6
  5
1D2
 10
958935.555
 20
7309941.091
 30
0.0
 11
969496.563
 21
7309653.505
 31
0.0
  0
LINE
  8
-62
  6
CONTINUOUS
 62
     6
  5
1D3
 10
969496.563
 20
7309653.505
 30
0.0
 11
969796.452
 21
7309645.339
 31
0.0
  0
LINE
  8
-62
  6
CONTINUOUS
 62
     6
  5
1D4
 10
943170.44
 20
7315669.544
 30
0.0
 11
943470.286
 21
7315659.929
 31
0.0
  0
LINE
  8
-62
  6
CONTINUOUS
 62
     6
  5
1D5
 10
943470.286
 20
7315659.929
 30
0.0
 11
948780.928
 21
7315489.637
 31
0.0
  0
LINE
  8
-62
  6
CONTINUOUS
 62
     6
  5
1D6
 10
948780.928
 20
7315489.637
 30
0.0
 11
954036.943
 21
7315321.097
 31
0.0
  0
LINE
  8
-62
  6
CONTINUOUS
 62
     6
  5
1D7
 10
954036.943
 20
7315321.097
 30
0.0
 11
959079.321
 21
7315159.408
 31
0.0
  0
LINE
  8
-62
  6
CONTINUOUS
 62
     6
  5
1D8
 10
959079.321
 20
7315159.408
 30
0.0
 11
959379.167
 21
7315149.793
 31
0.0
  0
LINE
  8
-62
  6
CONTINUOUS
 62
     6
  5
1D9
 10
963564.236
 20
7245045.64
 30
0.0
 11
963609.521
 21
7246489.323
 31
0.0
  0
LINE
  8
-62
  6
CONTINUOUS
 62
     6
  5
1DA
 10
963609.521
 20
7246489.323
 30
0.0
 11
963773.278
 21
7251709.95
 31
0.0
  0
LINE
  8
-62
  6
CONTINUOUS
 62
     6
  5
1DB
 10
963773.278
 20
7251709.95
 30
0.0
 11
963937.692
 21
7256951.479
 31
0.0
  0
LINE
  8
-62
  6
CONTINUOUS
 62
     6
  5
1DC
 10
963937.692
 20
7256951.479
 30
0.0
 11
964102.316
 21
7262199.828
 31
0.0
  0
LINE
  8
-62
  6
CONTINUOUS
 62
     6
  5
1DD
 10
968841.64
 20
7244880.101
 30
0.0
 11
968887.174
 21
7246331.722
 31
0.0
  0
LINE
  8
-62
  6
CONTINUOUS
 62
     6
  5
1DE
 10
968887.174
 20
7246331.722
 30
0.0
 11
969050.809
 21
7251548.466
 31
0.0
  0
LINE
  8
-62
  6
CONTINUOUS
 62
     6
  5
1DF
 10
969050.809
 20
7251548.466
 30
0.0
 11
969215.104
 21
7256786.197
 31
0.0
  0
LINE
  8
-62
  6
CONTINUOUS
 62
     6
  5
1E0
 10
974119.044
 20
7244714.562
 30
0.0
 11
974164.827
 21
7246174.121
 31
0.0
  0
LINE
  8
-62
  6
CONTINUOUS
 62
     6
  5
1E1
 10
974164.827
 20
7246174.121
 30
0.0
 11
974328.341
 21
7251386.983
 31
0.0
  0
LINE
  8
-62
  6
CONTINUOUS
 62
     6
  5
1E2
 10
974328.341
 20
7251386.983
 30
0.0
 11
974492.516
 21
7256620.914
 31
0.0
  0
POINT
  8
-62
  6
CONTINUOUS
 62
     6
  5
1E3
 10
930778.296
 20
7247383.395
 30
0.0
  0
TEXT
  8
-62
  6
CONTINUOUS
 62
     6
  5
1E5
 10
930796.619
 20
7247422.264
 30
0.0
 40
10.0
  1
NORTH WEST CORNER
 50
358.14985
  7
txt
 72
     4
 11
930881.104446
 21
7247424.537522
 31
0.0
210
0.0
220
0.0
230
1.0
  0
TEXT
  8
-62
  6
CONTINUOUS
 62
     6
  5
1E6
 10
930787.166
 20
7247407.562
 30
0.0
 40
10.0
  1
SECTION 17 BLOCK E-2
 50
358.14985
  7
txt
 72
     4
 11
930880.620767
 21
7247409.545791
 31
0.0
210
0.0
220
0.0
230
1.0
  0
POINT
  8
-1
  6
CONTINUOUS
 62
     6
  5
1E8
 10
920886.881
 20
7268843.231
 30
0.0
  0
TEXT
  8
-48
  6
CONTINUOUS
 62
     3
  5
1EA
 10
920929.474
 20
7268839.337
 30
0.0
 40
8.0
  1
NORTHEAST CORNER OF
 50
358.250278
  7
txt
 11
920929.718269
 21
7268847.33327
 31
0.0
210
0.0
220
0.0
230
1.0
 73
     3
  0
TEXT
  8
-48
  6
CONTINUOUS
 62
     3
  5
1EB
 10
920929.169
 20
7268829.342
 30
0.0
 40
8.0
  1
SECTION 37,BLOCK AK
 50
358.250278
  7
txt
 11
920929.413269
 21
7268837.33827
 31
0.0
210
0.0
220
0.0
230
1.0
 73
     3
  0
POINT
  8
-62
  6
CONTINUOUS
 62
     6
  5
1EC
 10
920548.966
 20
7258294.279
 30
0.0
  0
TEXT
  8
-48
  6
CONTINUOUS
 62
     3
  5
1ED
 10
920578.136
 20
7258278.553
 30
0.0
 40
8.0
  1
NORTHWEST CORNER OF
 50
358.250278
  7
txt
 11
920578.380269
 21
7258286.54927
 31
0.0
210
0.0
220
0.0
230
1.0
 73
     3
  0
TEXT
  8
-48
  6
CONTINUOUS
 62
     3
  5
1EE
 10
920577.831
 20
7258268.558
 30
0.0
 40
8.0
  1
SECTION 27,BLOCK E2
 50
358.250278
  7
txt
 11
920578.075269
 21
7258276.55427
 31
0.0
210
0.0
220
0.0
230
1.0
 73
     3
  0
LINE
  8
-62
  6
CONTINUOUS
 62
     6
  5
1EF
 10
974638.176
 20
7261865.925
 30
0.0
 11
974644.929
 21
7262109.099
 31
0.0
  0
LINE
  8
-62
  6
CONTINUOUS
 62
     6
  5
1F0
 10
968208.716
 20
7261826.113
 30
0.0
 11
968215.469
 21
7262069.287
 31
0.0
  0
POINT
  8
-1
  6
CONTINUOUS
 62
     6
  5
1F1
 10
947933.398
 20
7289070.019
 30
0.0
  0
POINT
  8
-1
  6
CONTINUOUS
 62
     6
  5
1F2
 10
974272.391
 20
7288400.636
 30
0.0
  0
TEXT
  8
-62
  6
CONTINUOUS
 62
     6
  5
1F3
 10
974315.398
 20
7288454.949
 30
0.0
 40
10.0
  1
NORTH WEST CORNER
 50
358.14985
  7
txt
 72
     4
 11
974399.883446
 21
7288457.222522
 31
0.0
210
0.0
220
0.0
230
1.0
  0
TEXT
  8
-62
  6
CONTINUOUS
 62
     6
  5
1F4
 10
974313.067
 20
7288440.017
 30
0.0
 40
10.0
  1
SECTION 26 BLOCK A
 50
358.14985
  7
txt
 72
     4
 11
974399.399482
 21
7288442.230858
 31
0.0
210
0.0
220
0.0
230
1.0
  0
ENDSEC
  0
EOF
