  0
SECTION
  2
HEADER
  9
$ACADVER
  1
AC1009
  9
$INSBASE
 10
0.0
 20
0.0
 30
0.0
  9
$EXTMIN
 10
948395.349
 20
7310054.993
 30
0.0
  9
$EXTMAX
 10
954036.942
 20
7315489.636
 30
0.0
  9
$LIMMIN
 10
0.0
 20
0.0
  9
$LIMMAX
 10
12.0
 20
9.0
  9
$ORTHOMODE
 70
     0
  9
$REGENMODE
 70
     1
  9
$FILLMODE
 70
     1
  9
$QTEXTMODE
 70
     0
  9
$MIRRTEXT
 70
     1
  9
$DRAGMODE
 70
     2
  9
$LTSCALE
 40
1.0
  9
$OSMODE
 70
     0
  9
$ATTMODE
 70
     1
  9
$TEXTSIZE
 40
0.2
  9
$TRACEWID
 40
0.05
  9
$TEXTSTYLE
  7
STANDARD
  9
$CLAYER
  8
0
  9
$CELTYPE
  6
CONTINUOUS
  9
$CECOLOR
 62
   256
  9
$DIMSCALE
 40
1.0
  9
$DIMASZ
 40
0.18
  9
$DIMEXO
 40
0.0625
  9
$DIMDLI
 40
0.38
  9
$DIMRND
 40
0.0
  9
$DIMDLE
 40
0.0
  9
$DIMEXE
 40
0.18
  9
$DIMTP
 40
0.0
  9
$DIMTM
 40
0.0
  9
$DIMTXT
 40
0.18
  9
$DIMCEN
 40
0.09
  9
$DIMTSZ
 40
0.0
  9
$DIMTOL
 70
     0
  9
$DIMLIM
 70
     0
  9
$DIMTIH
 70
     1
  9
$DIMTOH
 70
     1
  9
$DIMSE1
 70
     0
  9
$DIMSE2
 70
     0
  9
$DIMTAD
 70
     0
  9
$DIMZIN
 70
     0
  9
$DIMBLK
  1

  9
$DIMASO
 70
     1
  9
$DIMSHO
 70
     1
  9
$DIMPOST
  1

  9
$DIMAPOST
  1

  9
$DIMALT
 70
     0
  9
$DIMALTD
 70
     2
  9
$DIMALTF
 40
25.4
  9
$DIMLFAC
 40
1.0
  9
$DIMTOFL
 70
     0
  9
$DIMTVP
 40
0.0
  9
$DIMTIX
 70
     0
  9
$DIMSOXD
 70
     0
  9
$DIMSAH
 70
     0
  9
$DIMBLK1
  1

  9
$DIMBLK2
  1

  9
$DIMSTYLE
  2
STANDARD
  9
$DIMCLRD
 70
     0
  9
$DIMCLRE
 70
     0
  9
$DIMCLRT
 70
     0
  9
$DIMTFAC
 40
1.0
  9
$DIMGAP
 40
0.09
  9
$LUNITS
 70
     2
  9
$LUPREC
 70
     4
  9
$AXISMODE
 70
     0
  9
$AXISUNIT
 10
0.0
 20
0.0
  9
$SKETCHINC
 40
0.1
  9
$FILLETRAD
 40
0.0
  9
$AUNITS
 70
     0
  9
$AUPREC
 70
     0
  9
$MENU
  1
acad
  9
$ELEVATION
 40
0.0
  9
$PELEVATION
 40
0.0
  9
$THICKNESS
 40
0.0
  9
$LIMCHECK
 70
     0
  9
$BLIPMODE
 70
     1
  9
$CHAMFERA
 40
0.0
  9
$CHAMFERB
 40
0.0
  9
$SKPOLY
 70
     0
  9
$TDCREATE
 40
2453013.904930556
  9
$TDUPDATE
 40
2453013.904930556
  9
$TDINDWG
 40
0.0000000000
  9
$TDUSRTIMER
 40
0.0000000000
  9
$USRTIMER
 70
     1
  9
$ANGBASE
 50
0.0
  9
$ANGDIR
 70
     0
  9
$PDMODE
 70
     0
  9
$PDSIZE
 40
0.0
  9
$PLINEWID
 40
0.0
  9
$COORDS
 70
     0
  9
$SPLFRAME
 70
     0
  9
$SPLINETYPE
 70
     6
  9
$SPLINESEGS
 70
    10
  9
$ATTDIA
 70
     0
  9
$ATTREQ
 70
     1
  9
$HANDLING
 70
     1
  9
$HANDSEED
  5
B9
  9
$SURFTAB1
 70
     6
  9
$SURFTAB2
 70
     6
  9
$SURFTYPE
 70
     6
  9
$SURFU
 70
     6
  9
$SURFV
 70
     6
  9
$UCSNAME
  2

  9
$UCSORG
 10
0.0
 20
0.0
 30
0.0
  9
$UCSXDIR
 10
1.0
 20
0.0
 30
0.0
  9
$UCSYDIR
 10
0.0
 20
1.0
 30
0.0
  9
$PUCSNAME
  2

  9
$PUCSORG
 10
0.0
 20
0.0
 30
0.0
  9
$PUCSXDIR
 10
1.0
 20
0.0
 30
0.0
  9
$PUCSYDIR
 10
0.0
 20
1.0
 30
0.0
  9
$USERI1
 70
     0
  9
$USERI2
 70
     0
  9
$USERI3
 70
     0
  9
$USERI4
 70
     0
  9
$USERI5
 70
     0
  9
$USERR1
 40
0.0
  9
$USERR2
 40
0.0
  9
$USERR3
 40
0.0
  9
$USERR4
 40
0.0
  9
$USERR5
 40
0.0
  9
$WORLDVIEW
 70
     1
  9
$SHADEDGE
 70
     3
  9
$SHADEDIF
 70
    70
  9
$TILEMODE
 70
     1
  9
$MAXACTVP
 70
    16
  9
$PINSBASE
 10
0.0
 20
0.0
 30
0.0
  9
$PLIMCHECK
 70
     0
  9
$PEXTMIN
 10
-1.000000E+20
 20
-1.000000E+20
 30
-1.000000E+20
  9
$PEXTMAX
 10
-1.000000E+20
 20
-1.000000E+20
 30
-1.000000E+20
  9
$PLIMMIN
 10
0.0
 20
0.0
  9
$PLIMMAX
 10
12.0
 20
9.0
  9
$UNITMODE
 70
     0
  9
$VISRETAIN
 70
     0
  9
$PLINEGEN
 70
     1
  9
$PSLTSCALE
 70
     0
  9
$TREEDEPTH
 70
  3020
  9
$DWGCODEPAGE
  3
ansi_1252
  0
ENDSEC
  0
SECTION
  2
TABLES
  0
TABLE
  2
VPORT
 70
     1
  0
VPORT
  2
*ACTIVE
 70
     0
 10
0.0
 20
0.0
 11
1.0
 21
1.0
 12
0.0
 22
0.0
 13
0.0
 23
0.0
 14
0.0
 24
0.0
 15
0.0
 25
0.0
 16
0.0
 26
0.0
 36
1.0
 17
951040.83687
 27
7312695.1165
 37
0.0
 40
5349.443
 41
1.104494
 42
50.0
 43
0.004
 44
0.0
 50
0.0
 51
0.0
 71
     0
 72
   100
 73
     1
 74
     0
 75
     0
 76
     0
 77
     0
 78
     0
  0
ENDTAB
  0
TABLE
  2
LTYPE
 70
     7
  0
LTYPE
  2
CONTINUOUS
 70
     0
  3
Solid line
 72
    65
 73
     0
 40
0.0
  0
LTYPE
  2
DOT
 70
    64
  3
. . . . . . . . . . . . . . . . . . . . . . . . . . . . . . . . .
 72
    65
 73
     2
 40
0.25
 49
0.0
 49
-0.25
  0
LTYPE
  2
HIDDEN
 70
    64
  3
__ __ __ __ __ __ __ __ __ __ __ __ __ __ __ __ __ __ __ __ __ 
 72
    65
 73
     2
 40
0.375
 49
0.25
 49
-0.125
  0
LTYPE
  2
DASHED
 70
    64
  3
__ __ __ __ __ __ __ __ __ __ __ __ __ __ __ __ __ __ __ __ __
 72
    65
 73
     2
 40
0.75
 49
0.5
 49
-0.25
  0
LTYPE
  2
DASHDOT
 70
    64
  3
__ . __ . __ . __ . __ . __ . __ . __ . __ . __ . __ . __ . _
 72
    65
 73
     4
 40
1.0
 49
0.5
 49
-0.25
 49
0.0
 49
-0.25
  0
LTYPE
  2
DIVIDE
 70
    64
  3
____ . . ____ . . ____ . . ____ . . ____ . . ____ . . ____ . .
 72
    65
 73
     6
 40
1.25
 49
0.5
 49
-0.25
 49
0.0
 49
-0.25
 49
0.0
 49
-0.25
  0
LTYPE
  2
CENTER
 70
    64
  3
____ _ ____ _ ____ _ ____ _ ____ _ ____ _ ____ _ ____ _ ____ _
 72
    65
 73
     4
 40
2.0
 49
1.25
 49
-0.25
 49
0.25
 49
-0.25
  0
ENDTAB
  0
TABLE
  2
LAYER
 70
    11
  0
LAYER
  2
0
 70
     0
 62
     7
  6
CONTINUOUS
  0
LAYER
  2
CONSTRUCTION_CLASS
 70
     1
 62
     7
  6
CONTINUOUS
  0
LAYER
  2
PATTERN_CLASS
 70
     0
 62
     7
  6
CONTINUOUS
  0
LAYER
  2
6
 70
    64
 62
     7
  6
CONTINUOUS
  0
LAYER
  2
27
 70
    64
 62
     7
  6
CONTINUOUS
  0
LAYER
  2
10
 70
    64
 62
     7
  6
CONTINUOUS
  0
LAYER
  2
28
 70
    64
 62
     7
  6
CONTINUOUS
  0
LAYER
  2
19
 70
    64
 62
     7
  6
CONTINUOUS
  0
LAYER
  2
11
 70
    64
 62
     7
  6
CONTINUOUS
  0
LAYER
  2
DEFPOINTS
 70
    64
 62
     7
  6
CONTINUOUS
  0
LAYER
  2
1
 70
    64
 62
     7
  6
CONTINUOUS
  0
ENDTAB
  0
TABLE
  2
STYLE
 70
     3
  0
STYLE
  2
STANDARD
 70
     0
 40
0.0
 41
1.0
 50
0.0
 71
     0
 42
0.0
  3
txt
  4

  0
STYLE
  2
ROMANS
 70
     0
 40
0.2
 41
1.0
 50
0.0
 71
     0
 42
0.2
  3
ROMANS
  4

  0
STYLE
  2
ROMANC
 70
     0
 40
0.2
 41
1.0
 50
0.0
 71
     0
 42
0.2
  3
ROMANC
  4

  0
ENDTAB
  0
TABLE
  2
VIEW
 70
     0
  0
ENDTAB
  0
TABLE
  2
UCS
 70
     0
  0
ENDTAB
  0
TABLE
  2
APPID
 70
     1
  0
APPID
  2
ACAD
 70
     0
  0
ENDTAB
  0
TABLE
  2
DIMSTYLE
 70
     2
  0
DIMSTYLE
  2
STANDARD
 70
     0
  3

  4

  5

  6

  7

 40
1.0
 41
0.18
 42
0.0625
 43
0.38
 44
0.18
 45
0.0
 46
0.0
 47
0.0
 48
0.0
140
0.18
141
0.09
142
0.0
143
25.4
144
1.0
145
0.0
146
1.0
147
0.09
 71
     0
 72
     0
 73
     1
 74
     1
 75
     0
 76
     0
 77
     0
 78
     0
170
     0
171
     2
172
     0
173
     0
174
     0
175
     0
176
     0
177
     0
178
     0
  0
DIMSTYLE
  2
MSADIM
 70
     0
  3

  4

  5

  6

  7

 40
1.0
 41
8.0
 42
4.0
 43
0.0
 44
4.0
 45
0.0
 46
0.0
 47
0.0
 48
0.0
140
8.0
141
4.0
142
0.0
143
25.4
144
1.0
145
4.0
146
1.0
147
4.0
 71
     0
 72
     0
 73
     1
 74
     1
 75
     1
 76
     1
 77
     0
 78
     2
170
     0
171
     2
172
     0
173
     0
174
     0
175
     0
176
     0
177
     0
178
     0
  0
ENDTAB
  0
ENDSEC
  0
SECTION
  2
BLOCKS
  0
BLOCK
  8
11
  6
CONTINUOUS
 62
     7
  5
9B
  2
*D0
 70
     1
 10
0.0
 20
0.0
 30
0.0
  3
*N0
  0
TEXT
  8
11
  6
CONTINUOUS
 62
     7
  5
9C
 10
950566.773
 20
7310350.595
 30
0.0
 40
8.0
  1
N24%%d44'28"E
 50
65.258778
  7
ROMANS
 72
     1
 11
950577.294467
 21
7310392.541975
 31
0.0
210
0.0
220
0.0
230
1.0
 73
     3
  0
TEXT
  8
11
  6
CONTINUOUS
 62
     7
  5
9D
 10
950559.426
 20
7310372.882
 30
0.0
 40
8.0
  1
574.43'
 50
65.258778
  7
ROMANS
 72
     1
 11
950570.028382
 21
7310395.889616
 31
0.0
210
0.0
220
0.0
230
1.0
  0
ENDBLK
  8
11
  6
CONTINUOUS
 62
     7
  5
9E
  0
BLOCK
  8
11
  6
CONTINUOUS
 62
     7
  5
A1
  2
*D1
 70
     1
 10
0.0
 20
0.0
 30
0.0
  3
*N1
  0
TEXT
  8
11
  6
CONTINUOUS
 62
     7
  5
A2
 10
951778.943
 20
7313039.101
 30
0.0
 40
8.0
  1
N24%%d44'28"E
 50
65.258828
  7
ROMANS
 72
     1
 11
951789.464431
 21
7313081.047984
 31
0.0
210
0.0
220
0.0
230
1.0
 73
     3
  0
TEXT
  8
11
  6
CONTINUOUS
 62
     7
  5
A3
 10
951769.922
 20
7313057.756
 30
0.0
 40
8.0
  1
5185.46'
 50
65.258828
  7
ROMANS
 72
     1
 11
951782.198442
 21
7313084.396456
 31
0.0
210
0.0
220
0.0
230
1.0
  0
ENDBLK
  8
11
  6
CONTINUOUS
 62
     7
  5
A4
  0
ENDSEC
  0
SECTION
  2
ENTITIES
  0
LINE
  8
6
  6
CONTINUOUS
 62
     7
  5
29
 10
953581.892
 20
7310269.331
 30
0.0
 11
953706.559
 21
7311669.75
 31
0.0
  0
LINE
  8
6
  6
CONTINUOUS
 62
     7
  5
2A
 10
953706.559
 20
7311669.75
 30
0.0
 11
953723.399
 21
7313732.57
 31
0.0
  0
ARC
  8
6
  6
CONTINUOUS
 62
     7
  5
2B
 10
952985.531126
 20
7313784.160772
 30
0.0
 40
739.669255
 50
356.000461
 51
40.676944
210
0.0
220
0.0
230
1.0
  0
ARC
  8
6
  6
CONTINUOUS
 62
     7
  5
2C
 10
954145.07596
 20
7314797.267655
 30
0.0
 40
800.160452
 50
185.795206
 51
221.575889
210
0.0
220
0.0
230
1.0
  0
LINE
  8
6
  6
CONTINUOUS
 62
     7
  5
2D
 10
953395.234
 20
7315259.041
 30
0.0
 11
953349.005
 21
7314716.473
 31
0.0
  0
ARC
  8
6
  6
CONTINUOUS
 62
     7
  5
2E
 10
953366.001649
 20
7315265.422797
 30
0.0
 40
29.9209
 50
347.685508
 51
80.035467
210
0.0
220
0.0
230
1.0
  0
ARC
  8
6
  6
CONTINUOUS
 62
     7
  5
2F
 10
955900.847055
 20
7310022.535701
 30
0.0
 40
2332.050968
 50
173.925158
 51
179.202542
210
0.0
220
0.0
230
1.0
  0
LINE
  8
27
  6
CONTINUOUS
 62
    32
  5
31
 10
950568.206
 20
7310143.439
 30
0.0
 11
952908.122
 21
7315356.402
 31
0.0
  0
LINE
  8
6
  6
CONTINUOUS
 62
     7
  5
32
 10
950676.844
 20
7310140.253
 30
0.0
 11
950881.618
 21
7310584.622
 31
0.0
  0
LINE
  8
6
  6
CONTINUOUS
 62
     7
  5
33
 10
950459.566
 20
7310146.624
 30
0.0
 11
950699.977
 21
7310668.326
 31
0.0
  0
LINE
  8
6
  6
CONTINUOUS
 62
     7
  5
34
 10
950836.208
 20
7310605.548
 30
0.0
 11
952962.442
 21
7315354.809
 31
0.0
  0
LINE
  8
6
  6
CONTINUOUS
 62
     7
  5
35
 10
950745.388
 20
7310647.401
 30
0.0
 11
952853.8
 21
7315357.995
 31
0.0
  0
LINE
  8
6
  6
CONTINUOUS
 62
     7
  5
36
 10
950881.618
 20
7310584.622
 30
0.0
 11
950836.208
 21
7310605.548
 31
0.0
  0
LINE
  8
6
  6
CONTINUOUS
 62
     7
  5
37
 10
950745.388
 20
7310647.401
 30
0.0
 11
950699.977
 21
7310668.327
 31
0.0
  0
TEXT
  8
10
  6
CONTINUOUS
 62
     4
  5
3A
 10
950193.972
 20
7313291.017
 30
0.0
 40
13.999
  1
UNSUBDIVIDED
 50
358.3203
  7
ROMANS
 11
950194.38234
 21
7313305.009985
 31
0.0
210
0.0
220
0.0
230
1.0
 73
     3
  0
TEXT
  8
10
  6
CONTINUOUS
 62
     4
  5
3B
 10
952518.539
 20
7311917.449
 30
0.0
 40
13.999
  1
UNSUBDIVIDED
 50
358.3203
  7
ROMANS
 11
952518.94934
 21
7311931.441985
 31
0.0
210
0.0
220
0.0
230
1.0
 73
     3
  0
LINE
  8
6
  6
CONTINUOUS
 62
     7
  5
3C
 10
948589.809
 20
7315446.864
 30
0.0
 11
952848.947
 21
7315344.259
 31
0.0
  0
TEXT
  8
28
  6
CONTINUOUS
 62
    32
  5
3F
 10
950698.398
 20
7310454.635
 30
0.0
 40
24.0
  1
A
 50
65.258806
  7
ROMANC
 72
     1
 11
950702.66858
 21
7310463.902349
 31
0.0
210
0.0
220
0.0
230
1.0
  0
TEXT
  8
28
  6
CONTINUOUS
 62
    32
  5
40
 10
950709.154
 20
7310477.977
 30
0.0
 40
24.0
  1
T
 50
65.258806
  7
ROMANC
 72
     1
 11
950712.712677
 21
7310485.699488
 31
0.0
210
0.0
220
0.0
230
1.0
  0
TEXT
  8
28
  6
CONTINUOUS
 62
    32
  5
41
 10
950719.199
 20
7310499.774
 30
0.0
 40
24.0
  1
C
 50
65.258806
  7
ROMANC
 72
     1
 11
950722.757677
 21
7310507.496488
 31
0.0
210
0.0
220
0.0
230
1.0
  0
TEXT
  8
28
  6
CONTINUOUS
 62
    32
  5
42
 10
950728.058
 20
7310518.996
 30
0.0
 40
24.0
  1
H
 50
65.258806
  7
ROMANC
 72
     1
 11
950732.803182
 21
7310529.293257
 31
0.0
210
0.0
220
0.0
230
1.0
  0
TEXT
  8
28
  6
CONTINUOUS
 62
    32
  5
43
 10
950741.186
 20
7310547.487
 30
0.0
 40
24.0
  1
I
 50
65.258806
  7
ROMANC
 72
     1
 11
950742.846688
 21
7310551.090767
 31
0.0
210
0.0
220
0.0
230
1.0
  0
TEXT
  8
28
  6
CONTINUOUS
 62
    32
  5
44
 10
950749.569
 20
7310565.679
 30
0.0
 40
24.0
  1
S
 50
65.258806
  7
ROMANC
 72
     1
 11
950752.890376
 21
7310572.886535
 31
0.0
210
0.0
220
0.0
230
1.0
  0
TEXT
  8
28
  6
CONTINUOUS
 62
    32
  5
45
 10
950759.14
 20
7310586.446
 30
0.0
 40
24.0
  1
O
 50
65.258806
  7
ROMANC
 72
     1
 11
950762.935978
 21
7310594.683442
 31
0.0
210
0.0
220
0.0
230
1.0
  0
TEXT
  8
28
  6
CONTINUOUS
 62
    32
  5
46
 10
950768.473
 20
7310606.699
 30
0.0
 40
24.0
  1
N
 50
65.258806
  7
ROMANC
 72
     1
 11
950772.980881
 21
7310616.481303
 31
0.0
210
0.0
220
0.0
230
1.0
  0
TEXT
  8
28
  6
CONTINUOUS
 62
    32
  5
47
 10
950778.002
 20
7310627.38
 30
0.0
 40
24.0
  1
 
 50
65.258806
  7
ROMANC
 72
     1
 11
950781.350161
 21
7310634.64566
 31
0.0
210
0.0
220
0.0
230
1.0
  0
TEXT
  8
28
  6
CONTINUOUS
 62
    32
  5
48
 10
950788.046
 20
7310649.177
 30
0.0
 40
24.0
  1
 
 50
65.258806
  7
ROMANC
 72
     1
 11
950791.394161
 21
7310656.44266
 31
0.0
210
0.0
220
0.0
230
1.0
  0
TEXT
  8
28
  6
CONTINUOUS
 62
    32
  5
49
 10
950799.555
 20
7310674.149
 30
0.0
 40
24.0
  1
T
 50
65.258806
  7
ROMANC
 72
     1
 11
950803.113677
 21
7310681.871488
 31
0.0
210
0.0
220
0.0
230
1.0
  0
TEXT
  8
28
  6
CONTINUOUS
 62
    32
  5
4A
 10
950809.362
 20
7310695.431
 30
0.0
 40
24.0
  1
O
 50
65.258806
  7
ROMANC
 72
     1
 11
950813.157978
 21
7310703.668442
 31
0.0
210
0.0
220
0.0
230
1.0
  0
TEXT
  8
28
  6
CONTINUOUS
 62
    32
  5
4B
 10
950819.169
 20
7310716.713
 30
0.0
 40
24.0
  1
P
 50
65.258806
  7
ROMANC
 72
     1
 11
950823.202279
 21
7310725.465396
 31
0.0
210
0.0
220
0.0
230
1.0
  0
TEXT
  8
28
  6
CONTINUOUS
 62
    32
  5
4C
 10
950829.451
 20
7310739.025
 30
0.0
 40
24.0
  1
E
 50
65.258806
  7
ROMANC
 72
     1
 11
950833.246978
 21
7310747.262442
 31
0.0
210
0.0
220
0.0
230
1.0
  0
TEXT
  8
28
  6
CONTINUOUS
 62
    32
  5
4D
 10
950757.832
 20
7310761.116
 30
0.0
 40
24.0
  1
K
 50
65.258806
  7
ROMANC
 72
     1
 11
950762.37964
 21
7310770.984583
 31
0.0
210
0.0
220
0.0
230
1.0
  0
TEXT
  8
28
  6
CONTINUOUS
 62
    32
  5
4E
 10
950768.153
 20
7310783.514
 30
0.0
 40
24.0
  1
A
 50
65.258806
  7
ROMANC
 72
     1
 11
950772.42358
 21
7310792.781349
 31
0.0
210
0.0
220
0.0
230
1.0
  0
TEXT
  8
28
  6
CONTINUOUS
 62
    32
  5
4F
 10
950777.445
 20
7310803.68
 30
0.0
 40
24.0
  1
 
 50
65.258806
  7
ROMANC
 72
     1
 11
950780.793161
 21
7310810.94566
 31
0.0
210
0.0
220
0.0
230
1.0
  0
TEXT
  8
28
  6
CONTINUOUS
 62
    32
  5
50
 10
950787.489
 20
7310825.477
 30
0.0
 40
24.0
  1
 
 50
65.258806
  7
ROMANC
 72
     1
 11
950790.837161
 21
7310832.74266
 31
0.0
210
0.0
220
0.0
230
1.0
  0
TEXT
  8
28
  6
CONTINUOUS
 62
    32
  5
51
 10
950827.667
 20
7310912.665
 30
0.0
 40
24.0
  1
 
 50
65.258806
  7
ROMANC
 72
     1
 11
950831.015161
 21
7310919.93066
 31
0.0
210
0.0
220
0.0
230
1.0
  0
TEXT
  8
28
  6
CONTINUOUS
 62
    32
  5
52
 10
950837.712
 20
7310934.462
 30
0.0
 40
24.0
  1
 
 50
65.258806
  7
ROMANC
 72
     1
 11
950841.060161
 21
7310941.72766
 31
0.0
210
0.0
220
0.0
230
1.0
  0
TEXT
  8
28
  6
CONTINUOUS
 62
    32
  5
53
 10
950849.457
 20
7310959.949
 30
0.0
 40
24.0
  1
S
 50
65.258806
  7
ROMANC
 72
     1
 11
950852.778376
 21
7310967.156535
 31
0.0
210
0.0
220
0.0
230
1.0
  0
TEXT
  8
28
  6
CONTINUOUS
 62
    32
  5
54
 10
950858.553
 20
7310979.688
 30
0.0
 40
24.0
  1
A
 50
65.258806
  7
ROMANC
 72
     1
 11
950862.82358
 21
7310988.955349
 31
0.0
210
0.0
220
0.0
230
1.0
  0
TEXT
  8
28
  6
CONTINUOUS
 62
    32
  5
55
 10
950868.36
 20
7311000.97
 30
0.0
 40
24.0
  1
N
 50
65.258806
  7
ROMANC
 72
     1
 11
950872.867881
 21
7311010.752303
 31
0.0
210
0.0
220
0.0
230
1.0
  0
TEXT
  8
28
  6
CONTINUOUS
 62
    32
  5
56
 10
950879.354
 20
7311024.826
 30
0.0
 40
24.0
  1
T
 50
65.258806
  7
ROMANC
 72
     1
 11
950882.912677
 21
7311032.548488
 31
0.0
210
0.0
220
0.0
230
1.0
  0
TEXT
  8
28
  6
CONTINUOUS
 62
    32
  5
57
 10
950888.687
 20
7311045.078
 30
0.0
 40
24.0
  1
A
 50
65.258806
  7
ROMANC
 72
     1
 11
950892.95758
 21
7311054.345349
 31
0.0
210
0.0
220
0.0
230
1.0
  0
TEXT
  8
28
  6
CONTINUOUS
 62
    32
  5
58
 10
950897.979
 20
7311065.245
 30
0.0
 40
24.0
  1
 
 50
65.258806
  7
ROMANC
 72
     1
 11
950901.327161
 21
7311072.51066
 31
0.0
210
0.0
220
0.0
230
1.0
  0
TEXT
  8
28
  6
CONTINUOUS
 62
    32
  5
59
 10
950909.249
 20
7311089.702
 30
0.0
 40
24.0
  1
F
 50
65.258806
  7
ROMANC
 72
     1
 11
950913.044978
 21
7311097.939442
 31
0.0
210
0.0
220
0.0
230
1.0
  0
TEXT
  8
28
  6
CONTINUOUS
 62
    32
  5
5A
 10
950919.295
 20
7311111.499
 30
0.0
 40
24.0
  1
E
 50
65.258806
  7
ROMANC
 72
     1
 11
950923.090978
 21
7311119.736442
 31
0.0
210
0.0
220
0.0
230
1.0
  0
TEXT
  8
28
  6
CONTINUOUS
 62
    32
  5
5B
 10
950928.112
 20
7311130.636
 30
0.0
 40
24.0
  1
 
 50
65.258806
  7
ROMANC
 72
     1
 11
950931.460161
 21
7311137.90166
 31
0.0
210
0.0
220
0.0
230
1.0
  0
TEXT
  8
28
  6
CONTINUOUS
 62
    32
  5
5C
 10
950938.157
 20
7311152.433
 30
0.0
 40
24.0
  1
 
 50
65.258806
  7
ROMANC
 72
     1
 11
950941.505161
 21
7311159.69866
 31
0.0
210
0.0
220
0.0
230
1.0
  0
TEXT
  8
28
  6
CONTINUOUS
 62
    32
  5
5D
 10
951508.022
 20
7312389.065
 30
0.0
 40
24.0
  1
 
 50
65.258806
  7
ROMANC
 72
     1
 11
951511.370161
 21
7312396.33066
 31
0.0
210
0.0
220
0.0
230
1.0
  0
TEXT
  8
28
  6
CONTINUOUS
 62
    32
  5
5E
 10
951518.066
 20
7312410.862
 30
0.0
 40
24.0
  1
 
 50
65.258806
  7
ROMANC
 72
     1
 11
951521.414161
 21
7312418.12766
 31
0.0
210
0.0
220
0.0
230
1.0
  0
TEXT
  8
28
  6
CONTINUOUS
 62
    32
  5
5F
 10
951588.378
 20
7312563.44
 30
0.0
 40
24.0
  1
 
 50
65.258806
  7
ROMANC
 72
     1
 11
951591.726161
 21
7312570.70566
 31
0.0
210
0.0
220
0.0
230
1.0
  0
TEXT
  8
28
  6
CONTINUOUS
 62
    32
  5
60
 10
951598.422
 20
7312585.237
 30
0.0
 40
24.0
  1
 
 50
65.258806
  7
ROMANC
 72
     1
 11
951601.770161
 21
7312592.50266
 31
0.0
210
0.0
220
0.0
230
1.0
  0
TEXT
  8
28
  6
CONTINUOUS
 62
    32
  5
61
 10
951638.6
 20
7312672.426
 30
0.0
 40
24.0
  1
 
 50
65.258806
  7
ROMANC
 72
     1
 11
951641.948161
 21
7312679.69166
 31
0.0
210
0.0
220
0.0
230
1.0
  0
TEXT
  8
28
  6
CONTINUOUS
 62
    32
  5
62
 10
951648.645
 20
7312694.223
 30
0.0
 40
24.0
  1
 
 50
65.258806
  7
ROMANC
 72
     1
 11
951651.993161
 21
7312701.48866
 31
0.0
210
0.0
220
0.0
230
1.0
  0
TEXT
  8
28
  6
CONTINUOUS
 62
    32
  5
63
 10
951739.045
 20
7312890.396
 30
0.0
 40
24.0
  1
 
 50
65.258806
  7
ROMANC
 72
     1
 11
951742.393161
 21
7312897.66166
 31
0.0
210
0.0
220
0.0
230
1.0
  0
TEXT
  8
28
  6
CONTINUOUS
 62
    32
  5
64
 10
951749.089
 20
7312912.193
 30
0.0
 40
24.0
  1
 
 50
65.258806
  7
ROMANC
 72
     1
 11
951752.437161
 21
7312919.45866
 31
0.0
210
0.0
220
0.0
230
1.0
  0
TEXT
  8
28
  6
CONTINUOUS
 62
    32
  5
65
 10
952248.876
 20
7313996.75
 30
0.0
 40
24.0
  1
A
 50
65.258806
  7
ROMANC
 72
     1
 11
952253.14658
 21
7314006.017349
 31
0.0
210
0.0
220
0.0
230
1.0
  0
TEXT
  8
28
  6
CONTINUOUS
 62
    32
  5
66
 10
952259.632
 20
7314020.092
 30
0.0
 40
24.0
  1
T
 50
65.258806
  7
ROMANC
 72
     1
 11
952263.190677
 21
7314027.814488
 31
0.0
210
0.0
220
0.0
230
1.0
  0
TEXT
  8
28
  6
CONTINUOUS
 62
    32
  5
67
 10
952269.677
 20
7314041.888
 30
0.0
 40
24.0
  1
C
 50
65.258806
  7
ROMANC
 72
     1
 11
952273.235677
 21
7314049.610488
 31
0.0
210
0.0
220
0.0
230
1.0
  0
TEXT
  8
28
  6
CONTINUOUS
 62
    32
  5
68
 10
952278.535
 20
7314061.111
 30
0.0
 40
24.0
  1
H
 50
65.258806
  7
ROMANC
 72
     1
 11
952283.280182
 21
7314071.408257
 31
0.0
210
0.0
220
0.0
230
1.0
  0
TEXT
  8
28
  6
CONTINUOUS
 62
    32
  5
69
 10
952291.664
 20
7314089.601
 30
0.0
 40
24.0
  1
I
 50
65.258806
  7
ROMANC
 72
     1
 11
952293.324688
 21
7314093.204767
 31
0.0
210
0.0
220
0.0
230
1.0
  0
TEXT
  8
28
  6
CONTINUOUS
 62
    32
  5
6A
 10
952300.047
 20
7314107.794
 30
0.0
 40
24.0
  1
S
 50
65.258806
  7
ROMANC
 72
     1
 11
952303.368376
 21
7314115.001535
 31
0.0
210
0.0
220
0.0
230
1.0
  0
TEXT
  8
28
  6
CONTINUOUS
 62
    32
  5
6B
 10
952309.618
 20
7314128.561
 30
0.0
 40
24.0
  1
O
 50
65.258806
  7
ROMANC
 72
     1
 11
952313.413978
 21
7314136.798442
 31
0.0
210
0.0
220
0.0
230
1.0
  0
TEXT
  8
28
  6
CONTINUOUS
 62
    32
  5
6C
 10
952318.95
 20
7314148.815
 30
0.0
 40
24.0
  1
N
 50
65.258806
  7
ROMANC
 72
     1
 11
952323.457881
 21
7314158.597303
 31
0.0
210
0.0
220
0.0
230
1.0
  0
TEXT
  8
28
  6
CONTINUOUS
 62
    32
  5
6D
 10
952328.48
 20
7314169.496
 30
0.0
 40
24.0
  1
 
 50
65.258806
  7
ROMANC
 72
     1
 11
952331.828161
 21
7314176.76166
 31
0.0
210
0.0
220
0.0
230
1.0
  0
TEXT
  8
28
  6
CONTINUOUS
 62
    32
  5
6E
 10
952338.524
 20
7314191.293
 30
0.0
 40
24.0
  1
 
 50
65.258806
  7
ROMANC
 72
     1
 11
952341.872161
 21
7314198.55866
 31
0.0
210
0.0
220
0.0
230
1.0
  0
TEXT
  8
28
  6
CONTINUOUS
 62
    32
  5
6F
 10
952350.033
 20
7314216.265
 30
0.0
 40
24.0
  1
T
 50
65.258806
  7
ROMANC
 72
     1
 11
952353.591677
 21
7314223.987488
 31
0.0
210
0.0
220
0.0
230
1.0
  0
TEXT
  8
28
  6
CONTINUOUS
 62
    32
  5
70
 10
952359.84
 20
7314237.547
 30
0.0
 40
24.0
  1
O
 50
65.258806
  7
ROMANC
 72
     1
 11
952363.635978
 21
7314245.784442
 31
0.0
210
0.0
220
0.0
230
1.0
  0
TEXT
  8
28
  6
CONTINUOUS
 62
    32
  5
71
 10
952369.647
 20
7314258.828
 30
0.0
 40
24.0
  1
P
 50
65.258806
  7
ROMANC
 72
     1
 11
952373.680279
 21
7314267.580396
 31
0.0
210
0.0
220
0.0
230
1.0
  0
TEXT
  8
28
  6
CONTINUOUS
 62
    32
  5
72
 10
952379.928
 20
7314281.141
 30
0.0
 40
24.0
  1
E
 50
65.258806
  7
ROMANC
 72
     1
 11
952383.723978
 21
7314289.378442
 31
0.0
210
0.0
220
0.0
230
1.0
  0
TEXT
  8
28
  6
CONTINUOUS
 62
    32
  5
73
 10
952389.222
 20
7314301.307
 30
0.0
 40
24.0
  1
K
 50
65.258806
  7
ROMANC
 72
     1
 11
952393.76964
 21
7314311.175583
 31
0.0
210
0.0
220
0.0
230
1.0
  0
TEXT
  8
28
  6
CONTINUOUS
 62
    32
  5
74
 10
952399.543
 20
7314323.705
 30
0.0
 40
24.0
  1
A
 50
65.258806
  7
ROMANC
 72
     1
 11
952403.81358
 21
7314332.972349
 31
0.0
210
0.0
220
0.0
230
1.0
  0
TEXT
  8
28
  6
CONTINUOUS
 62
    32
  5
75
 10
952408.835
 20
7314343.871
 30
0.0
 40
24.0
  1
 
 50
65.258806
  7
ROMANC
 72
     1
 11
952412.183161
 21
7314351.13666
 31
0.0
210
0.0
220
0.0
230
1.0
  0
TEXT
  8
28
  6
CONTINUOUS
 62
    32
  5
76
 10
952418.88
 20
7314365.668
 30
0.0
 40
24.0
  1
 
 50
65.258806
  7
ROMANC
 72
     1
 11
952422.228161
 21
7314372.93366
 31
0.0
210
0.0
220
0.0
230
1.0
  0
TEXT
  8
28
  6
CONTINUOUS
 62
    32
  5
77
 10
952459.058
 20
7314452.856
 30
0.0
 40
24.0
  1
 
 50
65.258806
  7
ROMANC
 72
     1
 11
952462.406161
 21
7314460.12166
 31
0.0
210
0.0
220
0.0
230
1.0
  0
TEXT
  8
28
  6
CONTINUOUS
 62
    32
  5
78
 10
952469.103
 20
7314474.653
 30
0.0
 40
24.0
  1
 
 50
65.258806
  7
ROMANC
 72
     1
 11
952472.451161
 21
7314481.91866
 31
0.0
210
0.0
220
0.0
230
1.0
  0
TEXT
  8
28
  6
CONTINUOUS
 62
    32
  5
79
 10
952480.848
 20
7314500.139
 30
0.0
 40
24.0
  1
S
 50
65.258806
  7
ROMANC
 72
     1
 11
952484.169376
 21
7314507.346535
 31
0.0
210
0.0
220
0.0
230
1.0
  0
TEXT
  8
28
  6
CONTINUOUS
 62
    32
  5
7A
 10
952489.943
 20
7314519.877
 30
0.0
 40
24.0
  1
A
 50
65.258806
  7
ROMANC
 72
     1
 11
952494.21358
 21
7314529.144349
 31
0.0
210
0.0
220
0.0
230
1.0
  0
TEXT
  8
28
  6
CONTINUOUS
 62
    32
  5
7B
 10
952499.75
 20
7314541.16
 30
0.0
 40
24.0
  1
N
 50
65.258806
  7
ROMANC
 72
     1
 11
952504.257881
 21
7314550.942303
 31
0.0
210
0.0
220
0.0
230
1.0
  0
TEXT
  8
28
  6
CONTINUOUS
 62
    32
  5
7C
 10
952510.744
 20
7314565.016
 30
0.0
 40
24.0
  1
T
 50
65.258806
  7
ROMANC
 72
     1
 11
952514.302677
 21
7314572.738488
 31
0.0
210
0.0
220
0.0
230
1.0
  0
TEXT
  8
28
  6
CONTINUOUS
 62
    32
  5
7D
 10
952520.077
 20
7314585.268
 30
0.0
 40
24.0
  1
A
 50
65.258806
  7
ROMANC
 72
     1
 11
952524.34758
 21
7314594.535349
 31
0.0
210
0.0
220
0.0
230
1.0
  0
TEXT
  8
28
  6
CONTINUOUS
 62
    32
  5
7E
 10
952529.369
 20
7314605.434
 30
0.0
 40
24.0
  1
 
 50
65.258806
  7
ROMANC
 72
     1
 11
952532.717161
 21
7314612.69966
 31
0.0
210
0.0
220
0.0
230
1.0
  0
TEXT
  8
28
  6
CONTINUOUS
 62
    32
  5
7F
 10
952540.64
 20
7314629.892
 30
0.0
 40
24.0
  1
F
 50
65.258806
  7
ROMANC
 72
     1
 11
952544.435978
 21
7314638.129442
 31
0.0
210
0.0
220
0.0
230
1.0
  0
TEXT
  8
28
  6
CONTINUOUS
 62
    32
  5
80
 10
952550.685
 20
7314651.689
 30
0.0
 40
24.0
  1
E
 50
65.258806
  7
ROMANC
 72
     1
 11
952554.480978
 21
7314659.926442
 31
0.0
210
0.0
220
0.0
230
1.0
  0
TEXT
  8
28
  6
CONTINUOUS
 62
    32
  5
81
 10
952559.503
 20
7314670.825
 30
0.0
 40
24.0
  1
 
 50
65.258806
  7
ROMANC
 72
     1
 11
952562.851161
 21
7314678.09066
 31
0.0
210
0.0
220
0.0
230
1.0
  0
TEXT
  8
28
  6
CONTINUOUS
 62
    32
  5
82
 10
952569.547
 20
7314692.622
 30
0.0
 40
24.0
  1
 
 50
65.258806
  7
ROMANC
 72
     1
 11
952572.895161
 21
7314699.88766
 31
0.0
210
0.0
220
0.0
230
1.0
  0
TEXT
  8
19
  6
CONTINUOUS
 62
     1
  5
84
 10
948599.196
 20
7315442.583
 30
0.0
 40
24.0
  1
FARM ROAD 1294 (DREW ST.)
 50
358.3203
  7
ROMANC
210
0.0
220
0.0
230
1.0
  0
TEXT
  8
19
  6
CONTINUOUS
 62
     1
  5
85
 10
952023.756
 20
7315339.179
 30
0.0
 40
24.0
  1
FARM ROAD 1294 (DREW ST.)
 50
358.3203
  7
ROMANC
210
0.0
220
0.0
230
1.0
  0
TEXT
  8
11
  6
CONTINUOUS
 62
     7
  5
87
 10
948583.355
 20
7315443.981
 30
0.0
 40
8.0
  1
7.5'
 50
88.3203
  7
ROMANS
 72
     4
 11
948579.747537
 21
7315457.425519
 31
0.0
210
0.0
220
0.0
230
1.0
  0
TEXT
  8
19
  6
CONTINUOUS
 62
     1
  5
88
 10
948569.178
 20
7314997.95
 30
0.0
 40
24.0
  1
NORTH AVENUE Q
 50
88.3203
  7
ROMANC
 72
     4
 11
948562.783027
 21
7315189.262656
 31
0.0
210
0.0
220
0.0
230
1.0
  0
TEXT
  8
19
  6
CONTINUOUS
 62
     1
  5
89
 10
948503.489
 20
7312788.275
 30
0.0
 40
24.0
  1
NORTH AVENUE Q
 50
88.3203
  7
ROMANC
 72
     4
 11
948497.094027
 21
7312979.587656
 31
0.0
210
0.0
220
0.0
230
1.0
  0
TEXT
  8
19
  6
CONTINUOUS
 62
     1
  5
8A
 10
948431.333
 20
7310279.866
 30
0.0
 40
24.0
  1
NORTH AVENUE Q
 50
88.3203
  7
ROMANC
 72
     4
 11
948424.938027
 21
7310471.178656
 31
0.0
210
0.0
220
0.0
230
1.0
  0
TEXT
  8
19
  6
CONTINUOUS
 62
     1
  5
8B
 10
948460.705
 20
7310212.903
 30
0.0
 40
24.0
  1
KEUKA STREET
 50
358.3203
  7
ROMANC
 72
     4
 11
948619.908459
 21
7310220.239565
 31
0.0
210
0.0
220
0.0
230
1.0
  0
TEXT
  8
19
  6
CONTINUOUS
 62
     1
  5
8C
 10
949934.362
 20
7310170.99
 30
0.0
 40
24.0
  1
KEUKA STREET
 50
358.3203
  7
ROMANC
 72
     4
 11
950093.565459
 21
7310178.326565
 31
0.0
210
0.0
220
0.0
230
1.0
  0
TEXT
  8
19
  6
CONTINUOUS
 62
     1
  5
8D
 10
953035.529
 20
7310081.374
 30
0.0
 40
24.0
  1
KEUKA STREET
 50
358.3203
  7
ROMANC
 72
     4
 11
953194.732459
 21
7310088.710565
 31
0.0
210
0.0
220
0.0
230
1.0
  0
TEXT
  8
19
  6
CONTINUOUS
 62
     1
  5
8E
 10
953961.767
 20
7313714.172
 30
0.0
 40
24.0
  1
INTERSTATE 27
 50
88.3203
  7
ROMANC
 72
     4
 11
953954.430435
 21
7313873.375459
 31
0.0
210
0.0
220
0.0
230
1.0
  0
TEXT
  8
19
  6
CONTINUOUS
 62
     1
  5
8F
 10
953880.914
 20
7311192.37
 30
0.0
 40
24.0
  1
INTERSTATE 27
 50
88.3203
  7
ROMANC
 72
     4
 11
953873.577435
 21
7311351.573459
 31
0.0
210
0.0
220
0.0
230
1.0
  0
TEXT
  8
11
  6
CONTINUOUS
 62
     7
  5
90
 10
950635.566
 20
7310196.541
 30
0.0
 40
8.0
  1
100'
 50
328.3203
  7
ROMANS
 72
     4
 11
950649.013027
 21
7310192.942895
 31
0.0
210
0.0
220
0.0
230
1.0
  0
TEXT
  8
11
  6
CONTINUOUS
 62
     7
  5
91
 10
950541.68
 20
7310243.778
 30
0.0
 40
8.0
  1
100'
 50
328.3203
  7
ROMANS
 72
     4
 11
950555.127027
 21
7310240.179895
 31
0.0
210
0.0
220
0.0
230
1.0
  0
TEXT
  8
28
  6
CONTINUOUS
 62
    32
  5
92
 10
950807.84
 20
7310869.639
 30
0.0
 40
24.0
  1
&
 50
65.258806
  7
ROMANC
 72
     1
 11
950811.240895
 21
7310877.019094
 31
0.0
210
0.0
220
0.0
230
1.0
  0
TEXT
  8
28
  6
CONTINUOUS
 62
    32
  5
93
 10
952437.895
 20
7314406.93
 30
0.0
 40
24.0
  1
&
 50
65.258806
  7
ROMANC
 72
     1
 11
952441.295895
 21
7314414.310094
 31
0.0
210
0.0
220
0.0
230
1.0
  0
TEXT
  8
11
  6
CONTINUOUS
 62
     7
  5
94
 10
952846.744
 20
7315302.563
 30
0.0
 40
8.0
  1
50'
 50
333.3203
  7
ROMANS
 72
     4
 11
952856.87933
 21
7315301.946582
 31
0.0
210
0.0
220
0.0
230
1.0
  0
TEXT
  8
11
  6
CONTINUOUS
 62
     7
  5
95
 10
952895.999
 20
7315279.787
 30
0.0
 40
8.0
  1
50'
 50
333.3203
  7
ROMANS
 72
     4
 11
952906.13433
 21
7315279.170582
 31
0.0
210
0.0
220
0.0
230
1.0
  0
TEXT
  8
11
  6
CONTINUOUS
 62
     7
  5
96
 10
950944.746
 20
7311222.857
 30
0.0
 40
8.0
  1
50'
 50
333.3203
  7
ROMANS
 72
     4
 11
950954.88133
 21
7311222.240582
 31
0.0
210
0.0
220
0.0
230
1.0
  0
TEXT
  8
11
  6
CONTINUOUS
 62
     7
  5
97
 10
950994.55
 20
7311201.105
 30
0.0
 40
8.0
  1
50'
 50
333.3203
  7
ROMANS
 72
     4
 11
951004.68533
 21
7311200.488582
 31
0.0
210
0.0
220
0.0
230
1.0
  0
INSERT
  8
11
  6
CONTINUOUS
 62
     7
  5
9F
  2
*D0
 10
950459.566
 20
7310146.624
 30
0.0
 70
     0
 71
     0
  0
INSERT
  8
11
  6
CONTINUOUS
 62
     7
  5
A5
  2
*D1
 10
950664.475
 20
7310649.326
 30
0.0
 70
     0
 71
     0
  0
TEXT
  8
11
  6
CONTINUOUS
 62
     7
  5
A6
 10
952769.13
 20
7315323.448
 30
0.0
 40
8.0
  1
7.5'
 50
88.3203
  7
ROMANS
 72
     4
 11
952765.522537
 21
7315336.892519
 31
0.0
210
0.0
220
0.0
230
1.0
  0
TEXT
  8
11
  6
CONTINUOUS
 62
     7
  5
A7
 10
950489.163
 20
7315406.559
 30
0.0
 40
8.0
  1
4288.38'
 50
358.3203
  7
ROMANS
 72
     4
 11
950518.600644
 21
7315409.69747
 31
0.0
210
0.0
220
0.0
230
1.0
  0
TEXT
  8
11
  6
CONTINUOUS
 62
     7
  5
A8
 10
949279.231
 20
7310186.496
 30
0.0
 40
8.0
  1
1986.13'
 50
358.3203
  7
ROMANS
 72
     4
 11
949308.668644
 21
7310189.63447
 31
0.0
210
0.0
220
0.0
230
1.0
  0
LINE
  8
1
  6
HIDDEN
 62
   253
  5
AA
 10
948614.273
 20
7310222.148
 30
0.0
 11
948780.927
 21
7315489.636
 31
0.0
  0
POLYLINE
  8
1
  6
HIDDEN
 62
   253
  5
AB
 66
     1
 10
0.0
 20
0.0
 30
0.0
  0
VERTEX
  8
1
  6
HIDDEN
 62
   253
  5
AC
 10
948614.273
 20
7310222.148
 30
0.0
  0
VERTEX
  8
1
  6
HIDDEN
 62
   253
  5
AD
 10
953873.212
 20
7310078.943
 30
0.0
  0
VERTEX
  8
1
  6
HIDDEN
 62
   253
  5
AE
 10
954036.942
 20
7315321.096
 30
0.0
  0
VERTEX
  8
1
  6
HIDDEN
 62
   253
  5
AF
 10
948780.927
 20
7315489.636
 30
0.0
  0
SEQEND
  8
1
  6
HIDDEN
 62
   253
  5
B0
  0
POLYLINE
  8
6
  6
CONTINUOUS
 62
     7
  5
B1
 66
     1
 10
0.0
 20
0.0
 30
0.0
  0
VERTEX
  8
6
  6
CONTINUOUS
 62
     7
  5
B2
 10
952957.57
 20
7315340.516
 30
0.0
  0
VERTEX
  8
6
  6
CONTINUOUS
 62
     7
  5
B3
 10
953207.472
 20
7315325.473
 30
0.0
  0
VERTEX
  8
6
  6
CONTINUOUS
 62
     7
  5
B4
 10
953371.179
 20
7315294.892
 30
0.0
  0
SEQEND
  8
6
  6
CONTINUOUS
 62
     7
  5
B5
  0
ENDSEC
  0
EOF
