  0
SECTION
  2
HEADER
  9
$ACADVER
  1
AC1009
  9
$INSBASE
 10
0.0
 20
0.0
 30
0.0
  9
$EXTMIN
 10
900096.848
 20
7279905.3
 30
0.0
  9
$EXTMAX
 10
905565.301
 20
7285375.939
 30
0.0
  9
$LIMMIN
 10
0.0
 20
0.0
  9
$LIMMAX
 10
12.0
 20
9.0
  9
$ORTHOMODE
 70
     0
  9
$REGENMODE
 70
     1
  9
$FILLMODE
 70
     1
  9
$QTEXTMODE
 70
     0
  9
$MIRRTEXT
 70
     1
  9
$DRAGMODE
 70
     2
  9
$LTSCALE
 40
1.0
  9
$OSMODE
 70
     0
  9
$ATTMODE
 70
     1
  9
$TEXTSIZE
 40
0.2
  9
$TRACEWID
 40
0.05
  9
$TEXTSTYLE
  7
STANDARD
  9
$CLAYER
  8
0
  9
$CELTYPE
  6
CONTINUOUS
  9
$CECOLOR
 62
   256
  9
$DIMSCALE
 40
1.0
  9
$DIMASZ
 40
0.18
  9
$DIMEXO
 40
0.0625
  9
$DIMDLI
 40
0.38
  9
$DIMRND
 40
0.0
  9
$DIMDLE
 40
0.0
  9
$DIMEXE
 40
0.18
  9
$DIMTP
 40
0.0
  9
$DIMTM
 40
0.0
  9
$DIMTXT
 40
0.18
  9
$DIMCEN
 40
0.09
  9
$DIMTSZ
 40
0.0
  9
$DIMTOL
 70
     0
  9
$DIMLIM
 70
     0
  9
$DIMTIH
 70
     1
  9
$DIMTOH
 70
     1
  9
$DIMSE1
 70
     0
  9
$DIMSE2
 70
     0
  9
$DIMTAD
 70
     0
  9
$DIMZIN
 70
     0
  9
$DIMBLK
  1

  9
$DIMASO
 70
     1
  9
$DIMSHO
 70
     1
  9
$DIMPOST
  1

  9
$DIMAPOST
  1

  9
$DIMALT
 70
     0
  9
$DIMALTD
 70
     2
  9
$DIMALTF
 40
25.4
  9
$DIMLFAC
 40
1.0
  9
$DIMTOFL
 70
     0
  9
$DIMTVP
 40
0.0
  9
$DIMTIX
 70
     0
  9
$DIMSOXD
 70
     0
  9
$DIMSAH
 70
     0
  9
$DIMBLK1
  1

  9
$DIMBLK2
  1

  9
$DIMSTYLE
  2
STANDARD
  9
$DIMCLRD
 70
     0
  9
$DIMCLRE
 70
     0
  9
$DIMCLRT
 70
     0
  9
$DIMTFAC
 40
1.0
  9
$DIMGAP
 40
0.09
  9
$LUNITS
 70
     2
  9
$LUPREC
 70
     4
  9
$AXISMODE
 70
     0
  9
$AXISUNIT
 10
0.0
 20
0.0
  9
$SKETCHINC
 40
0.1
  9
$FILLETRAD
 40
0.0
  9
$AUNITS
 70
     0
  9
$AUPREC
 70
     0
  9
$MENU
  1
acad
  9
$ELEVATION
 40
0.0
  9
$PELEVATION
 40
0.0
  9
$THICKNESS
 40
0.0
  9
$LIMCHECK
 70
     0
  9
$BLIPMODE
 70
     1
  9
$CHAMFERA
 40
0.0
  9
$CHAMFERB
 40
0.0
  9
$SKPOLY
 70
     0
  9
$TDCREATE
 40
2453013.904872685
  9
$TDUPDATE
 40
2453013.904872685
  9
$TDINDWG
 40
0.0000000000
  9
$TDUSRTIMER
 40
0.0000000000
  9
$USRTIMER
 70
     1
  9
$ANGBASE
 50
0.0
  9
$ANGDIR
 70
     0
  9
$PDMODE
 70
     0
  9
$PDSIZE
 40
0.0
  9
$PLINEWID
 40
0.0
  9
$COORDS
 70
     0
  9
$SPLFRAME
 70
     0
  9
$SPLINETYPE
 70
     6
  9
$SPLINESEGS
 70
    10
  9
$ATTDIA
 70
     0
  9
$ATTREQ
 70
     1
  9
$HANDLING
 70
     1
  9
$HANDSEED
  5
F5
  9
$SURFTAB1
 70
     6
  9
$SURFTAB2
 70
     6
  9
$SURFTYPE
 70
     6
  9
$SURFU
 70
     6
  9
$SURFV
 70
     6
  9
$UCSNAME
  2

  9
$UCSORG
 10
0.0
 20
0.0
 30
0.0
  9
$UCSXDIR
 10
1.0
 20
0.0
 30
0.0
  9
$UCSYDIR
 10
0.0
 20
1.0
 30
0.0
  9
$PUCSNAME
  2

  9
$PUCSORG
 10
0.0
 20
0.0
 30
0.0
  9
$PUCSXDIR
 10
1.0
 20
0.0
 30
0.0
  9
$PUCSYDIR
 10
0.0
 20
1.0
 30
0.0
  9
$USERI1
 70
     0
  9
$USERI2
 70
     0
  9
$USERI3
 70
     0
  9
$USERI4
 70
     0
  9
$USERI5
 70
     0
  9
$USERR1
 40
0.0
  9
$USERR2
 40
0.0
  9
$USERR3
 40
0.0
  9
$USERR4
 40
0.0
  9
$USERR5
 40
0.0
  9
$WORLDVIEW
 70
     1
  9
$SHADEDGE
 70
     3
  9
$SHADEDIF
 70
    70
  9
$TILEMODE
 70
     1
  9
$MAXACTVP
 70
    16
  9
$PINSBASE
 10
0.0
 20
0.0
 30
0.0
  9
$PLIMCHECK
 70
     0
  9
$PEXTMIN
 10
-1.000000E+20
 20
-1.000000E+20
 30
-1.000000E+20
  9
$PEXTMAX
 10
-1.000000E+20
 20
-1.000000E+20
 30
-1.000000E+20
  9
$PLIMMIN
 10
0.0
 20
0.0
  9
$PLIMMAX
 10
12.0
 20
9.0
  9
$UNITMODE
 70
     0
  9
$VISRETAIN
 70
     0
  9
$PLINEGEN
 70
     1
  9
$PSLTSCALE
 70
     0
  9
$TREEDEPTH
 70
  3020
  9
$DWGCODEPAGE
  3
ansi_1252
  0
ENDSEC
  0
SECTION
  2
TABLES
  0
TABLE
  2
VPORT
 70
     1
  0
VPORT
  2
*ACTIVE
 70
     0
 10
0.0
 20
0.0
 11
1.0
 21
1.0
 12
0.0
 22
0.0
 13
0.0
 23
0.0
 14
0.0
 24
0.0
 15
0.0
 25
0.0
 16
0.0
 26
0.0
 36
1.0
 17
903734.567
 27
7282539.303001
 37
0.0
 40
6549.418001
 41
1.38552
 42
50.0
 43
0.004
 44
0.0
 50
0.0
 51
0.0
 71
     0
 72
   100
 73
     1
 74
     0
 75
     0
 76
     0
 77
     0
 78
     0
  0
ENDTAB
  0
TABLE
  2
LTYPE
 70
     7
  0
LTYPE
  2
CONTINUOUS
 70
     0
  3
Solid line
 72
    65
 73
     0
 40
0.0
  0
LTYPE
  2
DOT
 70
    64
  3
. . . . . . . . . . . . . . . . . . . . . . . . . . . . . . . . .
 72
    65
 73
     2
 40
0.25
 49
0.0
 49
-0.25
  0
LTYPE
  2
HIDDEN
 70
    64
  3
__ __ __ __ __ __ __ __ __ __ __ __ __ __ __ __ __ __ __ __ __ 
 72
    65
 73
     2
 40
0.375
 49
0.25
 49
-0.125
  0
LTYPE
  2
DASHED
 70
    64
  3
__ __ __ __ __ __ __ __ __ __ __ __ __ __ __ __ __ __ __ __ __
 72
    65
 73
     2
 40
0.75
 49
0.5
 49
-0.25
  0
LTYPE
  2
DASHDOT
 70
    64
  3
__ . __ . __ . __ . __ . __ . __ . __ . __ . __ . __ . __ . _
 72
    65
 73
     4
 40
1.0
 49
0.5
 49
-0.25
 49
0.0
 49
-0.25
  0
LTYPE
  2
DIVIDE
 70
    64
  3
____ . . ____ . . ____ . . ____ . . ____ . . ____ . . ____ . .
 72
    65
 73
     6
 40
1.25
 49
0.5
 49
-0.25
 49
0.0
 49
-0.25
 49
0.0
 49
-0.25
  0
LTYPE
  2
CENTER
 70
    64
  3
____ _ ____ _ ____ _ ____ _ ____ _ ____ _ ____ _ ____ _ ____ _
 72
    65
 73
     4
 40
2.0
 49
1.25
 49
-0.25
 49
0.25
 49
-0.25
  0
ENDTAB
  0
TABLE
  2
LAYER
 70
    12
  0
LAYER
  2
0
 70
     0
 62
     7
  6
CONTINUOUS
  0
LAYER
  2
CONSTRUCTION_CLASS
 70
     1
 62
     7
  6
CONTINUOUS
  0
LAYER
  2
PATTERN_CLASS
 70
     0
 62
     7
  6
CONTINUOUS
  0
LAYER
  2
6
 70
    64
 62
     7
  6
CONTINUOUS
  0
LAYER
  2
7
 70
    64
 62
     7
  6
CONTINUOUS
  0
LAYER
  2
10
 70
    64
 62
     7
  6
CONTINUOUS
  0
LAYER
  2
11
 70
    64
 62
     7
  6
CONTINUOUS
  0
LAYER
  2
DEFPOINTS
 70
    64
 62
     7
  6
CONTINUOUS
  0
LAYER
  2
19
 70
    64
 62
     7
  6
CONTINUOUS
  0
LAYER
  2
15
 70
    64
 62
     7
  6
CONTINUOUS
  0
LAYER
  2
1
 70
    64
 62
     7
  6
CONTINUOUS
  0
LAYER
  2
58
 70
    64
 62
     7
  6
CONTINUOUS
  0
ENDTAB
  0
TABLE
  2
STYLE
 70
     3
  0
STYLE
  2
STANDARD
 70
     0
 40
0.0
 41
1.0
 50
0.0
 71
     0
 42
0.0
  3
txt
  4

  0
STYLE
  2
ROMANS
 70
     0
 40
0.2
 41
1.0
 50
0.0
 71
     0
 42
0.2
  3
ROMANS
  4

  0
STYLE
  2
ROMANC
 70
     0
 40
0.2
 41
1.0
 50
0.0
 71
     0
 42
0.2
  3
ROMANC
  4

  0
ENDTAB
  0
TABLE
  2
VIEW
 70
     0
  0
ENDTAB
  0
TABLE
  2
UCS
 70
     0
  0
ENDTAB
  0
TABLE
  2
APPID
 70
     1
  0
APPID
  2
ACAD
 70
     0
  0
ENDTAB
  0
TABLE
  2
DIMSTYLE
 70
     2
  0
DIMSTYLE
  2
STANDARD
 70
     0
  3

  4

  5

  6

  7

 40
1.0
 41
0.18
 42
0.0625
 43
0.38
 44
0.18
 45
0.0
 46
0.0
 47
0.0
 48
0.0
140
0.18
141
0.09
142
0.0
143
25.4
144
1.0
145
0.0
146
1.0
147
0.09
 71
     0
 72
     0
 73
     1
 74
     1
 75
     0
 76
     0
 77
     0
 78
     0
170
     0
171
     2
172
     0
173
     0
174
     0
175
     0
176
     0
177
     0
178
     0
  0
DIMSTYLE
  2
MSADIM
 70
     0
  3

  4

  5

  6

  7

 40
1.0
 41
8.0
 42
4.0
 43
0.0
 44
4.0
 45
0.0
 46
0.0
 47
0.0
 48
0.0
140
8.0
141
4.0
142
0.0
143
25.4
144
1.0
145
4.0
146
1.0
147
4.0
 71
     0
 72
     0
 73
     1
 74
     1
 75
     1
 76
     1
 77
     0
 78
     2
170
     0
171
     2
172
     0
173
     0
174
     0
175
     0
176
     0
177
     0
178
     0
  0
ENDTAB
  0
ENDSEC
  0
SECTION
  2
BLOCKS
  0
BLOCK
  8
11
  6
CONTINUOUS
 62
     7
  5
A4
  2
*D0
 70
     1
 10
0.0
 20
0.0
 30
0.0
  3
*N0
  0
TEXT
  8
11
  6
CONTINUOUS
 62
     7
  5
A5
 10
900316.53
 20
7284859.194
 30
0.0
 40
8.0
  1
S03%%d11'23"W
 50
86.810158
  7
ROMANS
 72
     1
 11
900310.92754
 21
7284902.436744
 31
0.0
210
0.0
220
0.0
230
1.0
 73
     3
  0
TEXT
  8
11
  6
CONTINUOUS
 62
     7
  5
A6
 10
900301.697
 20
7284880.584
 30
0.0
 40
8.0
  1
106.03
 50
86.810158
  7
ROMANS
 72
     1
 11
900302.939708
 21
7284902.882398
 31
0.0
210
0.0
220
0.0
230
1.0
  0
ENDBLK
  8
11
  6
CONTINUOUS
 62
     7
  5
A7
  0
BLOCK
  8
11
  6
CONTINUOUS
 62
     7
  5
C4
  2
*D1
 70
     1
 10
0.0
 20
0.0
 30
0.0
  3
*N1
  0
TEXT
  8
11
  6
CONTINUOUS
 62
     7
  5
C5
 10
900230.027
 20
7280135.612
 30
0.0
 40
8.0
  1
N81%%d39'38"W
 50
351.66055
  7
ROMANS
 72
     1
 11
900273.598063
 21
7280137.310522
 31
0.0
210
0.0
220
0.0
230
1.0
 73
     3
  0
TEXT
  8
11
  6
CONTINUOUS
 62
     7
  5
C6
 10
900252.662
 20
7280148.465
 30
0.0
 40
8.0
  1
261.73
 50
351.66055
  7
ROMANS
 72
     1
 11
900274.758854
 21
7280145.225878
 31
0.0
210
0.0
220
0.0
230
1.0
  0
ENDBLK
  8
11
  6
CONTINUOUS
 62
     7
  5
C7
  0
ENDSEC
  0
SECTION
  2
ENTITIES
  0
POLYLINE
  8
6
  6
CONTINUOUS
 62
     7
  5
29
 66
     1
 10
0.0
 20
0.0
 30
0.0
  0
VERTEX
  8
6
  6
CONTINUOUS
 62
     7
  5
2A
 10
900303.276
 20
7285295.583
 30
0.0
  0
VERTEX
  8
6
  6
CONTINUOUS
 62
     7
  5
2B
 10
900293.617
 20
7284980.834
 30
0.0
  0
VERTEX
  8
6
  6
CONTINUOUS
 62
     7
  5
2C
 10
900311.26
 20
7284980.293
 30
0.0
  0
SEQEND
  8
6
  6
CONTINUOUS
 62
     7
  5
2D
  0
LINE
  8
6
  6
CONTINUOUS
 62
     7
  5
2E
 10
900305.36
 20
7284874.427
 30
0.0
 11
900295.99
 21
7284569.068
 31
0.0
  0
LINE
  8
6
  6
CONTINUOUS
 62
     7
  5
2F
 10
900311.26
 20
7284980.293
 30
0.0
 11
900305.36
 21
7284874.427
 31
0.0
  0
LINE
  8
7
  6
CONTINUOUS
 62
     7
  5
31
 10
900404.666
 20
7284977.426
 30
0.0
 11
900391.584
 21
7284551.127
 31
0.0
  0
LINE
  8
6
  6
CONTINUOUS
 62
     7
  5
32
 10
900391.584
 20
7284551.127
 30
0.0
 11
900310.522
 21
7284553.615
 31
0.0
  0
LINE
  8
7
  6
CONTINUOUS
 62
     7
  5
33
 10
900280.608
 20
7284067.803
 30
0.0
 11
901815.985
 21
7284020.689
 31
0.0
  0
LINE
  8
7
  6
CONTINUOUS
 62
     7
  5
34
 10
901875.957
 20
7284018.85
 30
0.0
 11
902825.51
 21
7283989.712
 31
0.0
  0
LINE
  8
7
  6
CONTINUOUS
 62
     7
  5
35
 10
900311.26
 20
7284980.293
 30
0.0
 11
902853.513
 21
7284902.282
 31
0.0
  0
LINE
  8
7
  6
CONTINUOUS
 62
     7
  5
36
 10
900894.435
 20
7284962.398
 30
0.0
 11
900881.354
 21
7284536.099
 31
0.0
  0
LINE
  8
7
  6
CONTINUOUS
 62
     7
  5
37
 10
901384.204
 20
7284947.368
 30
0.0
 11
901371.124
 21
7284521.069
 31
0.0
  0
LINE
  8
7
  6
CONTINUOUS
 62
     7
  5
38
 10
901873.974
 20
7284932.34
 30
0.0
 11
901860.893
 21
7284506.041
 31
0.0
  0
LINE
  8
7
  6
CONTINUOUS
 62
     7
  5
39
 10
902363.744
 20
7284917.312
 30
0.0
 11
902350.662
 21
7284491.012
 31
0.0
  0
LINE
  8
7
  6
CONTINUOUS
 62
     7
  5
3A
 10
902335.741
 20
7284004.741
 30
0.0
 11
902348.822
 21
7284431.04
 31
0.0
  0
LINE
  8
7
  6
CONTINUOUS
 62
     7
  5
3B
 10
901356.202
 20
7284034.798
 30
0.0
 11
901369.283
 21
7284461.097
 31
0.0
  0
LINE
  8
7
  6
CONTINUOUS
 62
     7
  5
3C
 10
900866.433
 20
7284049.828
 30
0.0
 11
900879.514
 21
7284476.127
 31
0.0
  0
POLYLINE
  8
7
  6
CONTINUOUS
 62
     7
  5
3D
 66
     1
 10
0.0
 20
0.0
 30
0.0
  0
VERTEX
  8
7
  6
CONTINUOUS
 62
     7
  5
3E
 10
900734.895
 20
7284053.864
 30
0.0
  0
VERTEX
  8
7
  6
CONTINUOUS
 62
     7
  5
3F
 10
900741.338
 20
7284263.865
 30
0.0
  0
VERTEX
  8
7
  6
CONTINUOUS
 62
     7
  5
40
 10
900286.552
 20
7284277.82
 30
0.0
  0
SEQEND
  8
7
  6
CONTINUOUS
 62
     7
  5
41
  0
ARC
  8
6
  6
CONTINUOUS
 62
     7
  5
42
 10
902823.138528
 20
7284401.478467
 30
0.0
 40
15.0
 50
358.2424
 51
88.2424
210
0.0
220
0.0
230
1.0
  0
LINE
  8
6
  6
CONTINUOUS
 62
     7
  5
43
 10
900391.584
 20
7284551.127
 30
0.0
 11
902825.439
 21
7284476.444
 31
0.0
  0
POLYLINE
  8
6
  6
CONTINUOUS
 62
     7
  5
44
 66
     1
 10
0.0
 20
0.0
 30
0.0
  0
VERTEX
  8
6
  6
CONTINUOUS
 62
     7
  5
45
 10
902840.892
 20
7284490.976
 30
0.0
  0
VERTEX
  8
6
  6
CONTINUOUS
 62
     7
  5
46
 10
902853.513
 20
7284902.282
 30
0.0
  0
VERTEX
  8
6
  6
CONTINUOUS
 62
     7
  5
47
 10
902893.495
 20
7284901.056
 30
0.0
  0
VERTEX
  8
6
  6
CONTINUOUS
 62
     7
  5
48
 10
902880.413
 20
7284474.757
 30
0.0
  0
VERTEX
  8
6
  6
CONTINUOUS
 62
     7
  5
49
 10
902878.572
 20
7284414.785
 30
0.0
  0
VERTEX
  8
6
  6
CONTINUOUS
 62
     7
  5
4A
 10
902865.492
 20
7283988.486
 30
0.0
  0
VERTEX
  8
6
  6
CONTINUOUS
 62
     7
  5
4B
 10
902825.51
 20
7283989.712
 30
0.0
  0
VERTEX
  8
6
  6
CONTINUOUS
 62
     7
  5
4C
 10
902838.131
 20
7284401.019
 30
0.0
  0
SEQEND
  8
6
  6
CONTINUOUS
 62
     7
  5
4D
  0
ARC
  8
6
  6
CONTINUOUS
 62
     7
  5
4E
 10
902825.898927
 20
7284491.436125
 30
0.0
 40
15.0
 50
268.2424
 51
358.2424
210
0.0
220
0.0
230
1.0
  0
ARC
  8
6
  6
CONTINUOUS
 62
     7
  5
4F
 10
900310.982673
 20
7284568.60767
 30
0.0
 40
15.0
 50
178.2424
 51
268.2424
210
0.0
220
0.0
230
1.0
  0
LINE
  8
6
  6
CONTINUOUS
 62
     7
  5
50
 10
901105.758
 20
7284469.184
 30
0.0
 11
900308.683
 21
7284493.643
 31
0.0
  0
POLYLINE
  8
6
  6
CONTINUOUS
 62
     7
  5
51
 66
     1
 10
0.0
 20
0.0
 30
0.0
  0
VERTEX
  8
6
  6
CONTINUOUS
 62
     7
  5
52
 10
900293.23
 20
7284479.111
 30
0.0
  0
VERTEX
  8
6
  6
CONTINUOUS
 62
     7
  5
53
 10
900280.608
 20
7284067.803
 30
0.0
  0
VERTEX
  8
6
  6
CONTINUOUS
 62
     7
  5
54
 10
900265.616
 20
7284068.263
 30
0.0
  0
VERTEX
  8
6
  6
CONTINUOUS
 62
     7
  5
55
 10
900188.898
 20
7281568.151
 30
0.0
  0
SEQEND
  8
6
  6
CONTINUOUS
 62
     7
  5
56
  0
ARC
  8
6
  6
CONTINUOUS
 62
     7
  5
57
 10
900308.222275
 20
7284478.650012
 30
0.0
 40
15.0
 50
88.2424
 51
178.2424
210
0.0
220
0.0
230
1.0
  0
POLYLINE
  8
6
  6
CONTINUOUS
 62
     7
  5
58
 66
     1
 10
0.0
 20
0.0
 30
0.0
  0
VERTEX
  8
6
  6
CONTINUOUS
 62
     7
  5
59
 10
900199.79
 20
7281434.044
 30
0.0
  0
VERTEX
  8
6
  6
CONTINUOUS
 62
     7
  5
5A
 10
900203.891
 20
7281567.691
 30
0.0
  0
VERTEX
  8
6
  6
CONTINUOUS
 62
     7
  5
5B
 10
900188.898
 20
7281568.151
 30
0.0
  0
SEQEND
  8
6
  6
CONTINUOUS
 62
     7
  5
5C
  0
ARC
  8
6
  6
CONTINUOUS
 62
     7
  5
5D
 10
900214.78278
 20
7281433.583295
 30
0.0
 40
15.0
 50
178.2424
 51
268.2424
210
0.0
220
0.0
230
1.0
  0
LINE
  8
7
  6
CONTINUOUS
 62
     7
  5
5E
 10
900203.891
 20
7281567.691
 30
0.0
 11
900357.529
 21
7281562.976
 31
0.0
  0
LINE
  8
7
  6
CONTINUOUS
 62
     7
  5
5F
 10
900352.968
 20
7281414.336
 30
0.0
 11
900357.529
 21
7281562.976
 31
0.0
  0
POLYLINE
  8
7
  6
CONTINUOUS
 62
     7
  5
60
 66
     1
 10
0.0
 20
0.0
 30
0.0
  0
VERTEX
  8
7
  6
CONTINUOUS
 62
     7
  5
61
 10
905352.342
 20
7280252.906
 30
0.0
  0
VERTEX
  8
7
  6
CONTINUOUS
 62
     7
  5
62
 10
905057.321
 20
7280261.959
 30
0.0
  0
VERTEX
  8
7
  6
CONTINUOUS
 62
     7
  5
63
 10
905048.268
 20
7279966.939
 30
0.0
  0
SEQEND
  8
7
  6
CONTINUOUS
 62
     7
  5
64
  0
TEXT
  8
10
  6
CONTINUOUS
 62
   134
  5
67
 10
900332.436
 20
7284745.636
 30
0.0
 40
13.999
  1
1
 50
358.2424
  7
ROMANS
 11
900332.865365
 21
7284759.628414
 31
0.0
210
0.0
220
0.0
230
1.0
 73
     3
  0
TEXT
  8
10
  6
CONTINUOUS
 62
   134
  5
68
 10
900619.192
 20
7284736.836
 30
0.0
 40
13.999
  1
2
 50
358.2424
  7
ROMANS
 11
900619.621365
 21
7284750.828414
 31
0.0
210
0.0
220
0.0
230
1.0
 73
     3
  0
TEXT
  8
10
  6
CONTINUOUS
 62
   134
  5
69
 10
901115.204
 20
7284721.617
 30
0.0
 40
13.999
  1
3
 50
358.2424
  7
ROMANS
 11
901115.633365
 21
7284735.609414
 31
0.0
210
0.0
220
0.0
230
1.0
 73
     3
  0
TEXT
  8
10
  6
CONTINUOUS
 62
   134
  5
6A
 10
901611.216
 20
7284706.396
 30
0.0
 40
13.999
  1
4
 50
358.2424
  7
ROMANS
 11
901611.645365
 21
7284720.388414
 31
0.0
210
0.0
220
0.0
230
1.0
 73
     3
  0
TEXT
  8
10
  6
CONTINUOUS
 62
   134
  5
6B
 10
902091.727
 20
7284691.651
 30
0.0
 40
13.999
  1
5
 50
358.2424
  7
ROMANS
 11
902092.156365
 21
7284705.643414
 31
0.0
210
0.0
220
0.0
230
1.0
 73
     3
  0
TEXT
  8
10
  6
CONTINUOUS
 62
   134
  5
6C
 10
902595.489
 20
7284676.193
 30
0.0
 40
13.999
  1
6
 50
358.2424
  7
ROMANS
 11
902595.918365
 21
7284690.185414
 31
0.0
210
0.0
220
0.0
230
1.0
 73
     3
  0
TEXT
  8
10
  6
CONTINUOUS
 62
   134
  5
6D
 10
902581.21
 20
7284210.86
 30
0.0
 40
13.999
  1
7
 50
358.2424
  7
ROMANS
 11
902581.639365
 21
7284224.852414
 31
0.0
210
0.0
220
0.0
230
1.0
 73
     3
  0
TEXT
  8
10
  6
CONTINUOUS
 62
   134
  5
6E
 10
902077.448
 20
7284226.319
 30
0.0
 40
13.999
  1
8
 50
358.2424
  7
ROMANS
 11
902077.877365
 21
7284240.311414
 31
0.0
210
0.0
220
0.0
230
1.0
 73
     3
  0
TEXT
  8
10
  6
CONTINUOUS
 62
   134
  5
6F
 10
901596.937
 20
7284241.063
 30
0.0
 40
13.999
  1
9
 50
358.2424
  7
ROMANS
 11
901597.366365
 21
7284255.055414
 31
0.0
210
0.0
220
0.0
230
1.0
 73
     3
  0
TEXT
  8
10
  6
CONTINUOUS
 62
   134
  5
70
 10
901077.675
 20
7284256.997
 30
0.0
 40
13.999
  1
10
 50
358.2424
  7
ROMANS
 11
901078.104365
 21
7284270.989414
 31
0.0
210
0.0
220
0.0
230
1.0
 73
     3
  0
TEXT
  8
10
  6
CONTINUOUS
 62
   134
  5
71
 10
900561.268
 20
7284365.998
 30
0.0
 40
13.999
  1
11
 50
358.2424
  7
ROMANS
 11
900561.697365
 21
7284379.990414
 31
0.0
210
0.0
220
0.0
230
1.0
 73
     3
  0
TEXT
  8
10
  6
CONTINUOUS
 62
   134
  5
72
 10
900470.067
 20
7284174.725
 30
0.0
 40
13.999
  1
12
 50
358.2424
  7
ROMANS
 11
900470.496365
 21
7284188.717414
 31
0.0
210
0.0
220
0.0
230
1.0
 73
     3
  0
TEXT
  8
10
  6
CONTINUOUS
 62
   134
  5
73
 10
900270.997
 20
7281479.361
 30
0.0
 40
13.999
  1
1
 50
358.2424
  7
ROMANS
 11
900271.426365
 21
7281493.353414
 31
0.0
210
0.0
220
0.0
230
1.0
 73
     3
  0
TEXT
  8
10
  6
CONTINUOUS
 62
   134
  5
74
 10
905161.262
 20
7280101.632
 30
0.0
 40
13.999
  1
TR 3
 50
358.2424
  7
ROMANS
 11
905161.691365
 21
7280115.624414
 31
0.0
210
0.0
220
0.0
230
1.0
 73
     3
  0
LINE
  8
6
  6
CONTINUOUS
 62
     7
  5
75
 10
901814.074
 20
7284447.45
 30
0.0
 11
901105.758
 21
7284469.184
 31
0.0
  0
ARC
  8
6
  6
CONTINUOUS
 62
     7
  5
76
 10
901813.613702
 20
7284432.456274
 30
0.0
 40
15.0
 50
358.2424
 51
88.2424
210
0.0
220
0.0
230
1.0
  0
POLYLINE
  8
6
  6
CONTINUOUS
 62
     7
  5
77
 66
     1
 10
0.0
 20
0.0
 30
0.0
  0
VERTEX
  8
6
  6
CONTINUOUS
 62
     7
  5
78
 10
901888.578
 20
7284430.156
 30
0.0
  0
VERTEX
  8
6
  6
CONTINUOUS
 62
     7
  5
79
 10
901875.957
 20
7284018.85
 30
0.0
  0
VERTEX
  8
6
  6
CONTINUOUS
 62
     7
  5
7A
 10
901815.985
 20
7284020.689
 30
0.0
  0
VERTEX
  8
6
  6
CONTINUOUS
 62
     7
  5
7B
 10
901828.606
 20
7284431.996
 30
0.0
  0
SEQEND
  8
6
  6
CONTINUOUS
 62
     7
  5
7C
  0
LINE
  8
6
  6
CONTINUOUS
 62
     7
  5
7D
 10
902823.599
 20
7284416.472
 30
0.0
 11
901904.031
 21
7284444.689
 31
0.0
  0
ARC
  8
6
  6
CONTINUOUS
 62
     7
  5
7E
 10
901903.57136
 20
7284429.695875
 30
0.0
 40
15.0
 50
88.2424
 51
178.2424
210
0.0
220
0.0
230
1.0
  0
TEXT
  8
10
  6
CONTINUOUS
 62
   134
  5
7F
 10
902847.431
 20
7282375.038
 30
0.0
 40
13.999
  1
UNSUBDIVIDED
 50
358.2424
  7
ROMANS
 11
902847.860365
 21
7282389.030414
 31
0.0
210
0.0
220
0.0
230
1.0
 73
     3
  0
TEXT
  8
11
  6
CONTINUOUS
 62
     7
  5
81
 10
900271.038
 20
7285311.806
 30
0.0
 40
8.0
  1
40'
 50
358.2424
  7
ROMANS
 72
     4
 11
900280.490293
 21
7285315.517834
 31
0.0
210
0.0
220
0.0
230
1.0
  0
TEXT
  8
11
  6
CONTINUOUS
 62
     7
  5
82
 10
900261.158
 20
7284989.83
 30
0.0
 40
8.0
  1
40'
 50
358.2424
  7
ROMANS
 72
     4
 11
900270.610293
 21
7284993.541834
 31
0.0
210
0.0
220
0.0
230
1.0
  0
TEXT
  8
11
  6
CONTINUOUS
 62
     7
  5
83
 10
900232.012
 20
7284040.001
 30
0.0
 40
8.0
  1
40'
 50
358.2424
  7
ROMANS
 72
     4
 11
900241.464293
 21
7284043.712834
 31
0.0
210
0.0
220
0.0
230
1.0
  0
TEXT
  8
11
  6
CONTINUOUS
 62
     7
  5
84
 10
900233.594
 20
7284091.517
 30
0.0
 40
8.0
  1
55'
 50
358.2424
  7
ROMANS
 72
     4
 11
900243.046293
 21
7284095.228834
 31
0.0
210
0.0
220
0.0
230
1.0
  0
TEXT
  8
11
  6
CONTINUOUS
 62
     7
  5
85
 10
900244.462
 20
7284445.691
 30
0.0
 40
8.0
  1
55'
 50
358.2424
  7
ROMANS
 72
     4
 11
900253.914293
 21
7284449.402834
 31
0.0
210
0.0
220
0.0
230
1.0
  0
TEXT
  8
11
  6
CONTINUOUS
 62
     7
  5
86
 10
900248.908
 20
7284590.579
 30
0.0
 40
8.0
  1
55'
 50
358.2424
  7
ROMANS
 72
     4
 11
900258.360293
 21
7284594.290834
 31
0.0
210
0.0
220
0.0
230
1.0
  0
TEXT
  8
11
  6
CONTINUOUS
 62
     7
  5
87
 10
900253.452
 20
7284738.69
 30
0.0
 40
8.0
  1
55'
 50
358.2424
  7
ROMANS
 72
     4
 11
900262.904293
 21
7284742.401834
 31
0.0
210
0.0
220
0.0
230
1.0
  0
TEXT
  8
11
  6
CONTINUOUS
 62
     7
  5
88
 10
900248.37
 20
7284961.217
 30
0.0
 40
8.0
  1
57.65'
 50
358.2424
  7
ROMANS
 72
     4
 11
900269.816647
 21
7284964.560781
 31
0.0
210
0.0
220
0.0
230
1.0
  0
TEXT
  8
11
  6
CONTINUOUS
 62
     7
  5
89
 10
900332.332
 20
7284968.641
 30
0.0
 40
8.0
  1
93.45'
 50
358.2424
  7
ROMANS
 72
     1
 11
900353.901332
 21
7284975.982899
 31
0.0
210
0.0
220
0.0
230
1.0
 73
     3
  0
TEXT
  8
11
  6
CONTINUOUS
 62
     7
  5
8A
 10
900322.898
 20
7284556.237
 30
0.0
 40
8.0
  1
81.61'
 50
358.2424
  7
ROMANS
 72
     1
 11
900344.221963
 21
7284555.582663
 31
0.0
210
0.0
220
0.0
230
1.0
  0
TEXT
  8
11
  6
CONTINUOUS
 62
     7
  5
8B
 10
900597.886
 20
7284547.798
 30
0.0
 40
8.0
  1
490'
 50
358.2424
  7
ROMANS
 72
     1
 11
900611.213727
 21
7284547.389032
 31
0.0
210
0.0
220
0.0
230
1.0
  0
TEXT
  8
11
  6
CONTINUOUS
 62
     7
  5
8C
 10
901112.692
 20
7284532.002
 30
0.0
 40
8.0
  1
490'
 50
358.2424
  7
ROMANS
 72
     1
 11
901126.019727
 21
7284531.593032
 31
0.0
210
0.0
220
0.0
230
1.0
  0
TEXT
  8
11
  6
CONTINUOUS
 62
     7
  5
8D
 10
901598.54
 20
7284517.092
 30
0.0
 40
8.0
  1
490'
 50
358.2424
  7
ROMANS
 72
     1
 11
901611.867727
 21
7284516.683032
 31
0.0
210
0.0
220
0.0
230
1.0
  0
TEXT
  8
11
  6
CONTINUOUS
 62
     7
  5
8E
 10
902103.692
 20
7284501.592
 30
0.0
 40
8.0
  1
490'
 50
358.2424
  7
ROMANS
 72
     1
 11
902117.019727
 21
7284501.183032
 31
0.0
210
0.0
220
0.0
230
1.0
  0
TEXT
  8
11
  6
CONTINUOUS
 62
     7
  5
8F
 10
902587.488
 20
7284000.018
 30
0.0
 40
8.0
  1
490'
 50
358.2424
  7
ROMANS
 72
     1
 11
902600.815727
 21
7283999.609032
 31
0.0
210
0.0
220
0.0
230
1.0
  0
TEXT
  8
11
  6
CONTINUOUS
 62
     7
  5
90
 10
902621.497
 20
7284898.397
 30
0.0
 40
8.0
  1
490'
 50
358.2424
  7
ROMANS
 72
     1
 11
902635.070096
 21
7284905.984268
 31
0.0
210
0.0
220
0.0
230
1.0
 73
     3
  0
TEXT
  8
11
  6
CONTINUOUS
 62
     7
  5
91
 10
901113.64
 20
7284457.937
 30
0.0
 40
8.0
  1
490'
 50
358.2424
  7
ROMANS
 72
     1
 11
901127.213096
 21
7284465.524268
 31
0.0
210
0.0
220
0.0
230
1.0
 73
     3
  0
TEXT
  8
11
  6
CONTINUOUS
 62
     7
  5
92
 10
901587.587
 20
7284443.394
 30
0.0
 40
8.0
  1
445.01'
 50
358.2424
  7
ROMANS
 72
     1
 11
901613.15445
 21
7284450.613215
 31
0.0
210
0.0
220
0.0
230
1.0
 73
     3
  0
TEXT
  8
11
  6
CONTINUOUS
 62
     7
  5
93
 10
902095.957
 20
7284427.794
 30
0.0
 40
8.0
  1
444.99'
 50
358.2424
  7
ROMANS
 72
     1
 11
902121.52445
 21
7284435.013215
 31
0.0
210
0.0
220
0.0
230
1.0
 73
     3
  0
TEXT
  8
11
  6
CONTINUOUS
 62
     7
  5
94
 10
902585.022
 20
7284412.788
 30
0.0
 40
8.0
  1
475.01'
 50
358.2424
  7
ROMANS
 72
     1
 11
902610.58945
 21
7284420.007215
 31
0.0
210
0.0
220
0.0
230
1.0
 73
     3
  0
TEXT
  8
11
  6
CONTINUOUS
 62
     7
  5
95
 10
902580.108
 20
7284486.973
 30
0.0
 40
8.0
  1
474.99''
 50
358.2424
  7
ROMANS
 72
     1
 11
902609.428199
 21
7284486.073294
 31
0.0
210
0.0
220
0.0
230
1.0
  0
TEXT
  8
11
  6
CONTINUOUS
 62
     7
  5
96
 10
900583.716
 20
7284474.198
 30
0.0
 40
8.0
  1
571.59'
 50
358.2424
  7
ROMANS
 72
     1
 11
900609.28345
 21
7284481.417215
 31
0.0
210
0.0
220
0.0
230
1.0
 73
     3
  0
TEXT
  8
11
  6
CONTINUOUS
 62
     7
  5
97
 10
900511.759
 20
7284259.904
 30
0.0
 40
8.0
  1
455'
 50
358.2424
  7
ROMANS
 72
     1
 11
900525.332096
 21
7284267.491268
 31
0.0
210
0.0
220
0.0
230
1.0
 73
     3
  0
TEXT
  8
11
  6
CONTINUOUS
 62
     7
  5
98
 10
900780.954
 20
7284055.452
 30
0.0
 40
8.0
  1
131.6'
 50
358.2424
  7
ROMANS
 72
     1
 11
900802.277963
 21
7284054.797663
 31
0.0
210
0.0
220
0.0
230
1.0
  0
TEXT
  8
11
  6
CONTINUOUS
 62
     7
  5
99
 10
900411.759
 20
7284742.441
 30
0.0
 40
8.0
  1
426.5'
 50
88.2424
  7
ROMANS
 72
     4
 11
900408.415219
 21
7284763.887647
 31
0.0
210
0.0
220
0.0
230
1.0
  0
TEXT
  8
11
  6
CONTINUOUS
 62
     7
  5
9A
 10
902351.931
 20
7284682.905
 30
0.0
 40
8.0
  1
426.5'
 50
88.2424
  7
ROMANS
 72
     4
 11
902348.587219
 21
7284704.351647
 31
0.0
210
0.0
220
0.0
230
1.0
  0
TEXT
  8
11
  6
CONTINUOUS
 62
     7
  5
9B
 10
902337.013
 20
7284196.721
 30
0.0
 40
8.0
  1
426.5'
 50
88.2424
  7
ROMANS
 72
     4
 11
902333.669219
 21
7284218.167647
 31
0.0
210
0.0
220
0.0
230
1.0
  0
TEXT
  8
11
  6
CONTINUOUS
 62
     7
  5
9C
 10
901352.447
 20
7284226.933
 30
0.0
 40
8.0
  1
426.5'
 50
88.2424
  7
ROMANS
 72
     4
 11
901349.103219
 21
7284248.379647
 31
0.0
210
0.0
220
0.0
230
1.0
  0
TEXT
  8
11
  6
CONTINUOUS
 62
     7
  5
9D
 10
900863.382
 20
7284241.94
 30
0.0
 40
8.0
  1
426.5'
 50
88.2424
  7
ROMANS
 72
     4
 11
900860.038219
 21
7284263.386647
 31
0.0
210
0.0
220
0.0
230
1.0
  0
TEXT
  8
11
  6
CONTINUOUS
 62
     7
  5
9E
 10
900296.757
 20
7284143.307
 30
0.0
 40
8.0
  1
210.1'
 50
88.2424
  7
ROMANS
 72
     4
 11
900293.413219
 21
7284164.753647
 31
0.0
210
0.0
220
0.0
230
1.0
  0
TEXT
  8
11
  6
CONTINUOUS
 62
     7
  5
9F
 10
900302.959
 20
7284345.405
 30
0.0
 40
8.0
  1
201.38'
 50
88.2424
  7
ROMANS
 72
     4
 11
900299.737903
 21
7284370.849766
 31
0.0
210
0.0
220
0.0
230
1.0
  0
TEXT
  8
11
  6
CONTINUOUS
 62
     7
  5
A0
 10
900312.74
 20
7284664.161
 30
0.0
 40
8.0
  1
305.51'
 50
88.2424
  7
ROMANS
 72
     4
 11
900309.518903
 21
7284689.605766
 31
0.0
210
0.0
220
0.0
230
1.0
  0
INSERT
  8
11
  6
CONTINUOUS
 62
     7
  5
A8
  2
*D0
 10
900311.26
 20
7284980.293
 30
0.0
 70
     0
 71
     0
  0
TEXT
  8
11
  6
CONTINUOUS
 62
     7
  5
A9
 10
902834.005
 20
7284666.223
 30
0.0
 40
8.0
  1
411.49'
 50
88.2424
  7
ROMANS
 72
     4
 11
902830.783903
 21
7284691.667766
 31
0.0
210
0.0
220
0.0
230
1.0
  0
TEXT
  8
11
  6
CONTINUOUS
 62
     7
  5
AA
 10
902818.935
 20
7284175.128
 30
0.0
 40
8.0
  1
411.51'
 50
88.2424
  7
ROMANS
 72
     4
 11
902815.713903
 21
7284200.572766
 31
0.0
210
0.0
220
0.0
230
1.0
  0
TEXT
  8
11
  6
CONTINUOUS
 62
     7
  5
AB
 10
901808.343
 20
7284206.139
 30
0.0
 40
8.0
  1
411.51'
 50
88.2424
  7
ROMANS
 72
     4
 11
901805.121903
 21
7284231.583766
 31
0.0
210
0.0
220
0.0
230
1.0
  0
TEXT
  8
11
  6
CONTINUOUS
 62
     7
  5
AC
 10
901899.224
 20
7284203.35
 30
0.0
 40
8.0
  1
411.49'
 50
88.2424
  7
ROMANS
 72
     4
 11
901896.002903
 21
7284228.794766
 31
0.0
210
0.0
220
0.0
230
1.0
  0
TEXT
  8
11
  6
CONTINUOUS
 62
     7
  5
AD
 10
900347.68
 20
7284510.799
 30
0.0
 40
8.0
  1
60'
 50
88.2424
  7
ROMANS
 72
     4
 11
900343.968166
 21
7284520.251293
 31
0.0
210
0.0
220
0.0
230
1.0
  0
TEXT
  8
11
  6
CONTINUOUS
 62
     7
  5
AE
 10
901769.051
 20
7284467.183
 30
0.0
 40
8.0
  1
60'
 50
88.2424
  7
ROMANS
 72
     4
 11
901765.339166
 21
7284476.635293
 31
0.0
210
0.0
220
0.0
230
1.0
  0
TEXT
  8
11
  6
CONTINUOUS
 62
     7
  5
AF
 10
901943.542
 20
7284461.829
 30
0.0
 40
8.0
  1
60'
 50
88.2424
  7
ROMANS
 72
     4
 11
901939.830166
 21
7284471.281293
 31
0.0
210
0.0
220
0.0
230
1.0
  0
TEXT
  8
11
  6
CONTINUOUS
 62
     7
  5
B0
 10
902772.372
 20
7284436.395
 30
0.0
 40
8.0
  1
60'
 50
88.2424
  7
ROMANS
 72
     4
 11
902768.660166
 21
7284445.847293
 31
0.0
210
0.0
220
0.0
230
1.0
  0
TEXT
  8
11
  6
CONTINUOUS
 62
     7
  5
B1
 10
902859.586
 20
7284864.999
 30
0.0
 40
8.0
  1
40'
 50
358.2424
  7
ROMANS
 72
     4
 11
902869.038293
 21
7284868.710834
 31
0.0
210
0.0
220
0.0
230
1.0
  0
TEXT
  8
11
  6
CONTINUOUS
 62
     7
  5
B2
 10
902833.688
 20
7284021.043
 30
0.0
 40
8.0
  1
40'
 50
358.2424
  7
ROMANS
 72
     4
 11
902843.140293
 21
7284024.754834
 31
0.0
210
0.0
220
0.0
230
1.0
  0
TEXT
  8
11
  6
CONTINUOUS
 62
     7
  5
B3
 10
901837.527
 20
7284047.97
 30
0.0
 40
8.0
  1
60'
 50
358.2424
  7
ROMANS
 72
     4
 11
901846.979293
 21
7284051.681834
 31
0.0
210
0.0
220
0.0
230
1.0
  0
TEXT
  8
11
  6
CONTINUOUS
 62
     7
  5
B4
 10
901848.447
 20
7284403.841
 30
0.0
 40
8.0
  1
60'
 50
358.2424
  7
ROMANS
 72
     4
 11
901857.899293
 21
7284407.552834
 31
0.0
210
0.0
220
0.0
230
1.0
  0
TEXT
  8
11
  6
CONTINUOUS
 62
     7
  5
B5
 10
900157.0
 20
7281595.44
 30
0.0
 40
8.0
  1
40'
 50
358.2424
  7
ROMANS
 72
     4
 11
900166.452293
 21
7281599.151834
 31
0.0
210
0.0
220
0.0
230
1.0
  0
TEXT
  8
11
  6
CONTINUOUS
 62
     7
  5
B6
 10
900149.186
 20
7281340.798
 30
0.0
 40
8.0
  1
40'
 50
358.2424
  7
ROMANS
 72
     4
 11
900158.638293
 21
7281344.509834
 31
0.0
210
0.0
220
0.0
230
1.0
  0
TEXT
  8
11
  6
CONTINUOUS
 62
     7
  5
B7
 10
900113.912
 20
7280191.272
 30
0.0
 40
8.0
  1
40'
 50
358.2424
  7
ROMANS
 72
     4
 11
900123.364293
 21
7280194.983834
 31
0.0
210
0.0
220
0.0
230
1.0
  0
TEXT
  8
11
  6
CONTINUOUS
 62
     7
  5
B8
 10
900162.062
 20
7281546.386
 30
0.0
 40
8.0
  1
55'
 50
358.2424
  7
ROMANS
 72
     4
 11
900171.514293
 21
7281550.097834
 31
0.0
210
0.0
220
0.0
230
1.0
  0
TEXT
  8
11
  6
CONTINUOUS
 62
     7
  5
B9
 10
900158.995
 20
7281446.439
 30
0.0
 40
8.0
  1
55'
 50
358.2424
  7
ROMANS
 72
     4
 11
900168.447293
 21
7281450.150834
 31
0.0
210
0.0
220
0.0
230
1.0
  0
TEXT
  8
11
  6
CONTINUOUS
 62
     7
  5
BA
 10
900232.837
 20
7281393.337
 30
0.0
 40
8.0
  1
30'
 50
88.2424
  7
ROMANS
 72
     4
 11
900229.125166
 21
7281402.789293
 31
0.0
210
0.0
220
0.0
230
1.0
  0
TEXT
  8
11
  6
CONTINUOUS
 62
     7
  5
BB
 10
900366.762
 20
7281450.044
 30
0.0
 40
8.0
  1
178.71'
 50
88.2424
  7
ROMANS
 72
     4
 11
900363.540903
 21
7281475.488766
 31
0.0
210
0.0
220
0.0
230
1.0
  0
TEXT
  8
11
  6
CONTINUOUS
 62
     7
  5
BC
 10
900213.991
 20
7281466.96
 30
0.0
 40
8.0
  1
133.71'
 50
88.2424
  7
ROMANS
 72
     4
 11
900210.769903
 21
7281492.404766
 31
0.0
210
0.0
220
0.0
230
1.0
  0
TEXT
  8
11
  6
CONTINUOUS
 62
     7
  5
BD
 10
900251.297
 20
7281569.237
 30
0.0
 40
8.0
  1
168.71'
 50
358.2424
  7
ROMANS
 72
     1
 11
900276.619081
 21
7281568.459978
 31
0.0
210
0.0
220
0.0
230
1.0
  0
TEXT
  8
11
  6
CONTINUOUS
 62
     7
  5
BE
 10
900245.626
 20
7281420.632
 30
0.0
 40
8.0
  1
138.71'
 50
358.2424
  7
ROMANS
 72
     1
 11
900270.948081
 21
7281419.854978
 31
0.0
210
0.0
220
0.0
230
1.0
  0
TEXT
  8
11
  6
CONTINUOUS
 62
     7
  5
BF
 10
900350.116
 20
7281450.554
 30
0.0
 40
8.0
  1
148.71'
 50
88.2424
  7
ROMANS
 72
     4
 11
900346.894903
 21
7281475.998766
 31
0.0
210
0.0
220
0.0
230
1.0
  0
TEXT
  8
11
  6
CONTINUOUS
 62
     7
  5
C0
 10
900164.911
 20
7280095.168
 30
0.0
 40
8.0
  1
90'
 50
88.2424
  7
ROMANS
 72
     4
 11
900161.199166
 21
7280104.620293
 31
0.0
210
0.0
220
0.0
230
1.0
  0
TEXT
  8
11
  6
CONTINUOUS
 62
     7
  5
C1
 10
900390.486
 20
7280079.97
 30
0.0
 40
8.0
  1
60'
 50
88.2424
  7
ROMANS
 72
     4
 11
900386.774166
 21
7280089.422293
 31
0.0
210
0.0
220
0.0
230
1.0
  0
TEXT
  8
11
  6
CONTINUOUS
 62
     7
  5
C2
 10
900419.402
 20
7280079.083
 30
0.0
 40
8.0
  1
50'
 50
88.2424
  7
ROMANS
 72
     4
 11
900415.690166
 21
7280088.535293
 31
0.0
210
0.0
220
0.0
230
1.0
  0
INSERT
  8
11
  6
CONTINUOUS
 62
     7
  5
C8
  2
*D1
 10
900404.649
 20
7280122.143
 30
0.0
 70
     0
 71
     0
  0
TEXT
  8
11
  6
CONTINUOUS
 62
     7
  5
C9
 10
901890.04
 20
7280033.956
 30
0.0
 40
8.0
  1
50'
 50
88.2424
  7
ROMANS
 72
     4
 11
901886.328166
 21
7280043.408293
 31
0.0
210
0.0
220
0.0
230
1.0
  0
TEXT
  8
11
  6
CONTINUOUS
 62
     7
  5
CA
 10
903195.436
 20
7279993.899
 30
0.0
 40
8.0
  1
50'
 50
88.2424
  7
ROMANS
 72
     4
 11
903191.724166
 21
7280003.351293
 31
0.0
210
0.0
220
0.0
230
1.0
  0
TEXT
  8
11
  6
CONTINUOUS
 62
     7
  5
CB
 10
904506.341
 20
7279953.673
 30
0.0
 40
8.0
  1
50'
 50
88.2424
  7
ROMANS
 72
     4
 11
904502.629166
 21
7279963.125293
 31
0.0
210
0.0
220
0.0
230
1.0
  0
TEXT
  8
11
  6
CONTINUOUS
 62
     7
  5
CC
 10
905284.242
 20
7279927.096
 30
0.0
 40
8.0
  1
50'
 50
88.2424
  7
ROMANS
 72
     4
 11
905280.530166
 21
7279936.548293
 31
0.0
210
0.0
220
0.0
230
1.0
  0
TEXT
  8
11
  6
CONTINUOUS
 62
     7
  5
CD
 10
905189.756
 20
7280245.905
 30
0.0
 40
8.0
  1
295.16'
 50
358.2424
  7
ROMANS
 72
     1
 11
905215.078081
 21
7280245.127978
 31
0.0
210
0.0
220
0.0
230
1.0
  0
TEXT
  8
11
  6
CONTINUOUS
 62
     7
  5
CE
 10
905064.444
 20
7280094.845
 30
0.0
 40
8.0
  1
295.16'
 50
88.2424
  7
ROMANS
 72
     4
 11
905061.222903
 21
7280120.289766
 31
0.0
210
0.0
220
0.0
230
1.0
  0
TEXT
  8
11
  6
CONTINUOUS
 62
     7
  5
CF
 10
905361.144
 20
7280235.822
 30
0.0
 40
8.0
  1
40'
 50
358.2424
  7
ROMANS
 72
     4
 11
905370.596293
 21
7280239.533834
 31
0.0
210
0.0
220
0.0
230
1.0
  0
TEXT
  8
11
  6
CONTINUOUS
 62
     7
  5
D0
 10
905353.79
 20
7279996.165
 30
0.0
 40
8.0
  1
40'
 50
358.2424
  7
ROMANS
 72
     4
 11
905363.242293
 21
7279999.876834
 31
0.0
210
0.0
220
0.0
230
1.0
  0
TEXT
  8
19
  6
CONTINUOUS
 62
     1
  5
D3
 10
901457.8
 20
7280045.569
 30
0.0
 40
24.0
  1
4TH ST
 50
358.2424
  7
ROMANC
 72
     4
 11
901534.758003
 21
7280055.213151
 31
0.0
210
0.0
220
0.0
230
1.0
  0
TEXT
  8
19
  6
CONTINUOUS
 62
     1
  5
D4
 10
903576.728
 20
7279983.519
 30
0.0
 40
24.0
  1
4TH ST
 50
358.2424
  7
ROMANC
 72
     4
 11
903653.686003
 21
7279993.163151
 31
0.0
210
0.0
220
0.0
230
1.0
  0
TEXT
  8
19
  6
CONTINUOUS
 62
     1
  5
D5
 10
900140.107
 20
7280262.167
 30
0.0
 40
24.0
  1
INLER AVE
 50
88.2424
  7
ROMANC
 72
     4
 11
900131.572713
 21
7280375.293979
 31
0.0
210
0.0
220
0.0
230
1.0
  0
TEXT
  8
19
  6
CONTINUOUS
 62
     1
  5
D6
 10
900205.917
 20
7282512.058
 30
0.0
 40
24.0
  1
INLER AVE
 50
88.2424
  7
ROMANC
 72
     4
 11
900197.382713
 21
7282625.184979
 31
0.0
210
0.0
220
0.0
230
1.0
  0
TEXT
  8
19
  6
CONTINUOUS
 62
     1
  5
D7
 10
900288.086
 20
7285020.851
 30
0.0
 40
24.0
  1
INLER AVE
 50
88.2424
  7
ROMANC
 72
     4
 11
900279.551713
 21
7285133.977979
 31
0.0
210
0.0
220
0.0
230
1.0
  0
TEXT
  8
19
  6
CONTINUOUS
 62
     1
  5
D8
 10
901122.762
 20
7284487.469
 30
0.0
 40
24.0
  1
DARTMOUTH ST
 50
358.2424
  7
ROMANC
 72
     4
 11
901284.713997
 21
7284494.505065
 31
0.0
210
0.0
220
0.0
230
1.0
  0
TEXT
  8
19
  6
CONTINUOUS
 62
     1
  5
D9
 10
901863.837
 20
7284088.354
 30
0.0
 40
24.0
  1
FAIRHOPE AVE
 50
88.2424
  7
ROMANC
 72
     4
 11
901856.571975
 21
7284242.844509
 31
0.0
210
0.0
220
0.0
230
1.0
  0
TEXT
  8
19
  6
CONTINUOUS
 62
     1
  5
DA
 10
905376.673
 20
7280016.617
 30
0.0
 40
24.0
  1
ALCOVE
 50
88.2424
  7
ROMANC
 72
     4
 11
905366.991124
 21
7280092.345582
 31
0.0
210
0.0
220
0.0
230
1.0
  0
TEXT
  8
15
  6
CONTINUOUS
 62
    30
  5
DC
 10
900710.383
 20
7284645.96
 30
0.0
 40
50.0
  1
SAND
 50
28.2424
  7
ROMANC
 72
     4
 11
900791.151715
 21
7284717.723132
 31
0.0
210
0.0
220
0.0
230
1.0
  0
TEXT
  8
15
  6
CONTINUOUS
 62
    30
  5
DD
 10
901163.257
 20
7284145.424
 30
0.0
 40
50.0
  1
DOLLAR
 50
28.2424
  7
ROMANC
 72
     4
 11
901290.844871
 21
7284242.335969
 31
0.0
210
0.0
220
0.0
230
1.0
  0
TEXT
  8
15
  6
CONTINUOUS
 62
    30
  5
DE
 10
900175.604
 20
7281462.782
 30
0.0
 40
15.0
  1
CARLISLE
 50
28.2424
  7
ROMANC
 72
     4
 11
900223.86826
 21
7281497.220575
 31
0.0
210
0.0
220
0.0
230
1.0
  0
POLYLINE
  8
1
  6
HIDDEN
 62
   253
  5
E0
 66
     1
 10
0.0
 20
0.0
 30
0.0
 70
     1
  0
VERTEX
  8
1
  6
HIDDEN
 62
   253
  5
E1
 10
905393.263
 20
7279905.3
 30
0.0
  0
VERTEX
  8
1
  6
HIDDEN
 62
   253
  5
E2
 10
900096.848
 20
7280062.667
 30
0.0
  0
VERTEX
  8
1
  6
HIDDEN
 62
   253
  5
E3
 10
900265.735
 20
7285375.939
 30
0.0
  0
VERTEX
  8
1
  6
HIDDEN
 62
   253
  5
E4
 10
905565.301
 20
7285215.098
 30
0.0
  0
SEQEND
  8
1
  6
HIDDEN
 62
   253
  5
E5
  0
LINE
  8
6
  6
CONTINUOUS
 62
     7
  5
E6
 10
905352.342
 20
7280252.906
 30
0.0
 11
905343.289
 21
7279957.886
 31
0.0
  0
LINE
  8
6
  6
CONTINUOUS
 62
     7
  5
E7
 10
905343.289
 20
7279957.886
 30
0.0
 11
900404.342
 21
7280112.148
 31
0.0
  0
LINE
  8
6
  6
CONTINUOUS
 62
     7
  5
E8
 10
900404.342
 20
7280112.148
 30
0.0
 11
900404.649
 21
7280122.143
 31
0.0
  0
LINE
  8
6
  6
CONTINUOUS
 62
     7
  5
E9
 10
900404.649
 20
7280122.143
 30
0.0
 11
900145.691
 21
7280160.103
 31
0.0
  0
LINE
  8
6
  6
CONTINUOUS
 62
     7
  5
EA
 10
900145.691
 20
7280160.103
 30
0.0
 11
900183.416
 21
7281389.525
 31
0.0
  0
LINE
  8
6
  6
CONTINUOUS
 62
     7
  5
EB
 10
900183.416
 20
7281389.525
 30
0.0
 11
900352.047
 21
7281384.35
 31
0.0
  0
LINE
  8
6
  6
CONTINUOUS
 62
     7
  5
EC
 10
900352.047
 20
7281384.35
 30
0.0
 11
900352.968
 21
7281414.336
 31
0.0
  0
LINE
  8
6
  6
CONTINUOUS
 62
     7
  5
ED
 10
900352.968
 20
7281414.336
 30
0.0
 11
900214.323
 21
7281418.591
 31
0.0
  0
LINE
  8
58
  6
DIVIDE
 62
   216
  5
EF
 10
905400.708
 20
7280569.119
 30
0.0
 11
900123.193
 21
7280731.062
 31
0.0
  0
LINE
  8
6
  6
CONTINUOUS
 62
     7
  5
F0
 10
900303.276
 20
7285295.583
 30
0.0
 11
905511.709
 21
7285139.706
 31
0.0
  0
LINE
  8
6
  6
CONTINUOUS
 62
     7
  5
F1
 10
905511.709
 20
7285139.706
 30
0.0
 11
905352.342
 21
7280252.906
 31
0.0
  0
ENDSEC
  0
EOF
