  0
SECTION
  2
HEADER
  9
$ACADVER
  1
AC1009
  9
$INSBASE
 10
0.0
 20
0.0
 30
0.0
  9
$EXTMIN
 10
346674114962.26904
 20
3120066206168.647
 30
0.0
  9
$EXTMAX
 10
346674120423.21405
 20
3120066211617.9487
 30
0.0
  9
$LIMMIN
 10
0.0
 20
0.0
  9
$LIMMAX
 10
12.0
 20
9.0
  9
$ORTHOMODE
 70
     0
  9
$REGENMODE
 70
     1
  9
$FILLMODE
 70
     1
  9
$QTEXTMODE
 70
     0
  9
$MIRRTEXT
 70
     1
  9
$DRAGMODE
 70
     2
  9
$LTSCALE
 40
1.0
  9
$OSMODE
 70
     0
  9
$ATTMODE
 70
     1
  9
$TEXTSIZE
 40
0.2
  9
$TRACEWID
 40
0.05
  9
$TEXTSTYLE
  7
STANDARD
  9
$CLAYER
  8
0
  9
$CELTYPE
  6
CONTINUOUS
  9
$CECOLOR
 62
   256
  9
$DIMSCALE
 40
1.0
  9
$DIMASZ
 40
0.18
  9
$DIMEXO
 40
0.0625
  9
$DIMDLI
 40
0.38
  9
$DIMRND
 40
0.0
  9
$DIMDLE
 40
0.0
  9
$DIMEXE
 40
0.18
  9
$DIMTP
 40
0.0
  9
$DIMTM
 40
0.0
  9
$DIMTXT
 40
0.18
  9
$DIMCEN
 40
0.09
  9
$DIMTSZ
 40
0.0
  9
$DIMTOL
 70
     0
  9
$DIMLIM
 70
     0
  9
$DIMTIH
 70
     1
  9
$DIMTOH
 70
     1
  9
$DIMSE1
 70
     0
  9
$DIMSE2
 70
     0
  9
$DIMTAD
 70
     0
  9
$DIMZIN
 70
     0
  9
$DIMBLK
  1

  9
$DIMASO
 70
     1
  9
$DIMSHO
 70
     1
  9
$DIMPOST
  1

  9
$DIMAPOST
  1

  9
$DIMALT
 70
     0
  9
$DIMALTD
 70
     2
  9
$DIMALTF
 40
25.4
  9
$DIMLFAC
 40
1.0
  9
$DIMTOFL
 70
     0
  9
$DIMTVP
 40
0.0
  9
$DIMTIX
 70
     0
  9
$DIMSOXD
 70
     0
  9
$DIMSAH
 70
     0
  9
$DIMBLK1
  1

  9
$DIMBLK2
  1

  9
$DIMSTYLE
  2
STANDARD
  9
$DIMCLRD
 70
     0
  9
$DIMCLRE
 70
     0
  9
$DIMCLRT
 70
     0
  9
$DIMTFAC
 40
1.0
  9
$DIMGAP
 40
0.09
  9
$LUNITS
 70
     2
  9
$LUPREC
 70
     4
  9
$AXISMODE
 70
     0
  9
$AXISUNIT
 10
0.0
 20
0.0
  9
$SKETCHINC
 40
0.1
  9
$FILLETRAD
 40
0.0
  9
$AUNITS
 70
     0
  9
$AUPREC
 70
     0
  9
$MENU
  1
acad
  9
$ELEVATION
 40
0.0
  9
$PELEVATION
 40
0.0
  9
$THICKNESS
 40
0.0
  9
$LIMCHECK
 70
     0
  9
$BLIPMODE
 70
     1
  9
$CHAMFERA
 40
0.0
  9
$CHAMFERB
 40
0.0
  9
$SKPOLY
 70
     0
  9
$TDCREATE
 40
2453013.904814815
  9
$TDUPDATE
 40
2453013.904814815
  9
$TDINDWG
 40
0.0000000000
  9
$TDUSRTIMER
 40
0.0000000000
  9
$USRTIMER
 70
     1
  9
$ANGBASE
 50
0.0
  9
$ANGDIR
 70
     0
  9
$PDMODE
 70
     0
  9
$PDSIZE
 40
0.0
  9
$PLINEWID
 40
0.0
  9
$COORDS
 70
     0
  9
$SPLFRAME
 70
     0
  9
$SPLINETYPE
 70
     6
  9
$SPLINESEGS
 70
    10
  9
$ATTDIA
 70
     0
  9
$ATTREQ
 70
     1
  9
$HANDLING
 70
     1
  9
$HANDSEED
  5
1F0
  9
$SURFTAB1
 70
     6
  9
$SURFTAB2
 70
     6
  9
$SURFTYPE
 70
     6
  9
$SURFU
 70
     6
  9
$SURFV
 70
     6
  9
$UCSNAME
  2

  9
$UCSORG
 10
0.0
 20
0.0
 30
0.0
  9
$UCSXDIR
 10
1.0
 20
0.0
 30
0.0
  9
$UCSYDIR
 10
0.0
 20
1.0
 30
0.0
  9
$PUCSNAME
  2

  9
$PUCSORG
 10
0.0
 20
0.0
 30
0.0
  9
$PUCSXDIR
 10
1.0
 20
0.0
 30
0.0
  9
$PUCSYDIR
 10
0.0
 20
1.0
 30
0.0
  9
$USERI1
 70
     0
  9
$USERI2
 70
     0
  9
$USERI3
 70
     0
  9
$USERI4
 70
     0
  9
$USERI5
 70
     0
  9
$USERR1
 40
0.0
  9
$USERR2
 40
0.0
  9
$USERR3
 40
0.0
  9
$USERR4
 40
0.0
  9
$USERR5
 40
0.0
  9
$WORLDVIEW
 70
     1
  9
$SHADEDGE
 70
     3
  9
$SHADEDIF
 70
    70
  9
$TILEMODE
 70
     1
  9
$MAXACTVP
 70
    16
  9
$PINSBASE
 10
0.0
 20
0.0
 30
0.0
  9
$PLIMCHECK
 70
     0
  9
$PEXTMIN
 10
-1.000000E+20
 20
-1.000000E+20
 30
-1.000000E+20
  9
$PEXTMAX
 10
-1.000000E+20
 20
-1.000000E+20
 30
-1.000000E+20
  9
$PLIMMIN
 10
0.0
 20
0.0
  9
$PLIMMAX
 10
12.0
 20
9.0
  9
$UNITMODE
 70
     0
  9
$VISRETAIN
 70
     0
  9
$PLINEGEN
 70
     1
  9
$PSLTSCALE
 70
     0
  9
$TREEDEPTH
 70
  3020
  9
$DWGCODEPAGE
  3
ansi_1252
  0
ENDSEC
  0
SECTION
  2
TABLES
  0
TABLE
  2
VPORT
 70
     1
  0
VPORT
  2
*ACTIVE
 70
     0
 10
0.0
 20
0.0
 11
1.0
 21
1.0
 12
0.000014
 22
0.000085
 13
0.0
 23
0.0
 14
0.0
 24
0.0
 15
0.0
 25
0.0
 16
0.0
 26
0.0
 36
1.0
 17
346674117692.74103
 27
3120066208964.0723
 37
0.0
 40
5727.083177
 41
1.422757
 42
50.0
 43
0.004
 44
0.0
 50
0.0
 51
0.0
 71
     0
 72
   100
 73
     1
 74
     0
 75
     0
 76
     0
 77
     0
 78
     0
  0
ENDTAB
  0
TABLE
  2
LTYPE
 70
     7
  0
LTYPE
  2
CONTINUOUS
 70
     0
  3
Solid line
 72
    65
 73
     0
 40
0.0
  0
LTYPE
  2
DOT
 70
    64
  3
. . . . . . . . . . . . . . . . . . . . . . . . . . . . . . . . .
 72
    65
 73
     2
 40
0.25
 49
0.0
 49
-0.25
  0
LTYPE
  2
HIDDEN
 70
    64
  3
__ __ __ __ __ __ __ __ __ __ __ __ __ __ __ __ __ __ __ __ __ 
 72
    65
 73
     2
 40
0.375
 49
0.25
 49
-0.125
  0
LTYPE
  2
DASHED
 70
    64
  3
__ __ __ __ __ __ __ __ __ __ __ __ __ __ __ __ __ __ __ __ __
 72
    65
 73
     2
 40
0.75
 49
0.5
 49
-0.25
  0
LTYPE
  2
DASHDOT
 70
    64
  3
__ . __ . __ . __ . __ . __ . __ . __ . __ . __ . __ . __ . _
 72
    65
 73
     4
 40
1.0
 49
0.5
 49
-0.25
 49
0.0
 49
-0.25
  0
LTYPE
  2
DIVIDE
 70
    64
  3
____ . . ____ . . ____ . . ____ . . ____ . . ____ . . ____ . .
 72
    65
 73
     6
 40
1.25
 49
0.5
 49
-0.25
 49
0.0
 49
-0.25
 49
0.0
 49
-0.25
  0
LTYPE
  2
CENTER
 70
    64
  3
____ _ ____ _ ____ _ ____ _ ____ _ ____ _ ____ _ ____ _ ____ _
 72
    65
 73
     4
 40
2.0
 49
1.25
 49
-0.25
 49
0.25
 49
-0.25
  0
ENDTAB
  0
TABLE
  2
LAYER
 70
    15
  0
LAYER
  2
0
 70
     0
 62
     7
  6
CONTINUOUS
  0
LAYER
  2
CONSTRUCTION_CLASS
 70
     1
 62
     7
  6
CONTINUOUS
  0
LAYER
  2
PATTERN_CLASS
 70
     0
 62
     7
  6
CONTINUOUS
  0
LAYER
  2
10
 70
    64
 62
     7
  6
CONTINUOUS
  0
LAYER
  2
27
 70
    64
 62
     7
  6
CONTINUOUS
  0
LAYER
  2
6
 70
    64
 62
     7
  6
CONTINUOUS
  0
LAYER
  2
15
 70
    64
 62
     7
  6
CONTINUOUS
  0
LAYER
  2
19
 70
    64
 62
     7
  6
CONTINUOUS
  0
LAYER
  2
11
 70
    64
 62
     7
  6
CONTINUOUS
  0
LAYER
  2
DEFPOINTS
 70
    64
 62
     7
  6
CONTINUOUS
  0
LAYER
  2
1
 70
    64
 62
     7
  6
CONTINUOUS
  0
LAYER
  2
7
 70
    64
 62
     7
  6
CONTINUOUS
  0
LAYER
  2
21
 70
    64
 62
     7
  6
CONTINUOUS
  0
LAYER
  2
22
 70
    64
 62
     7
  6
CONTINUOUS
  0
LAYER
  2
8
 70
    64
 62
     7
  6
CONTINUOUS
  0
ENDTAB
  0
TABLE
  2
STYLE
 70
     4
  0
STYLE
  2
STANDARD
 70
     0
 40
0.0
 41
1.0
 50
0.0
 71
     0
 42
0.0
  3
txt
  4

  0
STYLE
  2
ROMANS
 70
     0
 40
0.2
 41
1.0
 50
0.0
 71
     0
 42
0.2
  3
ROMANS
  4

  0
STYLE
  2
ROMANC
 70
     0
 40
0.2
 41
1.0
 50
0.0
 71
     0
 42
0.2
  3
ROMANC
  4

  0
STYLE
  2
txt
 70
     0
 40
0.2
 41
1.0
 50
0.0
 71
     0
 42
0.2
  3
TXT
  4

  0
ENDTAB
  0
TABLE
  2
VIEW
 70
     0
  0
ENDTAB
  0
TABLE
  2
UCS
 70
     0
  0
ENDTAB
  0
TABLE
  2
APPID
 70
     1
  0
APPID
  2
ACAD
 70
     0
  0
ENDTAB
  0
TABLE
  2
DIMSTYLE
 70
     2
  0
DIMSTYLE
  2
STANDARD
 70
     0
  3

  4

  5

  6

  7

 40
1.0
 41
0.18
 42
0.0625
 43
0.38
 44
0.18
 45
0.0
 46
0.0
 47
0.0
 48
0.0
140
0.18
141
0.09
142
0.0
143
25.4
144
1.0
145
0.0
146
1.0
147
0.09
 71
     0
 72
     0
 73
     1
 74
     1
 75
     0
 76
     0
 77
     0
 78
     0
170
     0
171
     2
172
     0
173
     0
174
     0
175
     0
176
     0
177
     0
178
     0
  0
DIMSTYLE
  2
MSADIM
 70
     0
  3

  4

  5

  6

  7

 40
1.0
 41
8.0
 42
4.0
 43
0.0
 44
4.0
 45
0.0
 46
0.0
 47
0.0
 48
0.0
140
8.0
141
4.0
142
0.0
143
25.4
144
1.0
145
4.0
146
1.0
147
4.0
 71
     0
 72
     0
 73
     1
 74
     1
 75
     1
 76
     1
 77
     0
 78
     2
170
     0
171
     2
172
     0
173
     0
174
     0
175
     0
176
     0
177
     0
178
     0
  0
ENDTAB
  0
ENDSEC
  0
SECTION
  2
BLOCKS
  0
BLOCK
  8
11
  6
DASHDOT
 62
     7
  5
5F
  2
*D0
 70
     1
 10
0.0
 20
0.0
 30
0.0
  3
*N0
  0
TEXT
  8
11
  6
CONTINUOUS
 62
     7
  5
60
 10
346674115609.22705
 20
3120066208170.5479
 30
0.0
 40
8.0
  1
S70%%d15'28.51"E
 50
340.257919
  7
ROMANS
 72
     1
 11
346674115663.22595
 21
3120066208159.6685
 31
0.0
210
0.0
220
0.0
230
1.0
 73
     3
  0
TEXT
  8
11
  6
CONTINUOUS
 62
     7
  5
61
 10
346674115638.31903
 20
3120066208177.106
 30
0.0
 40
8.0
  1
1287.24'
 50
340.257919
  7
ROMANS
 72
     1
 11
346674115665.92792
 21
3120066208167.1978
 31
0.0
210
0.0
220
0.0
230
1.0
  0
ENDBLK
  8
11
  6
CONTINUOUS
 62
     7
  5
62
  0
BLOCK
  8
11
  6
DASHDOT
 62
     7
  5
65
  2
*D1
 70
     1
 10
0.0
 20
0.0
 30
0.0
  3
*N1
  0
TEXT
  8
11
  6
CONTINUOUS
 62
     7
  5
66
 10
346674116843.80304
 20
3120066207726.8901
 30
0.0
 40
8.0
  1
S70%%d15'28.46"E
 50
340.257906
  7
ROMANS
 72
     1
 11
346674116897.80194
 21
3120066207716.0103
 31
0.0
210
0.0
220
0.0
230
1.0
 73
     3
  0
TEXT
  8
11
  6
CONTINUOUS
 62
     7
  5
67
 10
346674116872.89606
 20
3120066207733.4478
 30
0.0
 40
8.0
  1
1324.01'
 50
340.257906
  7
ROMANS
 72
     1
 11
346674116900.50494
 21
3120066207723.5396
 31
0.0
210
0.0
220
0.0
230
1.0
  0
ENDBLK
  8
11
  6
CONTINUOUS
 62
     7
  5
68
  0
BLOCK
  8
11
  6
DASHDOT
 62
     7
  5
6C
  2
*D2
 70
     1
 10
0.0
 20
0.0
 30
0.0
  3
*N2
  0
TEXT
  8
11
  6
CONTINUOUS
 62
     7
  5
6D
 10
346674117576.80902
 20
3120066207463.7861
 30
0.0
 40
8.0
  1
S70%%d15'28.49"E
 50
340.257914
  7
ROMANS
 72
     1
 11
346674117630.80798
 21
3120066207452.9062
 31
0.0
210
0.0
220
0.0
230
1.0
 73
     3
  0
TEXT
  8
11
  6
CONTINUOUS
 62
     7
  5
6E
 10
346674117609.66602
 20
3120066207468.9941
 30
0.0
 40
8.0
  1
178.64'
 50
340.257914
  7
ROMANS
 72
     1
 11
346674117633.51001
 21
3120066207460.437
 31
0.0
210
0.0
220
0.0
230
1.0
  0
ENDBLK
  8
11
  6
CONTINUOUS
 62
     7
  5
6F
  0
BLOCK
  8
11
  6
DASHDOT
 62
     7
  5
72
  2
*D3
 70
     1
 10
0.0
 20
0.0
 30
0.0
  3
*N3
  0
TEXT
  8
11
  6
CONTINUOUS
 62
     7
  5
73
 10
346674119896.85803
 20
3120066206632.8911
 30
0.0
 40
8.0
  1
S70%%d15'28.51"E
 50
340.257919
  7
ROMANS
 72
     1
 11
346674119950.85699
 21
3120066206622.0112
 31
0.0
210
0.0
220
0.0
230
1.0
 73
     3
  0
TEXT
  8
11
  6
CONTINUOUS
 62
     7
  5
74
 10
346674119929.71503
 20
3120066206638.0991
 30
0.0
 40
8.0
  1
651.52'
 50
340.257919
  7
ROMANS
 72
     1
 11
346674119953.55902
 21
3120066206629.542
 31
0.0
210
0.0
220
0.0
230
1.0
  0
ENDBLK
  8
11
  6
CONTINUOUS
 62
     7
  5
75
  0
ENDSEC
  0
SECTION
  2
ENTITIES
  0
TEXT
  8
10
  6
CONTINUOUS
 62
   134
  5
2A
 10
346674117527.77002
 20
3120066211024.1987
 30
0.0
 40
13.999
  1
C-1
 50
358.1472
  7
ROMANS
 11
346674117528.22266
 21
3120066211038.1904
 31
0.0
210
0.0
220
0.0
230
1.0
 73
     3
  0
TEXT
  8
10
  6
CONTINUOUS
 62
   134
  5
2B
 10
346674120248.13306
 20
3120066211122.229
 30
0.0
 40
13.999
  1
A-2
 50
88.1472
  7
ROMANS
 11
346674120234.14136
 21
3120066211122.6816
 31
0.0
210
0.0
220
0.0
230
1.0
 73
     3
  0
TEXT
  8
10
  6
CONTINUOUS
 62
   134
  5
2C
 10
346674120171.21906
 20
3120066211135.1348
 30
0.0
 40
13.999
  1
A
 50
88.1472
  7
ROMANS
 11
346674120157.22736
 21
3120066211135.5874
 31
0.0
210
0.0
220
0.0
230
1.0
 73
     3
  0
TEXT
  8
10
  6
CONTINUOUS
 62
   134
  5
2D
 10
346674120097.94305
 20
3120066211122.624
 30
0.0
 40
13.999
  1
A-7
 50
88.1472
  7
ROMANS
 11
346674120083.95135
 21
3120066211123.0767
 31
0.0
210
0.0
220
0.0
230
1.0
 73
     3
  0
TEXT
  8
10
  6
CONTINUOUS
 62
   134
  5
2E
 10
346674120030.14001
 20
3120066211187.3198
 30
0.0
 40
13.999
  1
A-4
 50
88.1472
  7
ROMANS
 11
346674120016.14838
 21
3120066211187.7725
 31
0.0
210
0.0
220
0.0
230
1.0
 73
     3
  0
TEXT
  8
10
  6
CONTINUOUS
 62
   134
  5
2F
 10
346674119674.38104
 20
3120066211104.459
 30
0.0
 40
13.999
  1
A-6
 50
358.1472
  7
ROMANS
 11
346674119674.83362
 21
3120066211118.4507
 31
0.0
210
0.0
220
0.0
230
1.0
 73
     3
  0
TEXT
  8
10
  6
CONTINUOUS
 62
   134
  5
30
 10
346674119870.50104
 20
3120066211282.6528
 30
0.0
 40
13.999
  1
A-5
 50
358.1472
  7
ROMANS
 11
346674119870.95367
 21
3120066211296.6445
 31
0.0
210
0.0
220
0.0
230
1.0
 73
     3
  0
TEXT
  8
10
  6
CONTINUOUS
 62
   134
  5
31
 10
346674119907.81506
 20
3120066210689.1411
 30
0.0
 40
13.999
  1
A-1
 50
358.1472
  7
ROMANS
 11
346674119908.26764
 21
3120066210703.1328
 31
0.0
210
0.0
220
0.0
230
1.0
 73
     3
  0
TEXT
  8
10
  6
CONTINUOUS
 62
   134
  5
32
 10
346674120019.52106
 20
3120066210951.041
 30
0.0
 40
13.999
  1
A-3
 50
88.1472
  7
ROMANS
 11
346674120005.52936
 21
3120066210951.4937
 31
0.0
210
0.0
220
0.0
230
1.0
 73
     3
  0
TEXT
  8
10
  6
CONTINUOUS
 62
   134
  5
33
 10
346674116361.55103
 20
3120066207201.105
 30
0.0
 40
13.999
  1
SW/PT
 50
358.1472
  7
ROMANS
 11
346674116362.00366
 21
3120066207215.0967
 31
0.0
210
0.0
220
0.0
230
1.0
 73
     3
  0
TEXT
  8
10
  6
CONTINUOUS
 62
   134
  5
34
 10
346674118986.44403
 20
3120066209518.5737
 30
0.0
 40
13.999
  1
B
 50
358.1472
  7
ROMANS
 11
346674118986.89667
 21
3120066209532.5654
 31
0.0
210
0.0
220
0.0
230
1.0
 73
     3
  0
TEXT
  8
10
  6
CONTINUOUS
 62
   134
  5
35
 10
346674116908.92303
 20
3120066209571.9531
 30
0.0
 40
13.999
  1
C
 50
358.1472
  7
ROMANS
 11
346674116909.37567
 21
3120066209585.9448
 31
0.0
210
0.0
220
0.0
230
1.0
 73
     3
  0
TEXT
  8
10
  6
CONTINUOUS
 62
   134
  5
36
 10
346674119060.47705
 20
3120066207481.3911
 30
0.0
 40
13.999
  1
E
 50
358.1472
  7
ROMANS
 11
346674119060.92963
 21
3120066207495.3828
 31
0.0
210
0.0
220
0.0
230
1.0
 73
     3
  0
TEXT
  8
10
  6
CONTINUOUS
 62
   134
  5
37
 10
346674119946.81604
 20
3120066206363.5718
 30
0.0
 40
13.999
  1
TR 1
 50
358.1472
  7
ROMANS
 11
346674119947.26868
 21
3120066206377.5635
 31
0.0
210
0.0
220
0.0
230
1.0
 73
     3
  0
TEXT
  8
10
  6
CONTINUOUS
 62
   134
  5
38
 10
346674119551.53003
 20
3120066206441.8691
 30
0.0
 40
13.999
  1
TR 2
 50
358.1472
  7
ROMANS
 11
346674119551.98267
 21
3120066206455.8608
 31
0.0
210
0.0
220
0.0
230
1.0
 73
     3
  0
TEXT
  8
10
  6
CONTINUOUS
 62
   134
  5
39
 10
346674119390.63702
 20
3120066206449.5928
 30
0.0
 40
13.999
  1
TR 2-A
 50
358.1472
  7
ROMANS
 11
346674119391.08966
 21
3120066206463.5845
 31
0.0
210
0.0
220
0.0
230
1.0
 73
     3
  0
TEXT
  8
10
  6
CONTINUOUS
 62
   134
  5
3A
 10
346674118892.46906
 20
3120066206538.7769
 30
0.0
 40
13.999
  1
TR 3
 50
358.1472
  7
ROMANS
 11
346674118892.92163
 21
3120066206552.7686
 31
0.0
210
0.0
220
0.0
230
1.0
 73
     3
  0
TEXT
  8
10
  6
CONTINUOUS
 62
   134
  5
3B
 10
346674118324.93402
 20
3120066206662.9609
 30
0.0
 40
13.999
  1
TR 4
 50
358.1472
  7
ROMANS
 11
346674118325.38666
 21
3120066206676.9526
 31
0.0
210
0.0
220
0.0
230
1.0
 73
     3
  0
TEXT
  8
10
  6
CONTINUOUS
 62
   134
  5
3C
 10
346674117874.96301
 20
3120066206763.1841
 30
0.0
 40
13.999
  1
TR 5
 50
358.1472
  7
ROMANS
 11
346674117875.41565
 21
3120066206777.1758
 31
0.0
210
0.0
220
0.0
230
1.0
 73
     3
  0
TEXT
  8
10
  6
CONTINUOUS
 62
   134
  5
3D
 10
346674119237.20801
 20
3120066206454.5562
 30
0.0
 40
13.999
  1
TR 2-A-1
 50
358.1472
  7
ROMANS
 11
346674119237.66064
 21
3120066206468.5479
 31
0.0
210
0.0
220
0.0
230
1.0
 73
     3
  0
TEXT
  8
10
  6
CONTINUOUS
 62
   134
  5
3E
 10
346674117570.42206
 20
3120066206390.377
 30
0.0
 40
13.999
  1
TR 6
 50
358.1472
  7
ROMANS
 11
346674117570.87463
 21
3120066206404.3687
 31
0.0
210
0.0
220
0.0
230
1.0
 73
     3
  0
TEXT
  8
10
  6
CONTINUOUS
 62
   134
  5
3F
 10
346674117432.08502
 20
3120066206394.8521
 30
0.0
 40
13.999
  1
TR 7
 50
358.1472
  7
ROMANS
 11
346674117432.53766
 21
3120066206408.8437
 31
0.0
210
0.0
220
0.0
230
1.0
 73
     3
  0
TEXT
  8
10
  6
CONTINUOUS
 62
   134
  5
40
 10
346674117303.80902
 20
3120066206399.001
 30
0.0
 40
13.999
  1
TR 8
 50
358.1472
  7
ROMANS
 11
346674117304.26166
 21
3120066206412.9927
 31
0.0
210
0.0
220
0.0
230
1.0
 73
     3
  0
TEXT
  8
10
  6
CONTINUOUS
 62
   134
  5
41
 10
346674117188.02704
 20
3120066206400.2271
 30
0.0
 40
13.999
  1
TR 9
 50
358.1472
  7
ROMANS
 11
346674117188.47968
 21
3120066206414.2187
 31
0.0
210
0.0
220
0.0
230
1.0
 73
     3
  0
TEXT
  8
10
  6
CONTINUOUS
 62
   134
  5
42
 10
346674117142.01605
 20
3120066206335.0937
 30
0.0
 40
13.999
  1
TR 15
 50
88.1472
  7
ROMANS
 11
346674117128.02435
 21
3120066206335.5464
 31
0.0
210
0.0
220
0.0
230
1.0
 73
     3
  0
TEXT
  8
10
  6
CONTINUOUS
 62
   134
  5
43
 10
346674116994.19305
 20
3120066206401.458
 30
0.0
 40
13.999
  1
TR 14
 50
358.1472
  7
ROMANS
 11
346674116994.64563
 21
3120066206415.4497
 31
0.0
210
0.0
220
0.0
230
1.0
 73
     3
  0
TEXT
  8
10
  6
CONTINUOUS
 62
   134
  5
44
 10
346674116853.34003
 20
3120066206406.0151
 30
0.0
 40
13.999
  1
TR 12
 50
358.1472
  7
ROMANS
 11
346674116853.79266
 21
3120066206420.0068
 31
0.0
210
0.0
220
0.0
230
1.0
 73
     3
  0
TEXT
  8
10
  6
CONTINUOUS
 62
   134
  5
45
 10
346674116702.42706
 20
3120066206410.896
 30
0.0
 40
13.999
  1
TR 11
 50
358.1472
  7
ROMANS
 11
346674116702.87964
 21
3120066206424.8877
 31
0.0
210
0.0
220
0.0
230
1.0
 73
     3
  0
TEXT
  8
10
  6
CONTINUOUS
 62
   134
  5
46
 10
346674116551.51404
 20
3120066206415.7778
 30
0.0
 40
13.999
  1
TR 10
 50
358.1472
  7
ROMANS
 11
346674116551.96667
 21
3120066206429.7695
 31
0.0
210
0.0
220
0.0
230
1.0
 73
     3
  0
TEXT
  8
10
  6
CONTINUOUS
 62
   134
  5
47
 10
346674116405.63104
 20
3120066206420.4971
 30
0.0
 40
13.999
  1
TR 19
 50
358.1472
  7
ROMANS
 11
346674116406.08362
 21
3120066206434.4888
 31
0.0
210
0.0
220
0.0
230
1.0
 73
     3
  0
TEXT
  8
10
  6
CONTINUOUS
 62
   134
  5
48
 10
346674116262.26306
 20
3120066206425.1357
 30
0.0
 40
13.999
  1
TR 13
 50
358.1472
  7
ROMANS
 11
346674116262.71564
 21
3120066206439.1274
 31
0.0
210
0.0
220
0.0
230
1.0
 73
     3
  0
TEXT
  8
10
  6
CONTINUOUS
 62
   134
  5
49
 10
346674116033.37903
 20
3120066206432.5391
 30
0.0
 40
13.999
  1
TR 18
 50
358.1472
  7
ROMANS
 11
346674116033.83167
 21
3120066206446.5308
 31
0.0
210
0.0
220
0.0
230
1.0
 73
     3
  0
TEXT
  8
10
  6
CONTINUOUS
 62
   134
  5
4A
 10
346674115809.52405
 20
3120066206439.7808
 30
0.0
 40
13.999
  1
TR 16
 50
358.1472
  7
ROMANS
 11
346674115809.97662
 21
3120066206453.7725
 31
0.0
210
0.0
220
0.0
230
1.0
 73
     3
  0
TEXT
  8
10
  6
CONTINUOUS
 62
   134
  5
4B
 10
346674115658.61102
 20
3120066206444.6631
 30
0.0
 40
13.999
  1
TR 17
 50
358.1472
  7
ROMANS
 11
346674115659.06366
 21
3120066206458.6548
 31
0.0
210
0.0
220
0.0
230
1.0
 73
     3
  0
LINE
  8
27
  6
CONTINUOUS
 62
    32
  5
4D
 10
346674120265.91803
 20
3120066206459.5039
 30
0.0
 11
346674115043.62903
 21
3120066208328.915
 31
0.0
  0
LINE
  8
6
  6
CONTINUOUS
 62
     7
  5
4F
 10
346674120264.21906
 20
3120066206406.9897
 30
0.0
 11
346674115041.93103
 21
3120066208276.4009
 31
0.0
  0
LINE
  8
6
  6
CONTINUOUS
 62
     7
  5
50
 10
346674120267.61505
 20
3120066206511.9878
 30
0.0
 11
346674115045.32703
 21
3120066208381.3989
 31
0.0
  0
TEXT
  8
15
  6
CONTINUOUS
 62
    30
  5
53
 10
346674117306.54102
 20
3120066211317.0991
 30
0.0
 40
40.0
  1
JETLAND
 50
28.1472
  7
ROMANC
 72
     4
 11
346674117424.5686
 21
3120066211402.9272
 31
0.0
210
0.0
220
0.0
230
1.0
  0
TEXT
  8
15
  6
CONTINUOUS
 62
    30
  5
54
 10
346674117379.17102
 20
3120066211223.4058
 30
0.0
 40
40.0
  1
TERRACE
 50
28.1472
  7
ROMANC
 72
     4
 11
346674117499.69745
 21
3120066211310.5713
 31
0.0
210
0.0
220
0.0
230
1.0
  0
TEXT
  8
15
  6
CONTINUOUS
 62
    30
  5
55
 10
346674115260.47601
 20
3120066211334.7129
 30
0.0
 40
40.0
  1
JETLAND
 50
28.1472
  7
ROMANC
 72
     4
 11
346674115378.5036
 21
3120066211420.5415
 31
0.0
210
0.0
220
0.0
230
1.0
  0
TEXT
  8
15
  6
CONTINUOUS
 62
    30
  5
56
 10
346674115730.95306
 20
3120066211319.2539
 30
0.0
 40
40.0
  1
TERRACE
 50
28.1472
  7
ROMANC
 72
     4
 11
346674115851.47949
 21
3120066211406.4194
 31
0.0
210
0.0
220
0.0
230
1.0
  0
TEXT
  8
19
  6
CONTINUOUS
 62
     1
  5
58
 10
346674115043.54504
 20
3120066207507.647
 30
0.0
 40
24.0
  1
FARM ROAD 179 (INLER AVE.)
 50
88.1472
  7
ROMANC
 72
     4
 11
346674115041.82471
 21
3120066207825.6167
 31
0.0
210
0.0
220
0.0
230
1.0
  0
TEXT
  8
11
  6
CONTINUOUS
 62
     7
  5
5A
 10
346674115270.86005
 20
3120066211565.3809
 30
0.0
 40
8.0
  1
65'
 50
88.1472
  7
ROMANS
210
0.0
220
0.0
230
1.0
  0
TEXT
  8
11
  6
CONTINUOUS
 62
     7
  5
5B
 10
346674115213.39301
 20
3120066211126.9888
 30
0.0
 40
8.0
  1
50'
 50
88.1472
  7
ROMANS
210
0.0
220
0.0
230
1.0
  0
INSERT
  8
11
  6
DASHDOT
 62
     7
  5
63
  2
*D0
 10
346674115085.72406
 20
3120066208371.1719
 30
0.0
 70
     0
 71
     0
  0
INSERT
  8
11
  6
DASHDOT
 62
     7
  5
69
  2
*D1
 10
346674115095.65906
 20
3120066208367.0151
 30
0.0
 70
     0
 71
     0
  0
TEXT
  8
10
  6
CONTINUOUS
 62
   134
  5
6A
 10
346674117564.617
 20
3120066207683.2051
 30
0.0
 40
8.0
  1
481.61'
 50
88.1472
  7
ROMANS
210
0.0
220
0.0
230
1.0
  0
INSERT
  8
11
  6
DASHDOT
 62
     7
  5
70
  2
*D2
 10
346674115089.99005
 20
3120066208369.0068
 30
0.0
 70
     0
 71
     0
  0
INSERT
  8
11
  6
DASHDOT
 62
     7
  5
76
  2
*D3
 10
346674115068.62805
 20
3120066208378.3989
 30
0.0
 70
     0
 71
     0
  0
TEXT
  8
10
  6
CONTINUOUS
 62
   134
  5
77
 10
346674120399.58105
 20
3120066210671.7241
 30
0.0
 40
8.0
  1
410'
 50
88.1472
  7
ROMANS
210
0.0
220
0.0
230
1.0
  0
TEXT
  8
10
  6
CONTINUOUS
 62
   134
  5
78
 10
346674120299.68604
 20
3120066211118.5527
 30
0.0
 40
8.0
  1
480'
 50
88.1472
  7
ROMANS
210
0.0
220
0.0
230
1.0
  0
POLYLINE
  8
1
  6
HIDDEN
 62
   253
  5
7A
 66
     1
 10
0.0
 20
0.0
 30
0.0
 70
     1
  0
VERTEX
  8
1
  6
HIDDEN
 62
   253
  5
7B
 10
346674120423.21405
 20
3120066211456.9131
 30
0.0
  0
VERTEX
  8
1
  6
HIDDEN
 62
   253
  5
7C
 10
346674115130.13904
 20
3120066211617.9487
 30
0.0
  0
VERTEX
  8
1
  6
HIDDEN
 62
   253
  5
7D
 10
346674114962.26904
 20
3120066206336.6689
 30
0.0
  0
VERTEX
  8
1
  6
HIDDEN
 62
   253
  5
7E
 10
346674120251.88
 20
3120066206168.8428
 30
0.0
  0
SEQEND
  8
1
  6
HIDDEN
 62
   253
  5
7F
  0
TEXT
  8
11
  6
CONTINUOUS
 62
     7
  5
80
 10
346674115152.62903
 20
3120066211439.4277
 30
0.0
 40
8.0
  1
45'
 50
358.1472
  7
ROMANS
210
0.0
220
0.0
230
1.0
  0
TEXT
  8
11
  6
CONTINUOUS
 62
     7
  5
81
 10
346674115794.36102
 20
3120066211511.564
 30
0.0
 40
8.0
  1
122.05
 50
358.1472
  7
ROMANS
210
0.0
220
0.0
230
1.0
  0
TEXT
  8
11
  6
CONTINUOUS
 62
     7
  5
82
 10
346674115197.06604
 20
3120066211428.4399
 30
0.0
 40
8.0
  1
195
 50
88.1472
  7
ROMANS
210
0.0
220
0.0
230
1.0
  0
LINE
  8
7
  6
CONTINUOUS
 62
     7
  5
84
 10
346674115742.32104
 20
3120066211313.8872
 30
0.0
 11
346674115749.11005
 21
3120066211523.7769
 31
0.0
  0
LINE
  8
7
  6
CONTINUOUS
 62
     7
  5
85
 10
346674115864.30603
 20
3120066211309.9409
 30
0.0
 11
346674115871.09705
 21
3120066211519.8311
 31
0.0
  0
TEXT
  8
11
  6
CONTINUOUS
 62
     7
  5
86
 10
346674115667.66602
 20
3120066211515.6621
 30
0.0
 40
8.0
  1
107
 50
358.1472
  7
ROMANS
210
0.0
220
0.0
230
1.0
  0
TEXT
  8
11
  6
CONTINUOUS
 62
     7
  5
87
 10
346674115911.21503
 20
3120066211507.7832
 30
0.0
 40
8.0
  1
107
 50
358.1472
  7
ROMANS
210
0.0
220
0.0
230
1.0
  0
TEXT
  8
11
  6
CONTINUOUS
 62
     7
  5
88
 10
346674115655.14801
 20
3120066211319.0518
 30
0.0
 40
8.0
  1
122
 50
358.1472
  7
ROMANS
210
0.0
220
0.0
230
1.0
  0
TEXT
  8
11
  6
CONTINUOUS
 62
     7
  5
89
 10
346674115920.83905
 20
3120066211310.458
 30
0.0
 40
8.0
  1
122
 50
358.1472
  7
ROMANS
210
0.0
220
0.0
230
1.0
  0
LINE
  8
7
  6
CONTINUOUS
 62
     7
  5
8A
 10
346674115441.79803
 20
3120066211323.6079
 30
0.0
 11
346674115448.58801
 21
3120066211533.498
 31
0.0
  0
LINE
  8
7
  6
CONTINUOUS
 62
     7
  5
8B
 10
346674115313.17505
 20
3120066211327.769
 30
0.0
 11
346674115319.96503
 21
3120066211537.6592
 31
0.0
  0
TEXT
  8
11
  6
CONTINUOUS
 62
     7
  5
8C
 10
346674115571.00104
 20
3120066211416.3437
 30
0.0
 40
8.0
  1
195
 50
88.1472
  7
ROMANS
210
0.0
220
0.0
230
1.0
  0
TEXT
  8
11
  6
CONTINUOUS
 62
     7
  5
8D
 10
346674115633.73401
 20
3120066211414.3149
 30
0.0
 40
8.0
  1
195
 50
88.1472
  7
ROMANS
210
0.0
220
0.0
230
1.0
  0
TEXT
  8
11
  6
CONTINUOUS
 62
     7
  5
8E
 10
346674115986.75806
 20
3120066211402.895
 30
0.0
 40
8.0
  1
195
 50
88.1472
  7
ROMANS
210
0.0
220
0.0
230
1.0
  0
TEXT
  8
11
  6
CONTINUOUS
 62
     7
  5
8F
 10
346674115312.69006
 20
3120066211424.7002
 30
0.0
 40
8.0
  1
210
 50
88.1472
  7
ROMANS
210
0.0
220
0.0
230
1.0
  0
TEXT
  8
11
  6
CONTINUOUS
 62
     7
  5
90
 10
346674115443.07404
 20
3120066211420.4819
 30
0.0
 40
8.0
  1
210
 50
88.1472
  7
ROMANS
210
0.0
220
0.0
230
1.0
  0
TEXT
  8
11
  6
CONTINUOUS
 62
     7
  5
91
 10
346674115743.20801
 20
3120066211410.7729
 30
0.0
 40
8.0
  1
210
 50
88.1472
  7
ROMANS
210
0.0
220
0.0
230
1.0
  0
TEXT
  8
11
  6
CONTINUOUS
 62
     7
  5
92
 10
346674115866.21204
 20
3120066211406.7939
 30
0.0
 40
8.0
  1
210
 50
88.1472
  7
ROMANS
210
0.0
220
0.0
230
1.0
  0
TEXT
  8
11
  6
CONTINUOUS
 62
     7
  5
93
 10
346674115491.55103
 20
3120066211324.3437
 30
0.0
 40
8.0
  1
128.68
 50
358.1472
  7
ROMANS
210
0.0
220
0.0
230
1.0
  0
TEXT
  8
11
  6
CONTINUOUS
 62
     7
  5
94
 10
346674115224.63104
 20
3120066211332.979
 30
0.0
 40
8.0
  1
128.68
 50
358.1472
  7
ROMANS
210
0.0
220
0.0
230
1.0
  0
TEXT
  8
11
  6
CONTINUOUS
 62
     7
  5
95
 10
346674115366.30701
 20
3120066211525.5371
 30
0.0
 40
8.0
  1
128.69
 50
358.1472
  7
ROMANS
210
0.0
220
0.0
230
1.0
  0
TEXT
  8
11
  6
CONTINUOUS
 62
     7
  5
96
 10
346674115238.38202
 20
3120066211529.6748
 30
0.0
 40
8.0
  1
113.68
 50
358.1472
  7
ROMANS
210
0.0
220
0.0
230
1.0
  0
TEXT
  8
11
  6
CONTINUOUS
 62
     7
  5
97
 10
346674116210.19305
 20
3120066211498.1128
 30
0.0
 40
8.0
  1
122.05
 50
358.1472
  7
ROMANS
210
0.0
220
0.0
230
1.0
  0
LINE
  8
7
  6
CONTINUOUS
 62
     7
  5
98
 10
346674116158.15302
 20
3120066211300.4351
 30
0.0
 11
346674116164.94305
 21
3120066211510.3252
 31
0.0
  0
LINE
  8
7
  6
CONTINUOUS
 62
     7
  5
99
 10
346674116280.14001
 20
3120066211296.4888
 30
0.0
 11
346674116286.92902
 21
3120066211506.3789
 31
0.0
  0
TEXT
  8
11
  6
CONTINUOUS
 62
     7
  5
9A
 10
346674116083.49805
 20
3120066211502.2109
 30
0.0
 40
8.0
  1
107
 50
358.1472
  7
ROMANS
210
0.0
220
0.0
230
1.0
  0
TEXT
  8
11
  6
CONTINUOUS
 62
     7
  5
9B
 10
346674116327.04803
 20
3120066211494.332
 30
0.0
 40
8.0
  1
107
 50
358.1472
  7
ROMANS
210
0.0
220
0.0
230
1.0
  0
TEXT
  8
11
  6
CONTINUOUS
 62
     7
  5
9C
 10
346674116070.98004
 20
3120066211305.6011
 30
0.0
 40
8.0
  1
122
 50
358.1472
  7
ROMANS
210
0.0
220
0.0
230
1.0
  0
TEXT
  8
11
  6
CONTINUOUS
 62
     7
  5
9D
 10
346674116336.67102
 20
3120066211297.0049
 30
0.0
 40
8.0
  1
122
 50
358.1472
  7
ROMANS
210
0.0
220
0.0
230
1.0
  0
TEXT
  8
11
  6
CONTINUOUS
 62
     7
  5
9E
 10
346674116049.56702
 20
3120066211400.8628
 30
0.0
 40
8.0
  1
195
 50
88.1472
  7
ROMANS
210
0.0
220
0.0
230
1.0
  0
TEXT
  8
11
  6
CONTINUOUS
 62
     7
  5
9F
 10
346674116402.591
 20
3120066211389.4429
 30
0.0
 40
8.0
  1
195
 50
88.1472
  7
ROMANS
210
0.0
220
0.0
230
1.0
  0
TEXT
  8
11
  6
CONTINUOUS
 62
     7
  5
A0
 10
346674116159.04004
 20
3120066211397.3208
 30
0.0
 40
8.0
  1
210
 50
88.1472
  7
ROMANS
210
0.0
220
0.0
230
1.0
  0
TEXT
  8
11
  6
CONTINUOUS
 62
     7
  5
A1
 10
346674116282.04504
 20
3120066211393.3418
 30
0.0
 40
8.0
  1
210
 50
88.1472
  7
ROMANS
210
0.0
220
0.0
230
1.0
  0
LINE
  8
7
  6
CONTINUOUS
 62
     7
  5
A2
 10
346674117405.23401
 20
3120066211260.1118
 30
0.0
 11
346674117412.02502
 21
3120066211470.002
 31
0.0
  0
LINE
  8
7
  6
CONTINUOUS
 62
     7
  5
A3
 10
346674117525.52203
 20
3120066211256.2212
 30
0.0
 11
346674117532.31104
 21
3120066211466.1108
 31
0.0
  0
LINE
  8
7
  6
CONTINUOUS
 62
     7
  5
A4
 10
346674115441.15204
 20
3120066211303.6191
 30
0.0
 11
346674115436.30206
 21
3120066211153.6978
 31
0.0
  0
LINE
  8
7
  6
CONTINUOUS
 62
     7
  5
A5
 10
346674115312.52905
 20
3120066211307.7798
 30
0.0
 11
346674115307.67902
 21
3120066211157.8579
 31
0.0
  0
TEXT
  8
11
  6
CONTINUOUS
 62
     7
  5
A6
 10
346674115223.50806
 20
3120066211298.2412
 30
0.0
 40
8.0
  1
128.68
 50
358.1472
  7
ROMANS
210
0.0
220
0.0
230
1.0
  0
TEXT
  8
11
  6
CONTINUOUS
 62
     7
  5
A7
 10
346674115489.43701
 20
3120066211289.6392
 30
0.0
 40
8.0
  1
128.68
 50
358.1472
  7
ROMANS
210
0.0
220
0.0
230
1.0
  0
TEXT
  8
11
  6
CONTINUOUS
 62
     7
  5
A8
 10
346674115489.15601
 20
3120066211521.563
 30
0.0
 40
8.0
  1
113.68
 50
358.1472
  7
ROMANS
210
0.0
220
0.0
230
1.0
  0
TEXT
  8
11
  6
CONTINUOUS
 62
     7
  5
A9
 10
346674115480.06903
 20
3120066211155.375
 30
0.0
 40
8.0
  1
113.68
 50
358.1472
  7
ROMANS
210
0.0
220
0.0
230
1.0
  0
TEXT
  8
11
  6
CONTINUOUS
 62
     7
  5
AA
 10
346674115218.27301
 20
3120066211163.8437
 30
0.0
 40
8.0
  1
113.68
 50
358.1472
  7
ROMANS
210
0.0
220
0.0
230
1.0
  0
TEXT
  8
11
  6
CONTINUOUS
 62
     7
  5
AB
 10
346674115348.90906
 20
3120066211158.2788
 30
0.0
 40
8.0
  1
128.69
 50
358.1472
  7
ROMANS
210
0.0
220
0.0
230
1.0
  0
TEXT
  8
11
  6
CONTINUOUS
 62
     7
  5
AC
 10
346674115193.25201
 20
3120066211225.2588
 30
0.0
 40
8.0
  1
138
 50
88.1472
  7
ROMANS
210
0.0
220
0.0
230
1.0
  0
TEXT
  8
11
  6
CONTINUOUS
 62
     7
  5
AD
 10
346674115562.56604
 20
3120066211214.6509
 30
0.0
 40
8.0
  1
138
 50
88.1472
  7
ROMANS
210
0.0
220
0.0
230
1.0
  0
TEXT
  8
11
  6
CONTINUOUS
 62
     7
  5
AE
 10
346674115435.80206
 20
3120066211218.751
 30
0.0
 40
8.0
  1
150
 50
88.1472
  7
ROMANS
210
0.0
220
0.0
230
1.0
  0
TEXT
  8
11
  6
CONTINUOUS
 62
     7
  5
AF
 10
346674115306.23804
 20
3120066211221.604
 30
0.0
 40
8.0
  1
150
 50
88.1472
  7
ROMANS
210
0.0
220
0.0
230
1.0
  0
TEXT
  8
10
  6
CONTINUOUS
 62
   134
  5
B0
 10
346674117583.47205
 20
3120066211353.1558
 30
0.0
 40
13.999
  1
1
 50
358.1472
  7
ROMANS
 11
346674117583.92462
 21
3120066211367.1475
 31
0.0
210
0.0
220
0.0
230
1.0
 73
     3
  0
TEXT
  8
10
  6
CONTINUOUS
 62
   134
  5
B1
 10
346674117462.22003
 20
3120066211357.0781
 30
0.0
 40
13.999
  1
2
 50
358.1472
  7
ROMANS
 11
346674117462.67267
 21
3120066211371.0698
 31
0.0
210
0.0
220
0.0
230
1.0
 73
     3
  0
TEXT
  8
10
  6
CONTINUOUS
 62
   134
  5
B2
 10
346674117346.47705
 20
3120066211360.8218
 30
0.0
 40
13.999
  1
3
 50
358.1472
  7
ROMANS
 11
346674117346.92963
 21
3120066211374.8135
 31
0.0
210
0.0
220
0.0
230
1.0
 73
     3
  0
TEXT
  8
10
  6
CONTINUOUS
 62
   134
  5
B3
 10
346674116336.63806
 20
3120066211393.4712
 30
0.0
 40
13.999
  1
10
 50
358.1472
  7
ROMANS
 11
346674116337.09064
 21
3120066211407.4629
 31
0.0
210
0.0
220
0.0
230
1.0
 73
     3
  0
TEXT
  8
10
  6
CONTINUOUS
 62
   134
  5
B4
 10
346674116220.89606
 20
3120066211397.2158
 30
0.0
 40
13.999
  1
11
 50
358.1472
  7
ROMANS
 11
346674116221.34863
 21
3120066211411.2075
 31
0.0
210
0.0
220
0.0
230
1.0
 73
     3
  0
TEXT
  8
10
  6
CONTINUOUS
 62
   134
  5
B5
 10
346674116094.13104
 20
3120066211401.3159
 30
0.0
 40
13.999
  1
12
 50
358.1472
  7
ROMANS
 11
346674116094.58362
 21
3120066211415.3076
 31
0.0
210
0.0
220
0.0
230
1.0
 73
     3
  0
TEXT
  8
10
  6
CONTINUOUS
 62
   134
  5
B6
 10
346674115923.27502
 20
3120066211406.8428
 30
0.0
 40
13.999
  1
13
 50
358.1472
  7
ROMANS
 11
346674115923.72766
 21
3120066211420.8345
 31
0.0
210
0.0
220
0.0
230
1.0
 73
     3
  0
TEXT
  8
10
  6
CONTINUOUS
 62
   134
  5
B7
 10
346674115802.02106
 20
3120066211410.7651
 30
0.0
 40
13.999
  1
14
 50
358.1472
  7
ROMANS
 11
346674115802.47363
 21
3120066211424.7568
 31
0.0
210
0.0
220
0.0
230
1.0
 73
     3
  0
TEXT
  8
10
  6
CONTINUOUS
 62
   134
  5
B8
 10
346674115675.25702
 20
3120066211414.8662
 30
0.0
 40
13.999
  1
15
 50
358.1472
  7
ROMANS
 11
346674115675.70966
 21
3120066211428.8574
 31
0.0
210
0.0
220
0.0
230
1.0
 73
     3
  0
TEXT
  8
10
  6
CONTINUOUS
 62
   134
  5
B9
 10
346674115498.88806
 20
3120066211420.5718
 30
0.0
 40
13.999
  1
16
 50
358.1472
  7
ROMANS
 11
346674115499.34064
 21
3120066211434.5635
 31
0.0
210
0.0
220
0.0
230
1.0
 73
     3
  0
TEXT
  8
10
  6
CONTINUOUS
 62
   134
  5
BA
 10
346674115366.61304
 20
3120066211424.8511
 30
0.0
 40
13.999
  1
17
 50
358.1472
  7
ROMANS
 11
346674115367.06567
 21
3120066211438.8428
 31
0.0
210
0.0
220
0.0
230
1.0
 73
     3
  0
TEXT
  8
10
  6
CONTINUOUS
 62
   134
  5
BB
 10
346674115239.84705
 20
3120066211428.9512
 30
0.0
 40
13.999
  1
18
 50
358.1472
  7
ROMANS
 11
346674115240.29962
 21
3120066211442.9429
 31
0.0
210
0.0
220
0.0
230
1.0
 73
     3
  0
TEXT
  8
10
  6
CONTINUOUS
 62
   134
  5
BC
 10
346674115233.27704
 20
3120066211225.8608
 30
0.0
 40
13.999
  1
19
 50
358.1472
  7
ROMANS
 11
346674115233.72968
 21
3120066211239.8525
 31
0.0
210
0.0
220
0.0
230
1.0
 73
     3
  0
TEXT
  8
10
  6
CONTINUOUS
 62
   134
  5
BD
 10
346674115371.06506
 20
3120066211221.4038
 30
0.0
 40
13.999
  1
20
 50
358.1472
  7
ROMANS
 11
346674115371.51764
 21
3120066211235.3955
 31
0.0
210
0.0
220
0.0
230
1.0
 73
     3
  0
TEXT
  8
10
  6
CONTINUOUS
 62
   134
  5
BE
 10
346674115492.31805
 20
3120066211217.481
 30
0.0
 40
13.999
  1
21
 50
358.1472
  7
ROMANS
 11
346674115492.77063
 21
3120066211231.4727
 31
0.0
210
0.0
220
0.0
230
1.0
 73
     3
  0
TEXT
  8
11
  6
CONTINUOUS
 62
     7
  5
BF
 10
346674117297.37006
 20
3120066211360.5161
 30
0.0
 40
8.0
  1
195
 50
88.1472
  7
ROMANS
210
0.0
220
0.0
230
1.0
  0
TEXT
  8
11
  6
CONTINUOUS
 62
     7
  5
C0
 10
346674117646.55103
 20
3120066211349.2202
 30
0.0
 40
8.0
  1
195
 50
88.1472
  7
ROMANS
210
0.0
220
0.0
230
1.0
  0
TEXT
  8
11
  6
CONTINUOUS
 62
     7
  5
C1
 10
346674117418.15802
 20
3120066211356.6079
 30
0.0
 40
8.0
  1
210
 50
88.1472
  7
ROMANS
210
0.0
220
0.0
230
1.0
  0
TEXT
  8
11
  6
CONTINUOUS
 62
     7
  5
C2
 10
346674117538.38202
 20
3120066211352.7202
 30
0.0
 40
8.0
  1
210
 50
88.1472
  7
ROMANS
210
0.0
220
0.0
230
1.0
  0
TEXT
  8
11
  6
CONTINUOUS
 62
     7
  5
C3
 10
346674117345.58606
 20
3120066211461.4009
 30
0.0
 40
8.0
  1
105.35
 50
358.1472
  7
ROMANS
210
0.0
220
0.0
230
1.0
  0
TEXT
  8
11
  6
CONTINUOUS
 62
     7
  5
C4
 10
346674117567.47205
 20
3120066211454.2241
 30
0.0
 40
8.0
  1
105.35
 50
358.1472
  7
ROMANS
210
0.0
220
0.0
230
1.0
  0
TEXT
  8
11
  6
CONTINUOUS
 62
     7
  5
C5
 10
346674117445.48004
 20
3120066211458.1699
 30
0.0
 40
8.0
  1
120.35
 50
358.1472
  7
ROMANS
210
0.0
220
0.0
230
1.0
  0
TEXT
  8
11
  6
CONTINUOUS
 62
     7
  5
C6
 10
346674117315.34003
 20
3120066211265.0122
 30
0.0
 40
8.0
  1
120.35
 50
358.1472
  7
ROMANS
210
0.0
220
0.0
230
1.0
  0
TEXT
  8
11
  6
CONTINUOUS
 62
     7
  5
C7
 10
346674117566.39801
 20
3120066211256.8911
 30
0.0
 40
8.0
  1
120.35
 50
358.1472
  7
ROMANS
210
0.0
220
0.0
230
1.0
  0
TEXT
  8
11
  6
CONTINUOUS
 62
     7
  5
C8
 10
346674117636.84601
 20
3120066211235.9712
 30
0.0
 40
8.0
  1
20
 50
88.1472
  7
ROMANS
210
0.0
220
0.0
230
1.0
  0
TEXT
  8
11
  6
CONTINUOUS
 62
     7
  5
C9
 10
346674117318.604
 20
3120066211246.2651
 30
0.0
 40
8.0
  1
20
 50
88.1472
  7
ROMANS
210
0.0
220
0.0
230
1.0
  0
TEXT
  8
11
  6
CONTINUOUS
 62
     7
  5
CA
 10
346674116355.57104
 20
3120066211277.4009
 30
0.0
 40
8.0
  1
20
 50
88.1472
  7
ROMANS
210
0.0
220
0.0
230
1.0
  0
TEXT
  8
11
  6
CONTINUOUS
 62
     7
  5
CB
 10
346674116079.76105
 20
3120066211286.3218
 30
0.0
 40
8.0
  1
20
 50
88.1472
  7
ROMANS
210
0.0
220
0.0
230
1.0
  0
TEXT
  8
11
  6
CONTINUOUS
 62
     7
  5
CC
 10
346674115941.85602
 20
3120066211290.7842
 30
0.0
 40
8.0
  1
20
 50
88.1472
  7
ROMANS
210
0.0
220
0.0
230
1.0
  0
TEXT
  8
11
  6
CONTINUOUS
 62
     7
  5
CD
 10
346674115658.97302
 20
3120066211299.9351
 30
0.0
 40
8.0
  1
20
 50
88.1472
  7
ROMANS
210
0.0
220
0.0
230
1.0
  0
TEXT
  8
11
  6
CONTINUOUS
 62
     7
  5
CE
 10
346674115535.21301
 20
3120066211303.937
 30
0.0
 40
8.0
  1
20
 50
88.1472
  7
ROMANS
210
0.0
220
0.0
230
1.0
  0
TEXT
  8
11
  6
CONTINUOUS
 62
     7
  5
CF
 10
346674115227.57806
 20
3120066211313.8901
 30
0.0
 40
8.0
  1
20
 50
88.1472
  7
ROMANS
210
0.0
220
0.0
230
1.0
  0
TEXT
  8
11
  6
CONTINUOUS
 62
     7
  5
D0
 10
346674116010.79901
 20
3120066211489.9741
 30
0.0
 40
8.0
  1
50
 50
358.1472
  7
ROMANS
210
0.0
220
0.0
230
1.0
  0
TEXT
  8
11
  6
CONTINUOUS
 62
     7
  5
D1
 10
346674115593.54901
 20
3120066211503.4722
 30
0.0
 40
8.0
  1
50
 50
358.1472
  7
ROMANS
210
0.0
220
0.0
230
1.0
  0
TEXT
  8
11
  6
CONTINUOUS
 62
     7
  5
D2
 10
346674115147.87701
 20
3120066211181.3091
 30
0.0
 40
8.0
  1
45'
 50
358.1472
  7
ROMANS
210
0.0
220
0.0
230
1.0
  0
TEXT
  8
11
  6
CONTINUOUS
 62
     7
  5
D3
 10
346674115143.52606
 20
3120066211120.9541
 30
0.0
 40
8.0
  1
40'
 50
358.1472
  7
ROMANS
210
0.0
220
0.0
230
1.0
  0
TEXT
  8
19
  6
CONTINUOUS
 62
     1
  5
D4
 10
346674115605.14502
 20
3120066211189.061
 30
0.0
 40
24.0
  1
HARMONY AVE
 50
88.1472
  7
ROMANC
 72
     4
 11
346674115598.12146
 21
3120066211343.0928
 31
0.0
210
0.0
220
0.0
230
1.0
  0
TEXT
  8
19
  6
CONTINUOUS
 62
     1
  5
D5
 10
346674117672.88605
 20
3120066211267.0249
 30
0.0
 40
24.0
  1
EATON
 50
88.1472
  7
ROMANC
 72
     4
 11
346674117662.94513
 21
3120066211330.8716
 31
0.0
210
0.0
220
0.0
230
1.0
  0
TEXT
  8
19
  6
CONTINUOUS
 62
     1
  5
D6
 10
346674117270.21906
 20
3120066211261.6519
 30
0.0
 40
24.0
  1
FAIRBANK
 50
88.1472
  7
ROMANC
 72
     4
 11
346674117261.52753
 21
3120066211364.1226
 31
0.0
210
0.0
220
0.0
230
1.0
  0
TEXT
  8
19
  6
CONTINUOUS
 62
     1
  5
D7
 10
346674116440.39404
 20
3120066211302.7979
 30
0.0
 40
24.0
  1
GATLAND
 50
88.1472
  7
ROMANC
 72
     4
 11
346674116431.36951
 21
3120066211394.9741
 31
0.0
210
0.0
220
0.0
230
1.0
  0
TEXT
  8
19
  6
CONTINUOUS
 62
     1
  5
D8
 10
346674116020.04004
 20
3120066211315.4067
 30
0.0
 40
24.0
  1
HALL
 50
88.1472
  7
ROMANC
 72
     4
 11
346674116009.67755
 21
3120066211366.2227
 31
0.0
210
0.0
220
0.0
230
1.0
  0
TEXT
  8
15
  6
CONTINUOUS
 62
    30
  5
D9
 10
346674119507.50104
 20
3120066210993.5562
 30
0.0
 40
40.0
  1
McFADDEN WEST
 50
28.1472
  7
ROMANC
 72
     4
 11
346674119754.24127
 21
3120066211148.2466
 31
0.0
210
0.0
220
0.0
230
1.0
  0
LINE
  8
6
  6
CONTINUOUS
 62
     7
  5
DA
 10
346674119468.73804
 20
3120066211403.4687
 30
0.0
 11
346674120294.37805
 21
3120066211376.7642
 31
0.0
  0
LINE
  8
6
  6
CONTINUOUS
 62
     7
  5
DB
 10
346674119452.35004
 20
3120066210922.1182
 30
0.0
 11
346674119967.02002
 21
3120066210905.4687
 31
0.0
  0
LINE
  8
6
  6
CONTINUOUS
 62
     7
  5
DC
 10
346674119976.604
 20
3120066211186.937
 30
0.0
 11
346674119776.70905
 21
3120066211193.4028
 31
0.0
  0
LINE
  8
7
  6
CONTINUOUS
 62
     7
  5
DD
 10
346674119776.70905
 20
3120066211193.4028
 30
0.0
 11
346674119566.85803
 21
3120066211200.1909
 31
0.0
  0
LINE
  8
7
  6
CONTINUOUS
 62
     7
  5
DE
 10
346674119566.85803
 20
3120066211200.1909
 30
0.0
 11
346674119573.67603
 21
3120066211400.4312
 31
0.0
  0
LINE
  8
7
  6
CONTINUOUS
 62
     7
  5
DF
 10
346674119671.78906
 20
3120066211196.9741
 30
0.0
 11
346674119678.59406
 21
3120066211396.8599
 31
0.0
  0
LINE
  8
6
  6
CONTINUOUS
 62
     7
  5
E0
 10
346674119776.70905
 20
3120066211193.4028
 30
0.0
 11
346674119783.51404
 21
3120066211393.2871
 31
0.0
  0
TEXT
  8
11
  6
CONTINUOUS
 62
     7
  5
E1
 10
346674119502.57104
 20
3120066211392.3691
 30
0.0
 40
8.0
  1
104.98'
 50
358.1472
  7
ROMANS
 72
     1
 11
346674119528.15045
 21
3120066211399.5459
 31
0.0
210
0.0
220
0.0
230
1.0
 73
     3
  0
TEXT
  8
11
  6
CONTINUOUS
 62
     7
  5
E2
 10
346674119602.77106
 20
3120066211389.1279
 30
0.0
 40
8.0
  1
104.98'
 50
358.1472
  7
ROMANS
 72
     1
 11
346674119628.35046
 21
3120066211396.3047
 31
0.0
210
0.0
220
0.0
230
1.0
 73
     3
  0
TEXT
  8
11
  6
CONTINUOUS
 62
     7
  5
E3
 10
346674119706.89905
 20
3120066211385.7588
 30
0.0
 40
8.0
  1
104.98'
 50
358.1472
  7
ROMANS
 72
     1
 11
346674119732.47845
 21
3120066211392.9355
 31
0.0
210
0.0
220
0.0
230
1.0
 73
     3
  0
TEXT
  8
11
  6
CONTINUOUS
 62
     7
  5
E4
 10
346674119567.54401
 20
3120066211279.1079
 30
0.0
 40
8.0
  1
200'
 50
88.049969
  7
ROMANS
 72
     1
 11
346674119567.99774
 21
3120066211292.4331
 31
0.0
210
0.0
220
0.0
230
1.0
  0
TEXT
  8
11
  6
CONTINUOUS
 62
     7
  5
E5
 10
346674119672.53503
 20
3120066211277.6821
 30
0.0
 40
8.0
  1
200'
 50
88.050083
  7
ROMANS
 72
     1
 11
346674119672.98871
 21
3120066211291.0083
 31
0.0
210
0.0
220
0.0
230
1.0
  0
TEXT
  8
11
  6
CONTINUOUS
 62
     7
  5
E6
 10
346674119777.32703
 20
3120066211270.3608
 30
0.0
 40
8.0
  1
200'
 50
88.050083
  7
ROMANS
 72
     1
 11
346674119777.78076
 21
3120066211283.687
 31
0.0
210
0.0
220
0.0
230
1.0
  0
TEXT
  8
11
  6
CONTINUOUS
 62
     7
  5
E7
 10
346674119588.83301
 20
3120066211201.481
 30
0.0
 40
8.0
  1
104.98'
 50
358.1472
  7
ROMANS
 72
     1
 11
346674119614.15381
 21
3120066211200.6621
 31
0.0
210
0.0
220
0.0
230
1.0
  0
TEXT
  8
11
  6
CONTINUOUS
 62
     7
  5
E8
 10
346674119700.82104
 20
3120066211197.8589
 30
0.0
 40
8.0
  1
104.98'
 50
358.1472
  7
ROMANS
 72
     1
 11
346674119726.14178
 21
3120066211197.04
 31
0.0
210
0.0
220
0.0
230
1.0
  0
TEXT
  8
11
  6
CONTINUOUS
 62
     7
  5
E9
 10
346674119872.72406
 20
3120066211194.7891
 30
0.0
 40
8.0
  1
200'
 50
358.1472
  7
ROMANS
 72
     1
 11
346674119886.30969
 21
3120066211202.3535
 31
0.0
210
0.0
220
0.0
230
1.0
 73
     3
  0
TEXT
  8
11
  6
CONTINUOUS
 62
     7
  5
EA
 10
346674119468.91705
 20
3120066211114.8237
 30
0.0
 40
8.0
  1
481.63'
 50
88.050008
  7
ROMANS
 72
     1
 11
346674119461.78369
 21
3120066211140.4155
 31
0.0
210
0.0
220
0.0
230
1.0
 73
     3
  0
LINE
  8
21
  6
DASHDOT
 62
     7
  5
EC
 10
346674119957.02704
 20
3120066210905.8101
 30
0.0
 11
346674119966.61005
 21
3120066211187.2769
 31
0.0
  0
TEXT
  8
11
  6
CONTINUOUS
 62
     7
  5
ED
 10
346674119968.85101
 20
3120066211017.9858
 30
0.0
 40
8.0
  1
281.63'
 50
88.049953
  7
ROMANS
 72
     1
 11
346674119969.71307
 21
3120066211043.3052
 31
0.0
210
0.0
220
0.0
230
1.0
  0
TEXT
  8
22
  6
CONTINUOUS
 62
     3
  5
EF
 10
346674119955.14502
 20
3120066210911.3149
 30
0.0
 40
8.0
  1
10' ROW EASEMENT
 50
88.049953
  7
ROMANS
 72
     1
 11
346674119957.27747
 21
3120066210973.9448
 31
0.0
210
0.0
220
0.0
230
1.0
  0
TEXT
  8
10
  6
CONTINUOUS
 62
   134
  5
F0
 10
346674119620.92902
 20
3120066211288.5249
 30
0.0
 40
13.999
  1
2
 50
358.1472
  7
ROMANS
 11
346674119621.38165
 21
3120066211302.5166
 31
0.0
210
0.0
220
0.0
230
1.0
 73
     3
  0
TEXT
  8
10
  6
CONTINUOUS
 62
   134
  5
F1
 10
346674119719.16406
 20
3120066211285.3472
 30
0.0
 40
13.999
  1
3
 50
358.1472
  7
ROMANS
 11
346674119719.61664
 21
3120066211299.3389
 31
0.0
210
0.0
220
0.0
230
1.0
 73
     3
  0
TEXT
  8
10
  6
CONTINUOUS
 62
   134
  5
F2
 10
346674119711.40503
 20
3120066211045.522
 30
0.0
 40
13.999
  1
1
 50
358.1472
  7
ROMANS
 11
346674119711.85767
 21
3120066211059.5137
 31
0.0
210
0.0
220
0.0
230
1.0
 73
     3
  0
TEXT
  8
11
  6
CONTINUOUS
 62
     7
  5
F3
 10
346674120305.11102
 20
3120066211333.3818
 30
0.0
 40
8.0
  1
68'
 50
88.050083
  7
ROMANS
 72
     1
 11
346674120305.42865
 21
3120066211342.7104
 31
0.0
210
0.0
220
0.0
230
1.0
  0
TEXT
  8
11
  6
CONTINUOUS
 62
     7
  5
F4
 10
346674120365.40906
 20
3120066211307.0181
 30
0.0
 40
8.0
  1
37.95'
 50
88.050083
  7
ROMANS
 72
     1
 11
346674120366.13495
 21
3120066211328.3398
 31
0.0
210
0.0
220
0.0
230
1.0
  0
TEXT
  8
11
  6
CONTINUOUS
 62
     7
  5
F5
 10
346674120364.77502
 20
3120066211286.7881
 30
0.0
 40
8.0
  1
25'
 50
88.050083
  7
ROMANS
 72
     1
 11
346674120365.09265
 21
3120066211296.1167
 31
0.0
210
0.0
220
0.0
230
1.0
  0
TEXT
  8
11
  6
CONTINUOUS
 62
     7
  5
F6
 10
346674120363.92004
 20
3120066211260.3491
 30
0.0
 40
8.0
  1
25'
 50
88.050083
  7
ROMANS
 72
     1
 11
346674120364.23761
 21
3120066211269.6777
 31
0.0
210
0.0
220
0.0
230
1.0
  0
TEXT
  8
11
  6
CONTINUOUS
 62
     7
  5
F7
 10
346674120363.091
 20
3120066211234.7358
 30
0.0
 40
8.0
  1
25'
 50
88.050083
  7
ROMANS
 72
     1
 11
346674120363.40863
 21
3120066211244.0645
 31
0.0
210
0.0
220
0.0
230
1.0
  0
TEXT
  8
11
  6
CONTINUOUS
 62
     7
  5
F8
 10
346674120362.29004
 20
3120066211209.9487
 30
0.0
 40
8.0
  1
25'
 50
88.050083
  7
ROMANS
 72
     1
 11
346674120362.6076
 21
3120066211219.2773
 31
0.0
210
0.0
220
0.0
230
1.0
  0
TEXT
  8
11
  6
CONTINUOUS
 62
     7
  5
F9
 10
346674120361.54205
 20
3120066211186.8159
 30
0.0
 40
8.0
  1
25'
 50
88.050083
  7
ROMANS
 72
     1
 11
346674120361.85962
 21
3120066211196.1445
 31
0.0
210
0.0
220
0.0
230
1.0
  0
TEXT
  8
11
  6
CONTINUOUS
 62
     7
  5
FA
 10
346674120360.68604
 20
3120066211160.377
 30
0.0
 40
8.0
  1
25'
 50
88.050083
  7
ROMANS
 72
     1
 11
346674120361.0036
 21
3120066211169.7056
 31
0.0
210
0.0
220
0.0
230
1.0
  0
TEXT
  8
11
  6
CONTINUOUS
 62
     7
  5
FB
 10
346674120359.85803
 20
3120066211134.7632
 30
0.0
 40
8.0
  1
25'
 50
88.050083
  7
ROMANS
 72
     1
 11
346674120360.17566
 21
3120066211144.0918
 31
0.0
210
0.0
220
0.0
230
1.0
  0
TEXT
  8
11
  6
CONTINUOUS
 62
     7
  5
FC
 10
346674120359.05505
 20
3120066211109.9771
 30
0.0
 40
8.0
  1
25'
 50
88.050083
  7
ROMANS
 72
     1
 11
346674120359.37262
 21
3120066211119.3057
 31
0.0
210
0.0
220
0.0
230
1.0
  0
TEXT
  8
11
  6
CONTINUOUS
 62
     7
  5
FD
 10
346674120358.28101
 20
3120066211086.0171
 30
0.0
 40
8.0
  1
25'
 50
88.050083
  7
ROMANS
 72
     1
 11
346674120358.59863
 21
3120066211095.3457
 31
0.0
210
0.0
220
0.0
230
1.0
  0
TEXT
  8
11
  6
CONTINUOUS
 62
     7
  5
FE
 10
346674120357.45306
 20
3120066211060.4028
 30
0.0
 40
8.0
  1
25'
 50
88.050083
  7
ROMANS
 72
     1
 11
346674120357.77063
 21
3120066211069.7314
 31
0.0
210
0.0
220
0.0
230
1.0
  0
TEXT
  8
11
  6
CONTINUOUS
 62
     7
  5
FF
 10
346674120356.67706
 20
3120066211036.4429
 30
0.0
 40
8.0
  1
25'
 50
88.050083
  7
ROMANS
 72
     1
 11
346674120356.99463
 21
3120066211045.7715
 31
0.0
210
0.0
220
0.0
230
1.0
  0
TEXT
  8
11
  6
CONTINUOUS
 62
     7
  5
100
 10
346674120355.84906
 20
3120066211010.8291
 30
0.0
 40
8.0
  1
25'
 50
88.050083
  7
ROMANS
 72
     1
 11
346674120356.16663
 21
3120066211020.1577
 31
0.0
210
0.0
220
0.0
230
1.0
  0
TEXT
  8
11
  6
CONTINUOUS
 62
     7
  5
101
 10
346674120355.02002
 20
3120066210985.2168
 30
0.0
 40
8.0
  1
25'
 50
88.050083
  7
ROMANS
 72
     1
 11
346674120355.33765
 21
3120066210994.5454
 31
0.0
210
0.0
220
0.0
230
1.0
  0
TEXT
  8
11
  6
CONTINUOUS
 62
     7
  5
102
 10
346674120354.24506
 20
3120066210961.2559
 30
0.0
 40
8.0
  1
25'
 50
88.050083
  7
ROMANS
 72
     1
 11
346674120354.56262
 21
3120066210970.5845
 31
0.0
210
0.0
220
0.0
230
1.0
  0
TEXT
  8
11
  6
CONTINUOUS
 62
     7
  5
103
 10
346674120353.41602
 20
3120066210935.6431
 30
0.0
 40
8.0
  1
25'
 50
88.050083
  7
ROMANS
 72
     1
 11
346674120353.73364
 21
3120066210944.9717
 31
0.0
210
0.0
220
0.0
230
1.0
  0
TEXT
  8
11
  6
CONTINUOUS
 62
     7
  5
104
 10
346674120352.04602
 20
3120066210893.9067
 30
0.0
 40
8.0
  1
38.63'
 50
88.050083
  7
ROMANS
 72
     1
 11
346674120352.77197
 21
3120066210915.2285
 31
0.0
210
0.0
220
0.0
230
1.0
  0
TEXT
  8
10
  6
CONTINUOUS
 62
   134
  5
105
 10
346674120336.74304
 20
3120066211334.8052
 30
0.0
 40
13.999
  1
1
 50
88.1472
  7
ROMANS
 11
346674120322.75134
 21
3120066211335.2578
 31
0.0
210
0.0
220
0.0
230
1.0
 73
     3
  0
TEXT
  8
10
  6
CONTINUOUS
 62
   134
  5
106
 10
346674120335.30005
 20
3120066211290.1899
 30
0.0
 40
13.999
  1
2
 50
88.1472
  7
ROMANS
 11
346674120321.30835
 21
3120066211290.6426
 31
0.0
210
0.0
220
0.0
230
1.0
 73
     3
  0
TEXT
  8
10
  6
CONTINUOUS
 62
   134
  5
107
 10
346674120334.52502
 20
3120066211266.23
 30
0.0
 40
13.999
  1
3
 50
88.1472
  7
ROMANS
 11
346674120320.53333
 21
3120066211266.6826
 31
0.0
210
0.0
220
0.0
230
1.0
 73
     3
  0
TEXT
  8
10
  6
CONTINUOUS
 62
   134
  5
108
 10
346674120333.64203
 20
3120066211238.9648
 30
0.0
 40
13.999
  1
4
 50
88.1472
  7
ROMANS
 11
346674120319.65033
 21
3120066211239.4175
 31
0.0
210
0.0
220
0.0
230
1.0
 73
     3
  0
TEXT
  8
10
  6
CONTINUOUS
 62
   134
  5
109
 10
346674120332.86804
 20
3120066211215.0039
 30
0.0
 40
13.999
  1
5
 50
88.1472
  7
ROMANS
 11
346674120318.87634
 21
3120066211215.4565
 31
0.0
210
0.0
220
0.0
230
1.0
 73
     3
  0
TEXT
  8
10
  6
CONTINUOUS
 62
   134
  5
10A
 10
346674120332.09302
 20
3120066211191.0439
 30
0.0
 40
13.999
  1
6
 50
88.1472
  7
ROMANS
 11
346674120318.10138
 21
3120066211191.4966
 31
0.0
210
0.0
220
0.0
230
1.0
 73
     3
  0
TEXT
  8
10
  6
CONTINUOUS
 62
   134
  5
10B
 10
346674120331.29102
 20
3120066211166.2578
 30
0.0
 40
13.999
  1
7
 50
88.1472
  7
ROMANS
 11
346674120317.29938
 21
3120066211166.7104
 31
0.0
210
0.0
220
0.0
230
1.0
 73
     3
  0
TEXT
  8
10
  6
CONTINUOUS
 62
   134
  5
10C
 10
346674120330.46301
 20
3120066211140.646
 30
0.0
 40
13.999
  1
8
 50
88.1472
  7
ROMANS
 11
346674120316.47137
 21
3120066211141.0986
 31
0.0
210
0.0
220
0.0
230
1.0
 73
     3
  0
TEXT
  8
10
  6
CONTINUOUS
 62
   134
  5
10D
 10
346674120329.63306
 20
3120066211115.0332
 30
0.0
 40
13.999
  1
9
 50
88.1472
  7
ROMANS
 11
346674120315.64136
 21
3120066211115.4854
 31
0.0
210
0.0
220
0.0
230
1.0
 73
     3
  0
TEXT
  8
10
  6
CONTINUOUS
 62
   134
  5
10E
 10
346674120328.56506
 20
3120066211081.9839
 30
0.0
 40
13.999
  1
10
 50
88.1472
  7
ROMANS
 11
346674120314.57336
 21
3120066211082.4365
 31
0.0
210
0.0
220
0.0
230
1.0
 73
     3
  0
TEXT
  8
10
  6
CONTINUOUS
 62
   134
  5
10F
 10
346674120327.73706
 20
3120066211056.3721
 30
0.0
 40
13.999
  1
11
 50
88.1472
  7
ROMANS
 11
346674120313.74536
 21
3120066211056.8247
 31
0.0
210
0.0
220
0.0
230
1.0
 73
     3
  0
TEXT
  8
10
  6
CONTINUOUS
 62
   134
  5
110
 10
346674120326.93402
 20
3120066211031.5859
 30
0.0
 40
13.999
  1
12
 50
88.1472
  7
ROMANS
 11
346674120312.94238
 21
3120066211032.0386
 31
0.0
210
0.0
220
0.0
230
1.0
 73
     3
  0
TEXT
  8
10
  6
CONTINUOUS
 62
   134
  5
111
 10
346674120326.21301
 20
3120066211009.2788
 30
0.0
 40
13.999
  1
13
 50
88.1472
  7
ROMANS
 11
346674120312.22137
 21
3120066211009.7314
 31
0.0
210
0.0
220
0.0
230
1.0
 73
     3
  0
TEXT
  8
10
  6
CONTINUOUS
 62
   134
  5
112
 10
346674120325.41101
 20
3120066210984.4932
 30
0.0
 40
13.999
  1
14
 50
88.1472
  7
ROMANS
 11
346674120311.41937
 21
3120066210984.9458
 31
0.0
210
0.0
220
0.0
230
1.0
 73
     3
  0
TEXT
  8
10
  6
CONTINUOUS
 62
   134
  5
113
 10
346674120324.60901
 20
3120066210959.707
 30
0.0
 40
13.999
  1
15
 50
88.1472
  7
ROMANS
 11
346674120310.61737
 21
3120066210960.1597
 31
0.0
210
0.0
220
0.0
230
1.0
 73
     3
  0
TEXT
  8
10
  6
CONTINUOUS
 62
   134
  5
114
 10
346674120323.78101
 20
3120066210934.0937
 30
0.0
 40
13.999
  1
16
 50
88.1472
  7
ROMANS
 11
346674120309.78937
 21
3120066210934.5464
 31
0.0
210
0.0
220
0.0
230
1.0
 73
     3
  0
TEXT
  8
10
  6
CONTINUOUS
 62
   134
  5
115
 10
346674120322.84503
 20
3120066210905.1777
 30
0.0
 40
13.999
  1
17
 50
88.1472
  7
ROMANS
 11
346674120308.85333
 21
3120066210905.6304
 31
0.0
210
0.0
220
0.0
230
1.0
 73
     3
  0
TEXT
  8
22
  6
CONTINUOUS
 62
     3
  5
116
 10
346674120144.25806
 20
3120066210900.5859
 30
0.0
 40
8.0
  1
10' SPEC EASEMENT
 50
358.049953
  7
ROMANS
 72
     1
 11
346674120210.88544
 21
3120066210898.3174
 31
0.0
210
0.0
220
0.0
230
1.0
  0
TEXT
  8
22
  6
CONTINUOUS
 62
     3
  5
117
 10
346674120144.65802
 20
3120066210912.978
 30
0.0
 40
8.0
  1
10' SWBT EASEMENT
 50
358.049953
  7
ROMANS
 72
     1
 11
346674120211.2854
 21
3120066210910.7095
 31
0.0
210
0.0
220
0.0
230
1.0
  0
TEXT
  8
22
  6
CONTINUOUS
 62
     3
  5
118
 10
346674120063.79401
 20
3120066210928.0679
 30
0.0
 40
8.0
  1
10' SWBT EQUIPMENT EASEMENT
 50
358.049953
  7
ROMANS
 72
     1
 11
346674120170.39825
 21
3120066210924.4385
 31
0.0
210
0.0
220
0.0
230
1.0
  0
LINE
  8
21
  6
DASHDOT
 62
     7
  5
119
 10
346674120279.04004
 20
3120066210925.3931
 30
0.0
 11
346674120312.06903
 21
3120066210924.3228
 31
0.0
  0
LINE
  8
21
  6
DASHDOT
 62
     7
  5
11A
 10
346674120312.06903
 20
3120066210924.3228
 30
0.0
 11
346674120311.05103
 21
3120066210894.292
 31
0.0
  0
LINE
  8
21
  6
DASHDOT
 62
     7
  5
11B
 10
346674120278.716
 20
3120066210915.3979
 30
0.0
 11
346674120354.11804
 21
3120066210912.958
 31
0.0
  0
LINE
  8
21
  6
DASHDOT
 62
     7
  5
11C
 10
346674120278.39404
 20
3120066210905.4019
 30
0.0
 11
346674120353.79401
 21
3120066210902.9639
 31
0.0
  0
LINE
  8
6
  6
CONTINUOUS
 62
     7
  5
11D
 10
346674120294.37805
 20
3120066211376.7622
 30
0.0
 11
346674120278.07001
 21
3120066210895.4082
 31
0.0
  0
LINE
  8
6
  6
CONTINUOUS
 62
     7
  5
11E
 10
346674120353.47101
 20
3120066210892.9922
 30
0.0
 11
346674120368.76001
 21
3120066211344.293
 31
0.0
  0
LINE
  8
7
  6
CONTINUOUS
 62
     7
  5
11F
 10
346674120354.77905
 20
3120066210931.5762
 30
0.0
 11
346674120279.37701
 21
3120066210934.0151
 31
0.0
  0
LINE
  8
7
  6
CONTINUOUS
 62
     7
  5
120
 10
346674120355.62402
 20
3120066210956.562
 30
0.0
 11
346674120280.22406
 21
3120066210959.0
 31
0.0
  0
LINE
  8
7
  6
CONTINUOUS
 62
     7
  5
121
 10
346674120356.47101
 20
3120066210981.5469
 30
0.0
 11
346674120281.07104
 21
3120066210983.9858
 31
0.0
  0
LINE
  8
7
  6
CONTINUOUS
 62
     7
  5
122
 10
346674120357.31903
 20
3120066211006.5332
 30
0.0
 11
346674120281.91705
 21
3120066211008.9722
 31
0.0
  0
LINE
  8
7
  6
CONTINUOUS
 62
     7
  5
123
 10
346674120358.16406
 20
3120066211031.519
 30
0.0
 11
346674120282.76404
 21
3120066211033.957
 31
0.0
  0
LINE
  8
7
  6
CONTINUOUS
 62
     7
  5
124
 10
346674120359.01105
 20
3120066211056.5039
 30
0.0
 11
346674120283.61102
 21
3120066211058.9429
 31
0.0
  0
LINE
  8
7
  6
CONTINUOUS
 62
     7
  5
125
 10
346674120359.85803
 20
3120066211081.4897
 30
0.0
 11
346674120284.45605
 21
3120066211083.9292
 31
0.0
  0
LINE
  8
7
  6
CONTINUOUS
 62
     7
  5
126
 10
346674120360.70306
 20
3120066211106.4761
 30
0.0
 11
346674120285.30304
 21
3120066211108.9141
 31
0.0
  0
LINE
  8
7
  6
CONTINUOUS
 62
     7
  5
127
 10
346674120361.55103
 20
3120066211131.4619
 30
0.0
 11
346674120286.15002
 21
3120066211133.8999
 31
0.0
  0
LINE
  8
7
  6
CONTINUOUS
 62
     7
  5
128
 10
346674120362.39703
 20
3120066211156.4468
 30
0.0
 11
346674120286.99603
 21
3120066211158.8857
 31
0.0
  0
LINE
  8
7
  6
CONTINUOUS
 62
     7
  5
129
 10
346674120363.24304
 20
3120066211181.4331
 30
0.0
 11
346674120287.84302
 21
3120066211183.8721
 31
0.0
  0
LINE
  8
7
  6
CONTINUOUS
 62
     7
  5
12A
 10
346674120364.09003
 20
3120066211206.4189
 30
0.0
 11
346674120288.68903
 21
3120066211208.8569
 31
0.0
  0
LINE
  8
7
  6
CONTINUOUS
 62
     7
  5
12B
 10
346674120364.93506
 20
3120066211231.4038
 30
0.0
 11
346674120289.53503
 21
3120066211233.8428
 31
0.0
  0
LINE
  8
7
  6
CONTINUOUS
 62
     7
  5
12C
 10
346674120365.78302
 20
3120066211256.3901
 30
0.0
 11
346674120290.38306
 21
3120066211258.8291
 31
0.0
  0
LINE
  8
7
  6
CONTINUOUS
 62
     7
  5
12D
 10
346674120366.63
 20
3120066211281.376
 30
0.0
 11
346674120291.229
 21
3120066211283.814
 31
0.0
  0
LINE
  8
7
  6
CONTINUOUS
 62
     7
  5
12E
 10
346674120367.47504
 20
3120066211306.3608
 30
0.0
 11
346674120292.07501
 21
3120066211308.7998
 31
0.0
  0
ARC
  8
6
  6
CONTINUOUS
 62
     7
  5
12F
 10
346674120338.73224
 20
3120066211345.311
 30
0.0
 40
30.0
 50
358.059644
 51
88.1472
210
0.0
220
0.0
230
1.0
  0
LINE
  8
6
  6
CONTINUOUS
 62
     7
  5
130
 10
346674120339.74805
 20
3120066211375.2939
 30
0.0
 11
346674120294.37805
 21
3120066211376.7622
 31
0.0
  0
TEXT
  8
19
  6
CONTINUOUS
 62
     1
  5
131
 10
346674115138.06903
 20
3120066210202.1182
 30
0.0
 40
24.0
  1
FARM RD 179 (INLER AVE)
 50
88.1472
  7
ROMANC
 72
     4
 11
346674115135.27338
 21
3120066210486.8472
 31
0.0
210
0.0
220
0.0
230
1.0
  0
TEXT
  8
19
  6
CONTINUOUS
 62
     1
  5
132
 10
346674115298.03101
 20
3120066211564.98
 30
0.0
 40
24.0
  1
19TH ST   STATE HIGHWAY 114
 50
358.1472
  7
ROMANC
 72
     4
 11
346674115641.58954
 21
3120066211565.8726
 31
0.0
210
0.0
220
0.0
230
1.0
  0
TEXT
  8
19
  6
CONTINUOUS
 62
     1
  5
133
 10
346674119449.85602
 20
3120066211425.6948
 30
0.0
 40
24.0
  1
 19TH ST       STATE HIGHWAY 114
 50
358.1472
  7
ROMANC
 72
     4
 11
346674119855.26917
 21
3120066211424.5864
 31
0.0
210
0.0
220
0.0
230
1.0
  0
CIRCLE
  8
8
  6
CONTINUOUS
 62
     7
  5
135
 10
346674120339.89276
 20
3120066211375.2891
 30
0.0
 40
2.0
210
0.0
220
0.0
230
1.0
  0
CIRCLE
  8
8
  6
CONTINUOUS
 62
     7
  5
136
 10
346674120368.76074
 20
3120066211344.2935
 30
0.0
 40
2.0
210
0.0
220
0.0
230
1.0
  0
TEXT
  8
19
  6
CONTINUOUS
 62
     1
  5
137
 10
346674120396.59503
 20
3120066210955.541
 30
0.0
 40
24.0
  1
ALCOVE AVE
 50
88.1472
  7
ROMANC
 72
     4
 11
346674120388.79858
 21
3120066211085.6792
 31
0.0
210
0.0
220
0.0
230
1.0
  0
CIRCLE
  8
8
  6
CONTINUOUS
 62
     7
  5
138
 10
346674115206.34442
 20
3120066211541.335
 30
0.0
 40
2.0
210
0.0
220
0.0
230
1.0
  0
CIRCLE
  8
8
  6
CONTINUOUS
 62
     7
  5
139
 10
346674115190.86731
 20
3120066211526.8276
 30
0.0
 40
2.0
210
0.0
220
0.0
230
1.0
  0
CIRCLE
  8
8
  6
CONTINUOUS
 62
     7
  5
13A
 10
346674115179.55115
 20
3120066211177.0107
 30
0.0
 40
2.0
210
0.0
220
0.0
230
1.0
  0
CIRCLE
  8
8
  6
CONTINUOUS
 62
     7
  5
13B
 10
346674115194.05835
 20
3120066211161.5337
 30
0.0
 40
2.0
210
0.0
220
0.0
230
1.0
  0
CIRCLE
  8
8
  6
CONTINUOUS
 62
     7
  5
13C
 10
346674115549.92212
 20
3120066211150.021
 30
0.0
 40
2.0
210
0.0
220
0.0
230
1.0
  0
CIRCLE
  8
8
  6
CONTINUOUS
 62
     7
  5
13D
 10
346674115565.39929
 20
3120066211164.5288
 30
0.0
 40
2.0
210
0.0
220
0.0
230
1.0
  0
CIRCLE
  8
8
  6
CONTINUOUS
 62
     7
  5
13E
 10
346674115576.71545
 20
3120066211514.3462
 30
0.0
 40
2.0
210
0.0
220
0.0
230
1.0
  0
CIRCLE
  8
8
  6
CONTINUOUS
 62
     7
  5
13F
 10
346674115562.20825
 20
3120066211529.8223
 30
0.0
 40
2.0
210
0.0
220
0.0
230
1.0
  0
LINE
  8
6
  6
CONTINUOUS
 62
     7
  5
140
 10
346674117675.14703
 20
3120066211231.3701
 30
0.0
 11
346674117682.58203
 21
3120066211461.249
 31
0.0
  0
LINE
  8
6
  6
CONTINUOUS
 62
     7
  5
141
 10
346674117234.32703
 20
3120066211245.6299
 30
0.0
 11
346674117675.14703
 21
3120066211231.3701
 31
0.0
  0
LINE
  8
6
  6
CONTINUOUS
 62
     7
  5
142
 10
346674120339.89301
 20
3120066211375.2891
 30
0.0
 11
346674117682.58203
 21
3120066211461.249
 31
0.0
  0
LINE
  8
6
  6
CONTINUOUS
 62
     7
  5
143
 10
346674117234.32703
 20
3120066211245.6299
 30
0.0
 11
346674117241.76306
 21
3120066211475.5098
 31
0.0
  0
LINE
  8
6
  6
CONTINUOUS
 62
     7
  5
144
 10
346674116451.40302
 20
3120066211270.938
 30
0.0
 11
346674116458.83905
 21
3120066211500.8179
 31
0.0
  0
LINE
  8
6
  6
CONTINUOUS
 62
     7
  5
145
 10
346674115619.73804
 20
3120066211297.8418
 30
0.0
 11
346674116451.40302
 21
3120066211270.938
 31
0.0
  0
LINE
  8
6
  6
CONTINUOUS
 62
     7
  5
146
 10
346674115619.73804
 20
3120066211297.8418
 30
0.0
 11
346674115613.27203
 21
3120066211097.9468
 31
0.0
  0
LINE
  8
6
  6
CONTINUOUS
 62
     7
  5
147
 10
346674115172.45203
 20
3120066211112.207
 30
0.0
 11
346674115613.27203
 21
3120066211097.9468
 31
0.0
  0
LINE
  8
6
  6
CONTINUOUS
 62
     7
  5
148
 10
346674115172.45203
 20
3120066211112.207
 30
0.0
 11
346674115084.88904
 21
3120066208367.2368
 31
0.0
  0
LINE
  8
6
  6
CONTINUOUS
 62
     7
  5
149
 10
346674115081.49304
 20
3120066208262.2388
 30
0.0
 11
346674115018.83606
 21
3120066206355.6548
 31
0.0
  0
LINE
  8
6
  6
CONTINUOUS
 62
     7
  5
14A
 10
346674119468.73804
 20
3120066211403.4687
 30
0.0
 11
346674119452.35004
 21
3120066210922.1182
 31
0.0
  0
LINE
  8
6
  6
CONTINUOUS
 62
     7
  5
14B
 10
346674116460.07202
 20
3120066211500.7959
 30
0.0
 11
346674117241.76306
 21
3120066211475.5098
 31
0.0
  0
LINE
  8
6
  6
CONTINUOUS
 62
     7
  5
14C
 10
346674120278.07001
 20
3120066210895.4082
 30
0.0
 11
346674120369.29803
 21
3120066210892.4839
 31
0.0
  0
LINE
  8
6
  6
CONTINUOUS
 62
     7
  5
14D
 10
346674115562.20801
 20
3120066211529.8237
 30
0.0
 11
346674115206.34503
 21
3120066211541.335
 31
0.0
  0
LINE
  8
6
  6
CONTINUOUS
 62
     7
  5
14E
 10
346674115190.867
 20
3120066211526.8271
 30
0.0
 11
346674115184.56201
 21
3120066211331.9302
 31
0.0
  0
LINE
  8
6
  6
CONTINUOUS
 62
     7
  5
14F
 10
346674115183.91602
 20
3120066211311.9399
 30
0.0
 11
346674115179.55103
 21
3120066211177.0098
 31
0.0
  0
LINE
  8
6
  6
CONTINUOUS
 62
     7
  5
150
 10
346674115194.05804
 20
3120066211161.5332
 30
0.0
 11
346674115549.92206
 21
3120066211150.022
 31
0.0
  0
LINE
  8
6
  6
CONTINUOUS
 62
     7
  5
151
 10
346674115569.76404
 20
3120066211299.458
 30
0.0
 11
346674115565.40002
 21
3120066211164.5298
 31
0.0
  0
ARC
  8
6
  6
CONTINUOUS
 62
     7
  5
152
 10
346674115205.85944
 20
3120066211526.3423
 30
0.0
 40
15.0
 50
88.1472
 51
178.1472
210
0.0
220
0.0
230
1.0
  0
LINE
  8
6
  6
CONTINUOUS
 62
     7
  5
153
 10
346674115184.56201
 20
3120066211331.9302
 30
0.0
 11
346674115570.41101
 21
3120066211319.4478
 31
0.0
  0
LINE
  8
6
  6
CONTINUOUS
 62
     7
  5
154
 10
346674115183.91602
 20
3120066211311.9399
 30
0.0
 11
346674115569.76404
 21
3120066211299.458
 31
0.0
  0
LINE
  8
6
  6
CONTINUOUS
 62
     7
  5
155
 10
346674115620.38501
 20
3120066211317.8311
 30
0.0
 11
346674115742.32104
 21
3120066211313.8872
 31
0.0
  0
LINE
  8
6
  6
CONTINUOUS
 62
     7
  5
156
 10
346674115742.32104
 20
3120066211313.8872
 30
0.0
 11
346674115864.30603
 21
3120066211309.9409
 31
0.0
  0
LINE
  8
6
  6
CONTINUOUS
 62
     7
  5
157
 10
346674115864.30603
 20
3120066211309.9409
 30
0.0
 11
346674115986.24304
 21
3120066211305.9961
 31
0.0
  0
LINE
  8
6
  6
CONTINUOUS
 62
     7
  5
158
 10
346674116036.21704
 20
3120066211304.3799
 30
0.0
 11
346674116158.15302
 21
3120066211300.4351
 31
0.0
  0
LINE
  8
6
  6
CONTINUOUS
 62
     7
  5
159
 10
346674116158.15302
 20
3120066211300.4351
 30
0.0
 11
346674116280.14001
 21
3120066211296.4888
 31
0.0
  0
LINE
  8
6
  6
CONTINUOUS
 62
     7
  5
15A
 10
346674116280.14001
 20
3120066211296.4888
 30
0.0
 11
346674116402.07501
 21
3120066211292.5449
 31
0.0
  0
LINE
  8
6
  6
CONTINUOUS
 62
     7
  5
15B
 10
346674116402.07501
 20
3120066211292.5449
 30
0.0
 11
346674116408.38104
 21
3120066211487.4409
 31
0.0
  0
ARC
  8
6
  6
CONTINUOUS
 62
     7
  5
15C
 10
346674116393.38824
 20
3120066211487.9272
 30
0.0
 40
15.0
 50
358.1472
 51
88.1472
210
0.0
220
0.0
230
1.0
  0
LINE
  8
6
  6
CONTINUOUS
 62
     7
  5
15D
 10
346674116393.87305
 20
3120066211502.9199
 30
0.0
 11
346674116057.99902
 21
3120066211513.7852
 31
0.0
  0
LINE
  8
6
  6
CONTINUOUS
 62
     7
  5
15E
 10
346674115978.04102
 20
3120066211516.3711
 30
0.0
 11
346674115642.16602
 21
3120066211527.2368
 31
0.0
  0
LINE
  8
6
  6
CONTINUOUS
 62
     7
  5
15F
 10
346674116036.21704
 20
3120066211304.3799
 30
0.0
 11
346674116042.52106
 21
3120066211499.2778
 31
0.0
  0
LINE
  8
6
  6
CONTINUOUS
 62
     7
  5
160
 10
346674115986.24304
 20
3120066211305.9961
 30
0.0
 11
346674115992.54803
 21
3120066211500.895
 31
0.0
  0
ARC
  8
6
  6
CONTINUOUS
 62
     7
  5
161
 10
346674116057.51392
 20
3120066211498.7925
 30
0.0
 40
15.0
 50
88.1472
 51
178.1472
210
0.0
220
0.0
230
1.0
  0
ARC
  8
6
  6
CONTINUOUS
 62
     7
  5
162
 10
346674115977.55579
 20
3120066211501.3789
 30
0.0
 40
15.0
 50
358.1472
 51
88.1472
210
0.0
220
0.0
230
1.0
  0
ARC
  8
6
  6
CONTINUOUS
 62
     7
  5
163
 10
346674115641.68146
 20
3120066211512.2441
 30
0.0
 40
15.0
 50
88.1472
 51
178.1472
210
0.0
220
0.0
230
1.0
  0
ARC
  8
6
  6
CONTINUOUS
 62
     7
  5
164
 10
346674115561.72327
 20
3120066211514.8306
 30
0.0
 40
15.0
 50
358.1472
 51
88.1472
210
0.0
220
0.0
230
1.0
  0
LINE
  8
6
  6
CONTINUOUS
 62
     7
  5
165
 10
346674115620.38501
 20
3120066211317.8311
 30
0.0
 11
346674115626.68903
 21
3120066211512.729
 31
0.0
  0
LINE
  8
6
  6
CONTINUOUS
 62
     7
  5
166
 10
346674115570.41101
 20
3120066211319.4478
 30
0.0
 11
346674115576.716
 21
3120066211514.3462
 31
0.0
  0
ARC
  8
6
  6
CONTINUOUS
 62
     7
  5
167
 10
346674115550.40717
 20
3120066211165.0137
 30
0.0
 40
15.0
 50
268.1472
 51
358.1472
210
0.0
220
0.0
230
1.0
  0
ARC
  8
6
  6
CONTINUOUS
 62
     7
  5
168
 10
346674115194.54327
 20
3120066211176.5254
 30
0.0
 40
15.0
 50
178.1472
 51
268.1472
210
0.0
220
0.0
230
1.0
  0
ARC
  8
6
  6
CONTINUOUS
 62
     7
  5
169
 10
346674117306.24438
 20
3120066211458.4155
 30
0.0
 40
15.0
 50
88.1472
 51
178.1472
210
0.0
220
0.0
230
1.0
  0
LINE
  8
6
  6
CONTINUOUS
 62
     7
  5
16A
 10
346674117284.94806
 20
3120066211264.0029
 30
0.0
 11
346674117291.25201
 21
3120066211458.9009
 31
0.0
  0
ARC
  8
6
  6
CONTINUOUS
 62
     7
  5
16B
 10
346674117637.12134
 20
3120066211447.7119
 30
0.0
 40
15.0
 50
358.1472
 51
88.1472
210
0.0
220
0.0
230
1.0
  0
LINE
  8
6
  6
CONTINUOUS
 62
     7
  5
16C
 10
346674117645.80804
 20
3120066211252.3291
 30
0.0
 11
346674117652.11401
 21
3120066211447.228
 31
0.0
  0
LINE
  8
6
  6
CONTINUOUS
 62
     7
  5
16D
 10
346674117306.73004
 20
3120066211473.4082
 30
0.0
 11
346674117637.60602
 21
3120066211462.7051
 31
0.0
  0
LINE
  8
6
  6
CONTINUOUS
 62
     7
  5
16E
 10
346674117284.94806
 20
3120066211264.0029
 30
0.0
 11
346674117405.23401
 21
3120066211260.1118
 31
0.0
  0
LINE
  8
6
  6
CONTINUOUS
 62
     7
  5
16F
 10
346674117405.23401
 20
3120066211260.1118
 30
0.0
 11
346674117525.52203
 21
3120066211256.2212
 31
0.0
  0
LINE
  8
6
  6
CONTINUOUS
 62
     7
  5
170
 10
346674117525.52203
 20
3120066211256.2212
 30
0.0
 11
346674117645.80804
 21
3120066211252.3291
 31
0.0
  0
LINE
  8
6
  6
CONTINUOUS
 62
     7
  5
171
 10
346674119967.02002
 20
3120066210905.4687
 30
0.0
 11
346674119976.604
 21
3120066211186.937
 31
0.0
  0
LINE
  8
6
  6
CONTINUOUS
 62
     7
  5
172
 10
346674120369.29803
 20
3120066210892.4839
 30
0.0
 11
346674120228.05304
 21
3120066206526.1509
 31
0.0
  0
LINE
  8
6
  6
CONTINUOUS
 62
     7
  5
173
 10
346674120224.65601
 20
3120066206421.1528
 30
0.0
 11
346674120217.39203
 21
3120066206196.6172
 31
0.0
  0
TEXT
  8
15
  6
CONTINUOUS
 62
    30
  5
174
 10
346674120173.59802
 20
3120066211120.9512
 30
0.0
 40
40.0
  1
ALCOVE
 50
28.1472
  7
ROMANC
 72
     4
 11
346674120274.96429
 21
3120066211197.8652
 31
0.0
210
0.0
220
0.0
230
1.0
  0
LINE
  8
6
  6
CONTINUOUS
 62
     7
  5
175
 10
346674115018.83606
 20
3120066206355.6548
 30
0.0
 11
346674120217.39301
 21
3120066206196.6172
 31
0.0
  0
TEXT
  8
10
  6
CONTINUOUS
 62
   134
  5
176
 10
346674115755.43304
 20
3120066209788.9961
 30
0.0
 40
13.999
  1
D
 50
358.1472
  7
ROMANS
 11
346674115755.88562
 21
3120066209802.9878
 31
0.0
210
0.0
220
0.0
230
1.0
 73
     3
  0
TEXT
  8
11
  6
CONTINUOUS
 62
     7
  5
177
 10
346674119447.56305
 20
3120066210917.2559
 30
0.0
 40
8.0
  1
890'
 50
88.1472
  7
ROMANS
210
0.0
220
0.0
230
1.0
  0
TEXT
  8
11
  6
CONTINUOUS
 62
     7
  5
178
 10
346674119460.50403
 20
3120066210706.3408
 30
0.0
 40
8.0
  1
410'
 50
88.1472
  7
ROMANS
210
0.0
220
0.0
230
1.0
  0
TEXT
  8
11
  6
CONTINUOUS
 62
     7
  5
179
 10
346674119668.13904
 20
3120066210917.1392
 30
0.0
 40
8.0
  1
519.94'
 50
358.1472
  7
ROMANS
 72
     1
 11
346674119693.45978
 21
3120066210916.3198
 31
0.0
210
0.0
220
0.0
230
1.0
  0
TEXT
  8
11
  6
CONTINUOUS
 62
     7
  5
17A
 10
346674119989.50806
 20
3120066210956.2329
 30
0.0
 40
8.0
  1
120'
 50
88.1472
  7
ROMANS
210
0.0
220
0.0
230
1.0
  0
TEXT
  8
11
  6
CONTINUOUS
 62
     7
  5
17B
 10
346674119907.55206
 20
3120066210503.0449
 30
0.0
 40
8.0
  1
955'
 50
358.1472
  7
ROMANS
210
0.0
220
0.0
230
1.0
  0
TEXT
  8
11
  6
CONTINUOUS
 62
     7
  5
17C
 10
346674119997.17706
 20
3120066211193.3237
 30
0.0
 40
8.0
  1
360'
 50
88.1472
  7
ROMANS
210
0.0
220
0.0
230
1.0
  0
TEXT
  8
11
  6
CONTINUOUS
 62
     7
  5
17D
 10
346674120005.87103
 20
3120066211011.2729
 30
0.0
 40
8.0
  1
70'
 50
358.1472
  7
ROMANS
210
0.0
220
0.0
230
1.0
  0
TEXT
  8
11
  6
CONTINUOUS
 62
     7
  5
17E
 10
346674119883.54004
 20
3120066211375.4771
 30
0.0
 40
8.0
  1
200'
 50
358.1472
  7
ROMANS
210
0.0
220
0.0
230
1.0
  0
TEXT
  8
11
  6
CONTINUOUS
 62
     7
  5
17F
 10
346674120016.05603
 20
3120066211369.7769
 30
0.0
 40
8.0
  1
70'
 50
358.1472
  7
ROMANS
210
0.0
220
0.0
230
1.0
  0
TEXT
  8
11
  6
CONTINUOUS
 62
     7
  5
180
 10
346674120090.89001
 20
3120066211370.1821
 30
0.0
 40
8.0
  1
75'
 50
358.1472
  7
ROMANS
210
0.0
220
0.0
230
1.0
  0
TEXT
  8
11
  6
CONTINUOUS
 62
     7
  5
181
 10
346674120162.81201
 20
3120066211367.856
 30
0.0
 40
8.0
  1
70'
 50
358.1472
  7
ROMANS
210
0.0
220
0.0
230
1.0
  0
TEXT
  8
11
  6
CONTINUOUS
 62
     7
  5
182
 10
346674120243.19604
 20
3120066211365.2549
 30
0.0
 40
8.0
  1
90'
 50
358.1472
  7
ROMANS
210
0.0
220
0.0
230
1.0
  0
TEXT
  8
11
  6
CONTINUOUS
 62
     7
  5
183
 10
346674120328.16705
 20
3120066211329.5332
 30
0.0
 40
8.0
  1
R=30'
 50
43.1472
  7
ROMANS
210
0.0
220
0.0
230
1.0
  0
LINE
  8
7
  6
CONTINUOUS
 62
     7
  5
184
 10
346674120204.96301
 20
3120066211379.6538
 30
0.0
 11
346674120189.44403
 21
3120066210899.9048
 31
0.0
  0
LINE
  8
7
  6
CONTINUOUS
 62
     7
  5
185
 10
346674120135.00006
 20
3120066211381.917
 30
0.0
 11
346674120119.48102
 21
3120066210902.168
 31
0.0
  0
LINE
  8
7
  6
CONTINUOUS
 62
     7
  5
186
 10
346674120060.03906
 20
3120066211384.3418
 30
0.0
 11
346674120044.51904
 21
3120066210904.5928
 31
0.0
  0
LINE
  8
7
  6
CONTINUOUS
 62
     7
  5
187
 10
346674119976.60303
 20
3120066211186.937
 30
0.0
 11
346674119983.41003
 21
3120066211386.8208
 31
0.0
  0
LINE
  8
7
  6
CONTINUOUS
 62
     7
  5
188
 10
346674119967.02002
 20
3120066210905.4687
 30
0.0
 11
346674120278.07001
 21
3120066210895.4082
 31
0.0
  0
TEXT
  8
11
  6
CONTINUOUS
 62
     7
  5
189
 10
346674120252.48303
 20
3120066206309.1382
 30
0.0
 40
8.0
  1
344.12'
 50
88.1472
  7
ROMANS
210
0.0
220
0.0
230
1.0
  0
TEXT
  8
11
  6
CONTINUOUS
 62
     7
  5
18A
 10
346674119951.229
 20
3120066206174.0239
 30
0.0
 40
8.0
  1
579.6'
 50
358.1472
  7
ROMANS
210
0.0
220
0.0
230
1.0
  0
TEXT
  8
11
  6
CONTINUOUS
 62
     7
  5
18B
 10
346674119557.57501
 20
3120066206219.4648
 30
0.0
 40
8.0
  1
135'
 50
358.1472
  7
ROMANS
210
0.0
220
0.0
230
1.0
  0
TEXT
  8
11
  6
CONTINUOUS
 62
     7
  5
18C
 10
346674119635.25903
 20
3120066206413.9629
 30
0.0
 40
8.0
  1
544.24'
 50
88.1472
  7
ROMANS
210
0.0
220
0.0
230
1.0
  0
TEXT
  8
11
  6
CONTINUOUS
 62
     7
  5
18D
 10
346674119500.87402
 20
3120066206428.6919
 30
0.0
 40
8.0
  1
587.82'
 50
88.1472
  7
ROMANS
210
0.0
220
0.0
230
1.0
  0
TEXT
  8
11
  6
CONTINUOUS
 62
     7
  5
18E
 10
346674119353.12103
 20
3120066206479.1499
 30
0.0
 40
8.0
  1
363.24'
 50
88.1472
  7
ROMANS
210
0.0
220
0.0
230
1.0
  0
TEXT
  8
11
  6
CONTINUOUS
 62
     7
  5
18F
 10
346674119218.87006
 20
3120066206498.0269
 30
0.0
 40
8.0
  1
679.66'
 50
88.1472
  7
ROMANS
210
0.0
220
0.0
230
1.0
  0
TEXT
  8
11
  6
CONTINUOUS
 62
     7
  5
190
 10
346674119411.00702
 20
3120066206224.1821
 30
0.0
 40
8.0
  1
145.3'
 50
358.1472
  7
ROMANS
210
0.0
220
0.0
230
1.0
  0
TEXT
  8
11
  6
CONTINUOUS
 62
     7
  5
191
 10
346674119278.90906
 20
3120066206228.5508
 30
0.0
 40
8.0
  1
137'
 50
358.1472
  7
ROMANS
210
0.0
220
0.0
230
1.0
  0
TEXT
  8
11
  6
CONTINUOUS
 62
     7
  5
193
 10
346674119292.71802
 20
3120066206743.7061
 30
0.0
 40
8.0
  1
142'
 50
340.304267
  7
txt
 72
     1
 11
346674119304.40106
 21
3120066206739.5239
 31
0.0
210
0.0
220
0.0
230
1.0
  0
TEXT
  8
11
  6
CONTINUOUS
 62
     7
  5
194
 10
346674119417.39301
 20
3120066206699.0791
 30
0.0
 40
8.0
  1
157.44'
 50
340.304267
  7
txt
 72
     1
 11
346674119438.7132
 21
3120066206691.4473
 31
0.0
210
0.0
220
0.0
230
1.0
  0
TEXT
  8
11
  6
CONTINUOUS
 62
     7
  5
195
 10
346674119575.742
 20
3120066206643.4067
 30
0.0
 40
8.0
  1
142'
 50
340.304267
  7
txt
 72
     1
 11
346674119587.42505
 21
3120066206639.2246
 31
0.0
210
0.0
220
0.0
230
1.0
  0
TEXT
  8
11
  6
CONTINUOUS
 62
     7
  5
196
 10
346674118599.32703
 20
3120066206617.7388
 30
0.0
 40
8.0
  1
881.55'
 50
88.1472
  7
ROMANS
210
0.0
220
0.0
230
1.0
  0
TEXT
  8
11
  6
CONTINUOUS
 62
     7
  5
197
 10
346674118901.64404
 20
3120066206239.1289
 30
0.0
 40
8.0
  1
638.8'
 50
358.1472
  7
ROMANS
210
0.0
220
0.0
230
1.0
  0
TEXT
  8
11
  6
CONTINUOUS
 62
     7
  5
198
 10
346674118933.33606
 20
3120066206871.7187
 30
0.0
 40
8.0
  1
657.83'
 50
340.304267
  7
txt
 72
     1
 11
346674118958.15265
 21
3120066206871.3325
 31
0.0
210
0.0
220
0.0
230
1.0
 73
     3
  0
TEXT
  8
11
  6
CONTINUOUS
 62
     7
  5
199
 10
346674118315.86005
 20
3120066207092.7559
 30
0.0
 40
8.0
  1
520.08'
 50
340.304267
  7
txt
 72
     1
 11
346674118340.76611
 21
3120066207092.3374
 31
0.0
210
0.0
220
0.0
230
1.0
 73
     3
  0
TEXT
  8
11
  6
CONTINUOUS
 62
     7
  5
19A
 10
346674117917.46503
 20
3120066207235.3691
 30
0.0
 40
8.0
  1
446.59'
 50
340.304267
  7
txt
 72
     1
 11
346674117942.4295
 21
3120066207234.9297
 31
0.0
210
0.0
220
0.0
230
1.0
 73
     3
  0
TEXT
  8
11
  6
CONTINUOUS
 62
     7
  5
19B
 10
346674117685.40204
 20
3120066206971.2051
 30
0.0
 40
8.0
  1
853.51'
 50
88.1472
  7
ROMANS
210
0.0
220
0.0
230
1.0
  0
TEXT
  8
11
  6
CONTINUOUS
 62
     7
  5
19C
 10
346674117671.84705
 20
3120066206381.936
 30
0.0
 40
8.0
  1
325'
 50
88.1472
  7
ROMANS
210
0.0
220
0.0
230
1.0
  0
TEXT
  8
11
  6
CONTINUOUS
 62
     7
  5
19D
 10
346674117855.05505
 20
3120066206271.9277
 30
0.0
 40
8.0
  1
428.3'
 50
358.1472
  7
ROMANS
210
0.0
220
0.0
230
1.0
  0
TEXT
  8
11
  6
CONTINUOUS
 62
     7
  5
19E
 10
346674118104.58105
 20
3120066206716.7949
 30
0.0
 40
8.0
  1
1041.33'
 50
88.1472
  7
ROMANS
210
0.0
220
0.0
230
1.0
  0
TEXT
  8
11
  6
CONTINUOUS
 62
     7
  5
19F
 10
346674118328.82306
 20
3120066206256.46
 30
0.0
 40
8.0
  1
496.7'
 50
358.1472
  7
ROMANS
210
0.0
220
0.0
230
1.0
  0
TEXT
  8
11
  6
CONTINUOUS
 62
     7
  5
1A0
 10
346674117572.29602
 20
3120066206280.5718
 30
0.0
 40
8.0
  1
150'
 50
358.1472
  7
ROMANS
210
0.0
220
0.0
230
1.0
  0
TEXT
  8
11
  6
CONTINUOUS
 62
     7
  5
1A1
 10
346674117433.30902
 20
3120066206285.79
 30
0.0
 40
8.0
  1
118'
 50
358.1472
  7
ROMANS
210
0.0
220
0.0
230
1.0
  0
TEXT
  8
11
  6
CONTINUOUS
 62
     7
  5
1A2
 10
346674117309.63
 20
3120066206288.4209
 30
0.0
 40
8.0
  1
132'
 50
358.1472
  7
ROMANS
210
0.0
220
0.0
230
1.0
  0
TEXT
  8
11
  6
CONTINUOUS
 62
     7
  5
1A3
 10
346674117195.86401
 20
3120066206293.1348
 30
0.0
 40
8.0
  1
100'
 50
358.1472
  7
ROMANS
210
0.0
220
0.0
230
1.0
  0
TEXT
  8
11
  6
CONTINUOUS
 62
     7
  5
1A4
 10
346674117123.06604
 20
3120066206295.3691
 30
0.0
 40
8.0
  1
50'
 50
358.1472
  7
ROMANS
210
0.0
220
0.0
230
1.0
  0
TEXT
  8
11
  6
CONTINUOUS
 62
     7
  5
1A5
 10
346674116994.85504
 20
3120066206298.189
 30
0.0
 40
8.0
  1
150'
 50
358.1472
  7
ROMANS
210
0.0
220
0.0
230
1.0
  0
TEXT
  8
11
  6
CONTINUOUS
 62
     7
  5
1A6
 10
346674116873.46802
 20
3120066206301.4678
 30
0.0
 40
8.0
  1
150'
 50
358.1472
  7
ROMANS
210
0.0
220
0.0
230
1.0
  0
TEXT
  8
11
  6
CONTINUOUS
 62
     7
  5
1A7
 10
346674116717.69006
 20
3120066206307.228
 30
0.0
 40
8.0
  1
150'
 50
358.1472
  7
ROMANS
210
0.0
220
0.0
230
1.0
  0
TEXT
  8
11
  6
CONTINUOUS
 62
     7
  5
1A8
 10
346674116578.755
 20
3120066206309.6069
 30
0.0
 40
8.0
  1
145'
 50
358.1472
  7
ROMANS
210
0.0
220
0.0
230
1.0
  0
TEXT
  8
11
  6
CONTINUOUS
 62
     7
  5
1A9
 10
346674116429.76904
 20
3120066206315.1719
 30
0.0
 40
8.0
  1
145'
 50
358.1472
  7
ROMANS
210
0.0
220
0.0
230
1.0
  0
TEXT
  8
11
  6
CONTINUOUS
 62
     7
  5
1AA
 10
346674116285.43506
 20
3120066206319.146
 30
0.0
 40
8.0
  1
150'
 50
358.1472
  7
ROMANS
210
0.0
220
0.0
230
1.0
  0
TEXT
  8
11
  6
CONTINUOUS
 62
     7
  5
1AB
 10
346674116065.69104
 20
3120066206328.749
 30
0.0
 40
8.0
  1
300'
 50
358.1472
  7
ROMANS
210
0.0
220
0.0
230
1.0
  0
TEXT
  8
11
  6
CONTINUOUS
 62
     7
  5
1AC
 10
346674115843.81403
 20
3120066206333.6689
 30
0.0
 40
8.0
  1
150'
 50
358.1472
  7
ROMANS
210
0.0
220
0.0
230
1.0
  0
TEXT
  8
11
  6
CONTINUOUS
 62
     7
  5
1AD
 10
346674115688.69501
 20
3120066206339.6221
 30
0.0
 40
8.0
  1
150'
 50
358.1472
  7
ROMANS
210
0.0
220
0.0
230
1.0
  0
TEXT
  8
11
  6
CONTINUOUS
 62
     7
  5
1AE
 10
346674115631.50201
 20
3120066206441.9468
 30
0.0
 40
8.0
  1
325'
 50
88.1472
  7
ROMANS
210
0.0
220
0.0
230
1.0
  0
TEXT
  8
11
  6
CONTINUOUS
 62
     7
  5
1AF
 10
346674115294.19104
 20
3120066206324.4458
 30
0.0
 40
8.0
  1
595'
 50
358.1472
  7
ROMANS
210
0.0
220
0.0
230
1.0
  0
TEXT
  8
11
  6
CONTINUOUS
 62
     7
  5
1B0
 10
346674115068.46204
 20
3120066207281.1841
 30
0.0
 40
8.0
  1
2035.51'
 50
88.1472
  7
ROMANS
210
0.0
220
0.0
230
1.0
  0
TEXT
  8
11
  6
CONTINUOUS
 62
     7
  5
1B1
 10
346674114993.35504
 20
3120066206415.4111
 30
0.0
 40
8.0
  1
40'
 50
358.1472
  7
ROMANS
210
0.0
220
0.0
230
1.0
  0
LINE
  8
7
  6
CONTINUOUS
 62
     7
  5
1B2
 10
346674115624.17401
 20
3120066206635.2788
 30
0.0
 11
346674115614.53906
 21
3120066206337.4312
 31
0.0
  0
LINE
  8
7
  6
CONTINUOUS
 62
     7
  5
1B3
 10
346674117683.09705
 20
3120066206568.6748
 30
0.0
 11
346674115624.17401
 21
3120066206635.2788
 31
0.0
  0
LINE
  8
7
  6
CONTINUOUS
 62
     7
  5
1B4
 10
346674115774.09601
 20
3120066206630.4292
 30
0.0
 11
346674115764.46906
 21
3120066206332.8437
 31
0.0
  0
LINE
  8
7
  6
CONTINUOUS
 62
     7
  5
1B5
 10
346674115924.01703
 20
3120066206625.5791
 30
0.0
 11
346674115914.40002
 21
3120066206328.2568
 31
0.0
  0
LINE
  8
7
  6
CONTINUOUS
 62
     7
  5
1B6
 10
346674116223.86102
 20
3120066206615.8789
 30
0.0
 11
346674116214.25903
 21
3120066206319.084
 31
0.0
  0
LINE
  8
7
  6
CONTINUOUS
 62
     7
  5
1B7
 10
346674116373.78204
 20
3120066206611.0288
 30
0.0
 11
346674116364.19006
 21
3120066206314.4971
 31
0.0
  0
LINE
  8
7
  6
CONTINUOUS
 62
     7
  5
1B8
 10
346674116518.70703
 20
3120066206606.3408
 30
0.0
 11
346674116509.12201
 21
3120066206310.063
 31
0.0
  0
LINE
  8
7
  6
CONTINUOUS
 62
     7
  5
1B9
 10
346674116663.63
 20
3120066206601.6528
 30
0.0
 11
346674116654.05505
 21
3120066206305.6289
 31
0.0
  0
LINE
  8
7
  6
CONTINUOUS
 62
     7
  5
1BA
 10
346674116813.55206
 20
3120066206596.8027
 30
0.0
 11
346674116803.98401
 21
3120066206301.042
 31
0.0
  0
LINE
  8
7
  6
CONTINUOUS
 62
     7
  5
1BB
 10
346674116963.47406
 20
3120066206591.9551
 30
0.0
 11
346674116953.91406
 21
3120066206296.4561
 31
0.0
  0
LINE
  8
7
  6
CONTINUOUS
 62
     7
  5
1BC
 10
346674117113.39502
 20
3120066206587.105
 30
0.0
 11
346674117103.84503
 21
3120066206291.8691
 31
0.0
  0
LINE
  8
7
  6
CONTINUOUS
 62
     7
  5
1BD
 10
346674117162.66901
 20
3120066206585.5098
 30
0.0
 11
346674117153.12201
 21
3120066206290.3711
 31
0.0
  0
LINE
  8
7
  6
CONTINUOUS
 62
     7
  5
1BE
 10
346674117262.617
 20
3120066206582.2769
 30
0.0
 11
346674117253.07501
 21
3120066206287.313
 31
0.0
  0
LINE
  8
7
  6
CONTINUOUS
 62
     7
  5
1BF
 10
346674117394.54803
 20
3120066206578.0088
 30
0.0
 11
346674117385.01501
 21
3120066206283.2817
 31
0.0
  0
LINE
  8
7
  6
CONTINUOUS
 62
     7
  5
1C0
 10
346674117512.48602
 20
3120066206574.1938
 30
0.0
 11
346674117502.95905
 21
3120066206279.6777
 31
0.0
  0
LINE
  8
7
  6
CONTINUOUS
 62
     7
  5
1C1
 10
346674117652.88904
 20
3120066206275.0718
 30
0.0
 11
346674117686.78302
 21
3120066207322.856
 31
0.0
  0
LINE
  8
7
  6
CONTINUOUS
 62
     7
  5
1C2
 10
346674118080.99005
 20
3120066206261.9751
 30
0.0
 11
346674118110.34802
 21
3120066207169.5122
 31
0.0
  0
LINE
  8
7
  6
CONTINUOUS
 62
     7
  5
1C3
 10
346674118577.45801
 20
3120066206246.7871
 30
0.0
 11
346674118601.62006
 21
3120066206993.7598
 31
0.0
  0
LINE
  8
7
  6
CONTINUOUS
 62
     7
  5
1C4
 10
346674119215.96002
 20
3120066206227.2539
 30
0.0
 11
346674119233.56506
 21
3120066206771.4971
 31
0.0
  0
LINE
  8
7
  6
CONTINUOUS
 62
     7
  5
1C5
 10
346674119352.79602
 20
3120066206223.0669
 30
0.0
 11
346674119368.98505
 21
3120066206723.521
 31
0.0
  0
LINE
  8
7
  6
CONTINUOUS
 62
     7
  5
1C6
 10
346674119498.12805
 20
3120066206218.6211
 30
0.0
 11
346674119512.74304
 21
3120066206670.418
 31
0.0
  0
LINE
  8
7
  6
CONTINUOUS
 62
     7
  5
1C7
 10
346674119637.66302
 20
3120066206214.353
 30
0.0
 11
346674119650.86206
 21
3120066206622.3599
 31
0.0
  0
LINE
  8
7
  6
CONTINUOUS
 62
     7
  5
1C8
 10
346674116404.51105
 20
3120066211272.4731
 30
0.0
 11
346674116296.50104
 21
3120066207933.52
 31
0.0
  0
LINE
  8
7
  6
CONTINUOUS
 62
     7
  5
1C9
 10
346674117542.72803
 20
3120066207487.4111
 30
0.0
 11
346674117663.85205
 21
3120066211231.7358
 31
0.0
  0
LINE
  8
7
  6
CONTINUOUS
 62
     7
  5
1CA
 10
346674120311.68701
 20
3120066207874.3711
 30
0.0
 11
346674117558.12701
 21
3120066207963.4448
 31
0.0
  0
LINE
  8
7
  6
CONTINUOUS
 62
     7
  5
1CB
 10
346674119452.35004
 20
3120066210922.1182
 30
0.0
 11
346674119438.45404
 21
3120066210513.9839
 31
0.0
  0
LINE
  8
7
  6
CONTINUOUS
 62
     7
  5
1CC
 10
346674119438.45404
 20
3120066210513.9839
 30
0.0
 11
346674120396.07306
 21
3120066210483.0059
 31
0.0
  0
TEXT
  8
11
  6
CONTINUOUS
 62
     7
  5
1CD
 10
346674115146.45801
 20
3120066209854.6758
 30
0.0
 40
8.0
  1
2744.49'
 50
88.1472
  7
ROMANS
210
0.0
220
0.0
230
1.0
  0
TEXT
  8
11
  6
CONTINUOUS
 62
     7
  5
1CE
 10
346674116350.62701
 20
3120066209754.563
 30
0.0
 40
8.0
  1
3344.90'
 50
88.1472
  7
ROMANS
210
0.0
220
0.0
230
1.0
  0
TEXT
  8
11
  6
CONTINUOUS
 62
     7
  5
1CF
 10
346674117633.43005
 20
3120066209754.5459
 30
0.0
 40
8.0
  1
3500'
 50
88.1472
  7
ROMANS
210
0.0
220
0.0
230
1.0
  0
TEXT
  8
11
  6
CONTINUOUS
 62
     7
  5
1D0
 10
346674117602.68304
 20
3120066209535.2798
 30
0.0
 40
8.0
  1
3346.41'
 50
88.1472
  7
ROMANS
210
0.0
220
0.0
230
1.0
  0
TEXT
  8
11
  6
CONTINUOUS
 62
     7
  5
1D1
 10
346674119039.50006
 20
3120066207923.395
 30
0.0
 40
8.0
  1
2755'
 50
358.1472
  7
ROMANS
210
0.0
220
0.0
230
1.0
  0
TEXT
  8
11
  6
CONTINUOUS
 62
     7
  5
1D2
 10
346674115359.354
 20
3120066211089.4019
 30
0.0
 40
8.0
  1
435'
 50
358.1472
  7
ROMANS
210
0.0
220
0.0
230
1.0
  0
TEXT
  8
11
  6
CONTINUOUS
 62
     7
  5
1D3
 10
346674115544.53302
 20
3120066211117.7378
 30
0.0
 40
8.0
  1
50'
 50
88.1472
  7
ROMANS
210
0.0
220
0.0
230
1.0
  0
TEXT
  8
11
  6
CONTINUOUS
 62
     7
  5
1D4
 10
346674115581.81702
 20
3120066211158.9829
 30
0.0
 40
8.0
  1
50'
 50
358.1472
  7
ROMANS
210
0.0
220
0.0
230
1.0
  0
TEXT
  8
11
  6
CONTINUOUS
 62
     7
  5
1D5
 10
346674115625.13306
 20
3120066211188.123
 30
0.0
 40
8.0
  1
205'
 50
88.1472
  7
ROMANS
210
0.0
220
0.0
230
1.0
  0
TEXT
  8
11
  6
CONTINUOUS
 62
     7
  5
1D6
 10
346674115986.65704
 20
3120066211273.4971
 30
0.0
 40
8.0
  1
790'
 50
358.1472
  7
ROMANS
210
0.0
220
0.0
230
1.0
  0
TEXT
  8
11
  6
CONTINUOUS
 62
     7
  5
1D7
 10
346674116467.26501
 20
3120066211385.5781
 30
0.0
 40
8.0
  1
235'
 50
88.1472
  7
ROMANS
210
0.0
220
0.0
230
1.0
  0
TEXT
  8
11
  6
CONTINUOUS
 62
     7
  5
1D8
 10
346674116836.48706
 20
3120066211476.043
 30
0.0
 40
8.0
  1
820'
 50
358.1472
  7
ROMANS
210
0.0
220
0.0
230
1.0
  0
TEXT
  8
11
  6
CONTINUOUS
 62
     7
  5
1D9
 10
346674117233.00702
 20
3120066211359.3647
 30
0.0
 40
8.0
  1
235'
 50
88.1472
  7
ROMANS
210
0.0
220
0.0
230
1.0
  0
TEXT
  8
11
  6
CONTINUOUS
 62
     7
  5
1DA
 10
346674117321.08301
 20
3120066211221.5898
 30
0.0
 40
8.0
  1
225'
 50
358.1472
  7
ROMANS
210
0.0
220
0.0
230
1.0
  0
TEXT
  8
11
  6
CONTINUOUS
 62
     7
  5
1DB
 10
346674117537.49506
 20
3120066211218.8647
 30
0.0
 40
8.0
  1
215'
 50
358.1472
  7
ROMANS
210
0.0
220
0.0
230
1.0
  0
TEXT
  8
11
  6
CONTINUOUS
 62
     7
  5
1DC
 10
346674117457.93201
 20
3120066211025.0991
 30
0.0
 40
8.0
  1
400'
 50
88.1472
  7
ROMANS
210
0.0
220
0.0
230
1.0
  0
TEXT
  8
11
  6
CONTINUOUS
 62
     7
  5
1DD
 10
346674117532.94501
 20
3120066210834.75
 30
0.0
 40
8.0
  1
215'
 50
358.1472
  7
ROMANS
210
0.0
220
0.0
230
1.0
  0
LINE
  8
7
  6
CONTINUOUS
 62
     7
  5
1DE
 10
346674117448.96503
 20
3120066211238.687
 30
0.0
 11
346674117435.87103
 21
3120066210833.8979
 31
0.0
  0
LINE
  8
7
  6
CONTINUOUS
 62
     7
  5
1DF
 10
346674117435.87103
 20
3120066210833.8979
 30
0.0
 11
346674117650.75806
 21
3120066210826.9468
 31
0.0
  0
TEXT
  8
11
  6
CONTINUOUS
 62
     7
  5
1E0
 10
346674118512.59906
 20
3120066211422.3271
 30
0.0
 40
8.0
  1
1800'
 50
358.1472
  7
ROMANS
210
0.0
220
0.0
230
1.0
  0
LINE
  8
7
  6
CONTINUOUS
 62
     7
  5
1E1
 10
346674120048.40002
 20
3120066211024.5298
 30
0.0
 11
346674119971.15906
 21
3120066211027.0288
 31
0.0
  0
LINE
  8
6
  6
CONTINUOUS
 62
     7
  5
1E2
 10
346674120254.74701
 20
3120066206169.2979
 30
0.0
 11
346674120264.21906
 21
3120066206406.9897
 31
0.0
  0
TEXT
  8
11
  6
CONTINUOUS
 62
     7
  5
1E3
 10
346674120378.98401
 20
3120066210937.043
 30
0.0
 40
8.0
  1
55'
 50
358.1472
  7
ROMANS
210
0.0
220
0.0
230
1.0
  0
TEXT
  8
11
  6
CONTINUOUS
 62
     7
  5
1E4
 10
346674120384.93903
 20
3120066211295.6841
 30
0.0
 40
8.0
  1
55'
 50
358.1472
  7
ROMANS
210
0.0
220
0.0
230
1.0
  0
TEXT
  8
11
  6
CONTINUOUS
 62
     7
  5
1E5
 10
346674120283.81903
 20
3120066211403.1987
 30
0.0
 40
8.0
  1
65'
 50
88.1472
  7
ROMANS
210
0.0
220
0.0
230
1.0
  0
TEXT
  8
11
  6
CONTINUOUS
 62
     7
  5
1E6
 10
346674117782.90601
 20
3120066211480.8901
 30
0.0
 40
8.0
  1
65'
 50
88.1472
  7
ROMANS
210
0.0
220
0.0
230
1.0
  0
TEXT
  8
11
  6
CONTINUOUS
 62
     7
  5
1E7
 10
346674119708.46503
 20
3120066211421.811
 30
0.0
 40
8.0
  1
65'
 50
88.1472
  7
ROMANS
210
0.0
220
0.0
230
1.0
  0
TEXT
  8
11
  6
CONTINUOUS
 62
     7
  5
1E8
 10
346674120298.57703
 20
3120066210896.3989
 30
0.0
 40
8.0
  1
75.44'
 50
358.1472
  7
ROMANS
210
0.0
220
0.0
230
1.0
  0
TEXT
  8
11
  6
CONTINUOUS
 62
     7
  5
1E9
 10
346674120311.94006
 20
3120066211309.5122
 30
0.0
 40
8.0
  1
75.44'
 50
358.1472
  7
ROMANS
210
0.0
220
0.0
230
1.0
  0
TEXT
  8
11
  6
CONTINUOUS
 62
     7
  5
1EA
 10
346674120311.98505
 20
3120066211365.8647
 30
0.0
 40
8.0
  1
45'
 50
358.1472
  7
ROMANS
210
0.0
220
0.0
230
1.0
  0
TEXT
  8
11
  6
CONTINUOUS
 62
     7
  5
1EB
 10
346674120380.76904
 20
3120066210875.1357
 30
0.0
 40
8.0
  1
40'
 50
358.1472
  7
ROMANS
210
0.0
220
0.0
230
1.0
  0
TEXT
  8
11
  6
CONTINUOUS
 62
     7
  5
1EC
 10
346674120229.91205
 20
3120066206188.627
 30
0.0
 40
8.0
  1
40'
 50
358.1472
  7
ROMANS
210
0.0
220
0.0
230
1.0
  0
ENDSEC
  0
EOF
