  0
SECTION
  2
HEADER
  9
$ACADVER
  1
AC1009
  9
$INSBASE
 10
0.0
 20
0.0
 30
0.0
  9
$EXTMIN
 10
914612.282
 20
7237099.403
 30
0.0
  9
$EXTMAX
 10
920071.558
 20
7242638.211
 30
0.0
  9
$LIMMIN
 10
0.0
 20
0.0
  9
$LIMMAX
 10
12.0
 20
9.0
  9
$ORTHOMODE
 70
     0
  9
$REGENMODE
 70
     1
  9
$FILLMODE
 70
     1
  9
$QTEXTMODE
 70
     0
  9
$MIRRTEXT
 70
     1
  9
$DRAGMODE
 70
     2
  9
$LTSCALE
 40
1.0
  9
$OSMODE
 70
     0
  9
$ATTMODE
 70
     1
  9
$TEXTSIZE
 40
0.2
  9
$TRACEWID
 40
0.05
  9
$TEXTSTYLE
  7
STANDARD
  9
$CLAYER
  8
0
  9
$CELTYPE
  6
CONTINUOUS
  9
$CECOLOR
 62
   256
  9
$DIMSCALE
 40
1.0
  9
$DIMASZ
 40
0.18
  9
$DIMEXO
 40
0.0625
  9
$DIMDLI
 40
0.38
  9
$DIMRND
 40
0.0
  9
$DIMDLE
 40
0.0
  9
$DIMEXE
 40
0.18
  9
$DIMTP
 40
0.0
  9
$DIMTM
 40
0.0
  9
$DIMTXT
 40
0.18
  9
$DIMCEN
 40
0.09
  9
$DIMTSZ
 40
0.0
  9
$DIMTOL
 70
     0
  9
$DIMLIM
 70
     0
  9
$DIMTIH
 70
     1
  9
$DIMTOH
 70
     1
  9
$DIMSE1
 70
     0
  9
$DIMSE2
 70
     0
  9
$DIMTAD
 70
     0
  9
$DIMZIN
 70
     0
  9
$DIMBLK
  1

  9
$DIMASO
 70
     1
  9
$DIMSHO
 70
     1
  9
$DIMPOST
  1

  9
$DIMAPOST
  1

  9
$DIMALT
 70
     0
  9
$DIMALTD
 70
     2
  9
$DIMALTF
 40
25.4
  9
$DIMLFAC
 40
1.0
  9
$DIMTOFL
 70
     0
  9
$DIMTVP
 40
0.0
  9
$DIMTIX
 70
     0
  9
$DIMSOXD
 70
     0
  9
$DIMSAH
 70
     0
  9
$DIMBLK1
  1

  9
$DIMBLK2
  1

  9
$DIMSTYLE
  2
STANDARD
  9
$DIMCLRD
 70
     0
  9
$DIMCLRE
 70
     0
  9
$DIMCLRT
 70
     0
  9
$DIMTFAC
 40
1.0
  9
$DIMGAP
 40
0.09
  9
$LUNITS
 70
     2
  9
$LUPREC
 70
     4
  9
$AXISMODE
 70
     0
  9
$AXISUNIT
 10
0.0
 20
0.0
  9
$SKETCHINC
 40
0.1
  9
$FILLETRAD
 40
0.0
  9
$AUNITS
 70
     0
  9
$AUPREC
 70
     0
  9
$MENU
  1
acad
  9
$ELEVATION
 40
0.0
  9
$PELEVATION
 40
0.0
  9
$THICKNESS
 40
0.0
  9
$LIMCHECK
 70
     0
  9
$BLIPMODE
 70
     1
  9
$CHAMFERA
 40
0.0
  9
$CHAMFERB
 40
0.0
  9
$SKPOLY
 70
     0
  9
$TDCREATE
 40
2453013.904594908
  9
$TDUPDATE
 40
2453013.904594908
  9
$TDINDWG
 40
0.0000000000
  9
$TDUSRTIMER
 40
0.0000000000
  9
$USRTIMER
 70
     1
  9
$ANGBASE
 50
0.0
  9
$ANGDIR
 70
     0
  9
$PDMODE
 70
     0
  9
$PDSIZE
 40
0.0
  9
$PLINEWID
 40
0.0
  9
$COORDS
 70
     0
  9
$SPLFRAME
 70
     0
  9
$SPLINETYPE
 70
     6
  9
$SPLINESEGS
 70
    10
  9
$ATTDIA
 70
     0
  9
$ATTREQ
 70
     1
  9
$HANDLING
 70
     1
  9
$HANDSEED
  5
77
  9
$SURFTAB1
 70
     6
  9
$SURFTAB2
 70
     6
  9
$SURFTYPE
 70
     6
  9
$SURFU
 70
     6
  9
$SURFV
 70
     6
  9
$UCSNAME
  2

  9
$UCSORG
 10
0.0
 20
0.0
 30
0.0
  9
$UCSXDIR
 10
1.0
 20
0.0
 30
0.0
  9
$UCSYDIR
 10
0.0
 20
1.0
 30
0.0
  9
$PUCSNAME
  2

  9
$PUCSORG
 10
0.0
 20
0.0
 30
0.0
  9
$PUCSXDIR
 10
1.0
 20
0.0
 30
0.0
  9
$PUCSYDIR
 10
0.0
 20
1.0
 30
0.0
  9
$USERI1
 70
     0
  9
$USERI2
 70
     0
  9
$USERI3
 70
     0
  9
$USERI4
 70
     0
  9
$USERI5
 70
     0
  9
$USERR1
 40
0.0
  9
$USERR2
 40
0.0
  9
$USERR3
 40
0.0
  9
$USERR4
 40
0.0
  9
$USERR5
 40
0.0
  9
$WORLDVIEW
 70
     1
  9
$SHADEDGE
 70
     3
  9
$SHADEDIF
 70
    70
  9
$TILEMODE
 70
     1
  9
$MAXACTVP
 70
    16
  9
$PINSBASE
 10
0.0
 20
0.0
 30
0.0
  9
$PLIMCHECK
 70
     0
  9
$PEXTMIN
 10
-1.000000E+20
 20
-1.000000E+20
 30
-1.000000E+20
  9
$PEXTMAX
 10
-1.000000E+20
 20
-1.000000E+20
 30
-1.000000E+20
  9
$PLIMMIN
 10
0.0
 20
0.0
  9
$PLIMMAX
 10
12.0
 20
9.0
  9
$UNITMODE
 70
     0
  9
$VISRETAIN
 70
     0
  9
$PLINEGEN
 70
     1
  9
$PSLTSCALE
 70
     0
  9
$TREEDEPTH
 70
  3020
  9
$DWGCODEPAGE
  3
ansi_1252
  0
ENDSEC
  0
SECTION
  2
TABLES
  0
TABLE
  2
VPORT
 70
     1
  0
VPORT
  2
*ACTIVE
 70
     0
 10
0.0
 20
0.0
 11
1.0
 21
1.0
 12
0.0
 22
0.0
 13
0.0
 23
0.0
 14
0.0
 24
0.0
 15
0.0
 25
0.0
 16
0.0
 26
0.0
 36
1.0
 17
917341.9195
 27
7239900.413178
 37
0.0
 40
5906.008357
 41
1.422757
 42
50.0
 43
0.004
 44
0.0
 50
0.0
 51
0.0
 71
     0
 72
   100
 73
     1
 74
     0
 75
     0
 76
     0
 77
     0
 78
     0
  0
ENDTAB
  0
TABLE
  2
LTYPE
 70
     7
  0
LTYPE
  2
CONTINUOUS
 70
     0
  3
Solid line
 72
    65
 73
     0
 40
0.0
  0
LTYPE
  2
DOT
 70
    64
  3
. . . . . . . . . . . . . . . . . . . . . . . . . . . . . . . . .
 72
    65
 73
     2
 40
0.25
 49
0.0
 49
-0.25
  0
LTYPE
  2
HIDDEN
 70
    64
  3
__ __ __ __ __ __ __ __ __ __ __ __ __ __ __ __ __ __ __ __ __ 
 72
    65
 73
     2
 40
0.375
 49
0.25
 49
-0.125
  0
LTYPE
  2
DASHED
 70
    64
  3
__ __ __ __ __ __ __ __ __ __ __ __ __ __ __ __ __ __ __ __ __
 72
    65
 73
     2
 40
0.75
 49
0.5
 49
-0.25
  0
LTYPE
  2
DASHDOT
 70
    64
  3
__ . __ . __ . __ . __ . __ . __ . __ . __ . __ . __ . __ . _
 72
    65
 73
     4
 40
1.0
 49
0.5
 49
-0.25
 49
0.0
 49
-0.25
  0
LTYPE
  2
DIVIDE
 70
    64
  3
____ . . ____ . . ____ . . ____ . . ____ . . ____ . . ____ . .
 72
    65
 73
     6
 40
1.25
 49
0.5
 49
-0.25
 49
0.0
 49
-0.25
 49
0.0
 49
-0.25
  0
LTYPE
  2
CENTER
 70
    64
  3
____ _ ____ _ ____ _ ____ _ ____ _ ____ _ ____ _ ____ _ ____ _
 72
    65
 73
     4
 40
2.0
 49
1.25
 49
-0.25
 49
0.25
 49
-0.25
  0
ENDTAB
  0
TABLE
  2
LAYER
 70
    11
  0
LAYER
  2
0
 70
     0
 62
     7
  6
CONTINUOUS
  0
LAYER
  2
CONSTRUCTION_CLASS
 70
     1
 62
     7
  6
CONTINUOUS
  0
LAYER
  2
PATTERN_CLASS
 70
     0
 62
     7
  6
CONTINUOUS
  0
LAYER
  2
1
 70
    64
 62
     7
  6
CONTINUOUS
  0
LAYER
  2
6
 70
    64
 62
     7
  6
CONTINUOUS
  0
LAYER
  2
19
 70
    64
 62
     7
  6
CONTINUOUS
  0
LAYER
  2
11
 70
    64
 62
     7
  6
CONTINUOUS
  0
LAYER
  2
13
 70
    64
 62
     7
  6
CONTINUOUS
  0
LAYER
  2
10
 70
    64
 62
     7
  6
CONTINUOUS
  0
LAYER
  2
15
 70
    64
 62
     7
  6
CONTINUOUS
  0
LAYER
  2
58
 70
    64
 62
     7
  6
CONTINUOUS
  0
ENDTAB
  0
TABLE
  2
STYLE
 70
     4
  0
STYLE
  2
STANDARD
 70
     0
 40
0.0
 41
1.0
 50
0.0
 71
     0
 42
0.0
  3
txt
  4

  0
STYLE
  2
ROMANC
 70
     0
 40
0.2
 41
1.0
 50
0.0
 71
     0
 42
0.2
  3
ROMANC
  4

  0
STYLE
  2
ROMANS
 70
     0
 40
0.2
 41
1.0
 50
0.0
 71
     0
 42
0.2
  3
ROMANS
  4

  0
STYLE
  2
txt
 70
     0
 40
0.2
 41
1.0
 50
0.0
 71
     0
 42
0.2
  3
TXT
  4

  0
ENDTAB
  0
TABLE
  2
VIEW
 70
     0
  0
ENDTAB
  0
TABLE
  2
UCS
 70
     0
  0
ENDTAB
  0
TABLE
  2
APPID
 70
     1
  0
APPID
  2
ACAD
 70
     0
  0
ENDTAB
  0
TABLE
  2
DIMSTYLE
 70
     1
  0
DIMSTYLE
  2
STANDARD
 70
     0
  3

  4

  5

  6

  7

 40
1.0
 41
0.18
 42
0.0625
 43
0.38
 44
0.18
 45
0.0
 46
0.0
 47
0.0
 48
0.0
140
0.18
141
0.09
142
0.0
143
25.4
144
1.0
145
0.0
146
1.0
147
0.09
 71
     0
 72
     0
 73
     1
 74
     1
 75
     0
 76
     0
 77
     0
 78
     0
170
     0
171
     2
172
     0
173
     0
174
     0
175
     0
176
     0
177
     0
178
     0
  0
ENDTAB
  0
ENDSEC
  0
SECTION
  2
BLOCKS
  0
ENDSEC
  0
SECTION
  2
ENTITIES
  0
POLYLINE
  8
1
  6
HIDDEN
 62
   253
  5
29
 66
     1
 10
0.0
 20
0.0
 30
0.0
  0
VERTEX
  8
1
  6
HIDDEN
 62
   253
  5
2A
 10
920071.558
 20
7242469.836
 30
0.0
  0
VERTEX
  8
1
  6
HIDDEN
 62
   253
  5
2B
 10
914782.015
 20
7242638.211
 30
0.0
  0
VERTEX
  8
1
  6
HIDDEN
 62
   253
  5
2C
 10
914612.282
 20
7237261.768
 30
0.0
  0
VERTEX
  8
1
  6
HIDDEN
 62
   253
  5
2D
 10
919903.284
 20
7237099.403
 30
0.0
  0
VERTEX
  8
1
  6
HIDDEN
 62
   253
  5
2E
 10
920052.199
 20
7242388.836
 30
0.0
  0
SEQEND
  8
1
  6
HIDDEN
 62
   253
  5
2F
  0
LINE
  8
6
  6
CONTINUOUS
 62
     7
  5
31
 10
914643.149
 20
7237290.833
 30
0.0
 11
919840.519
 21
7237131.06
 31
0.0
  0
LINE
  8
6
  6
CONTINUOUS
 62
     7
  5
32
 10
920011.474
 20
7242338.175
 30
0.0
 11
920003.286
 21
7242056.961
 31
0.0
  0
LINE
  8
6
  6
CONTINUOUS
 62
     7
  5
33
 10
920003.286
 20
7242056.961
 30
0.0
 11
918723.938
 21
7242094.214
 31
0.0
  0
LINE
  8
6
  6
CONTINUOUS
 62
     7
  5
34
 10
918704.728
 20
7241434.494
 30
0.0
 11
919979.269
 21
7241397.379
 31
0.0
  0
LINE
  8
6
  6
CONTINUOUS
 62
     7
  5
35
 10
919979.269
 20
7241397.379
 30
0.0
 11
919860.369
 21
7237174.43
 31
0.0
  0
LINE
  8
6
  6
CONTINUOUS
 62
     7
  5
36
 10
919860.369
 20
7237174.43
 30
0.0
 11
919840.519
 21
7237131.06
 31
0.0
  0
LINE
  8
6
  6
CONTINUOUS
 62
     7
  5
37
 10
920011.474
 20
7242338.175
 30
0.0
 11
914795.801
 21
7242487.638
 31
0.0
  0
LINE
  8
6
  6
CONTINUOUS
 62
     7
  5
38
 10
914795.801
 20
7242487.638
 30
0.0
 11
914643.149
 21
7237290.833
 31
0.0
  0
LINE
  8
6
  6
CONTINUOUS
 62
     7
  5
39
 10
919987.82
 20
7242037.401
 30
0.0
 11
918787.328
 21
7242072.359
 31
0.0
  0
LINE
  8
6
  6
CONTINUOUS
 62
     7
  5
3A
 10
919969.773
 20
7241417.665
 30
0.0
 11
918769.282
 21
7241452.622
 31
0.0
  0
LINE
  8
6
  6
CONTINUOUS
 62
     7
  5
3B
 10
918787.328
 20
7242072.359
 30
0.0
 11
918779.615
 21
7241807.471
 31
0.0
  0
LINE
  8
6
  6
CONTINUOUS
 62
     7
  5
3C
 10
918776.995
 20
7241717.51
 30
0.0
 11
918769.282
 21
7241452.622
 31
0.0
  0
LINE
  8
6
  6
CONTINUOUS
 62
     7
  5
3D
 10
919987.82
 20
7242037.401
 30
0.0
 11
919980.106
 21
7241772.514
 31
0.0
  0
LINE
  8
6
  6
CONTINUOUS
 62
     7
  5
3E
 10
919977.487
 20
7241682.552
 30
0.0
 11
919969.773
 21
7241417.665
 31
0.0
  0
LINE
  8
6
  6
CONTINUOUS
 62
     7
  5
3F
 10
919962.929
 20
7241697.983
 30
0.0
 11
918792.426
 21
7241732.067
 31
0.0
  0
LINE
  8
6
  6
CONTINUOUS
 62
     7
  5
40
 10
919964.676
 20
7241757.957
 30
0.0
 11
918794.172
 21
7241792.041
 31
0.0
  0
ARC
  8
6
  6
CONTINUOUS
 62
     7
  5
41
 10
918794.608339
 20
7241807.034693
 30
0.0
 40
15.0
 50
178.33205
 51
268.33205
210
0.0
220
0.0
230
1.0
  0
TEXT
  8
19
  6
CONTINUOUS
 62
     1
  5
44
 10
918749.541
 20
7241606.184
 30
0.0
 40
24.0
  1
HOMESTEAD AVE
 50
88.33205
  7
ROMANC
 72
     4
 11
918742.59803
 21
7241780.023746
 31
0.0
210
0.0
220
0.0
230
1.0
  0
LINE
  8
6
  6
CONTINUOUS
 62
     7
  5
45
 10
918723.356
 20
7242074.222
 30
0.0
 11
918715.642
 21
7241809.334
 31
0.0
  0
LINE
  8
6
  6
CONTINUOUS
 62
     7
  5
46
 10
918713.022
 20
7241719.372
 30
0.0
 11
918705.309
 21
7241454.485
 31
0.0
  0
LINE
  8
6
  6
CONTINUOUS
 62
     7
  5
47
 10
917404.497
 20
7242132.635
 30
0.0
 11
917385.286
 21
7241472.915
 31
0.0
  0
LINE
  8
6
  6
CONTINUOUS
 62
     7
  5
48
 10
917425.851
 20
7241491.742
 30
0.0
 11
917433.565
 21
7241756.629
 31
0.0
  0
TEXT
  8
11
  6
CONTINUOUS
 62
     7
  5
4B
 10
918005.173
 20
7242117.562
 30
0.0
 40
8.0
  1
1320'
 50
358.33205
  7
ROMANS
 72
     4
 11
918022.615084
 21
7242121.055792
 31
0.0
210
0.0
220
0.0
230
1.0
  0
TEXT
  8
11
  6
CONTINUOUS
 62
     7
  5
4C
 10
917985.582
 20
7241444.784
 30
0.0
 40
8.0
  1
1320'
 50
358.33205
  7
ROMANS
 72
     4
 11
918003.024084
 21
7241448.277792
 31
0.0
210
0.0
220
0.0
230
1.0
  0
TEXT
  8
11
  6
CONTINUOUS
 62
     7
  5
4D
 10
918004.2
 20
7242084.139
 30
0.0
 40
8.0
  1
1280'
 50
358.33205
  7
ROMANS
 72
     4
 11
918021.642084
 21
7242087.632792
 31
0.0
210
0.0
220
0.0
230
1.0
  0
TEXT
  8
11
  6
CONTINUOUS
 62
     7
  5
4E
 10
917986.618
 20
7241480.364
 30
0.0
 40
8.0
  1
1280'
 50
358.33205
  7
ROMANS
 72
     4
 11
918004.060084
 21
7241483.857792
 31
0.0
210
0.0
220
0.0
230
1.0
  0
TEXT
  8
11
  6
CONTINUOUS
 62
     7
  5
4F
 10
917996.445
 20
7241817.831
 30
0.0
 40
8.0
  1
1250'
 50
358.33205
  7
ROMANS
 72
     4
 11
918013.887084
 21
7241821.324792
 31
0.0
210
0.0
220
0.0
230
1.0
  0
TEXT
  8
11
  6
CONTINUOUS
 62
     7
  5
50
 10
917994.279
 20
7241743.437
 30
0.0
 40
8.0
  1
1250'
 50
358.33205
  7
ROMANS
 72
     4
 11
918011.721084
 21
7241746.930792
 31
0.0
210
0.0
220
0.0
230
1.0
  0
TEXT
  8
11
  6
CONTINUOUS
 62
     7
  5
51
 10
917393.609
 20
7241788.381
 30
0.0
 40
8.0
  1
660'
 50
88.33205
  7
ROMANS
 72
     4
 11
917389.99878
 21
7241801.824779
 31
0.0
210
0.0
220
0.0
230
1.0
  0
TEXT
  8
11
  6
CONTINUOUS
 62
     7
  5
52
 10
917450.728
 20
7241991.581
 30
0.0
 40
8.0
  1
265'
 50
88.33205
  7
ROMANS
 72
     4
 11
917447.11778
 21
7242005.024779
 31
0.0
210
0.0
220
0.0
230
1.0
  0
TEXT
  8
11
  6
CONTINUOUS
 62
     7
  5
53
 10
917439.368
 20
7241601.467
 30
0.0
 40
8.0
  1
265'
 50
88.33205
  7
ROMANS
 72
     4
 11
917435.75778
 21
7241614.910779
 31
0.0
210
0.0
220
0.0
230
1.0
  0
TEXT
  8
19
  6
CONTINUOUS
 62
     1
  5
54
 10
919302.905
 20
7241734.51
 30
0.0
 40
24.0
  1
116TH ST
 50
358.33205
  7
ROMANC
 72
     4
 11
919396.846613
 21
7241743.779559
 31
0.0
210
0.0
220
0.0
230
1.0
  0
TEXT
  8
19
  6
CONTINUOUS
 62
     1
  5
55
 10
919984.301
 20
7240498.79
 30
0.0
 40
24.0
  1
FRANKFORD AVE
 50
88.33205
  7
ROMANC
 72
     4
 11
919977.391038
 21
7240673.763265
 31
0.0
210
0.0
220
0.0
230
1.0
  0
TEXT
  8
19
  6
CONTINUOUS
 62
     1
  5
56
 10
915927.958
 20
7237230.67
 30
0.0
 40
24.0
  1
FARM ROAD 1585
 50
358.33205
  7
ROMANC
 72
     4
 11
916110.112222
 21
7237237.370857
 31
0.0
210
0.0
220
0.0
230
1.0
  0
TEXT
  8
13
  6
CONTINUOUS
 62
    14
  5
59
 10
915942.05
 20
7238591.25
 30
0.0
 40
8.0
  1
V4163 P085
 50
358.33205
  7
txt
 72
     4
 11
915979.755495
 21
7238594.153732
 31
0.0
210
0.0
220
0.0
230
1.0
  0
LINE
  8
6
  6
CONTINUOUS
 62
     7
  5
5A
 10
917253.437
 20
7237210.59
 30
0.0
 11
917329.513
 21
7239823.125
 31
0.0
  0
LINE
  8
6
  6
CONTINUOUS
 62
     7
  5
5B
 10
917329.513
 20
7239823.125
 30
0.0
 11
914720.424
 21
7239899.1
 31
0.0
  0
TEXT
  8
10
  6
CONTINUOUS
 62
   134
  5
5D
 10
916228.853
 20
7240771.187
 30
0.0
 40
13.999
  1
UNSUBDIVIDED
 50
358.33205
  7
ROMANS
 72
     4
 11
916310.472239
 21
7240775.81326
 31
0.0
210
0.0
220
0.0
230
1.0
  0
TEXT
  8
13
  6
CONTINUOUS
 62
    14
  5
5E
 10
918109.982
 20
7241775.911
 30
0.0
 40
8.0
  1
V5772 P255
 50
358.33205
  7
ROMANS
 72
     4
 11
918148.426182
 21
7241778.793222
 31
0.0
210
0.0
220
0.0
230
1.0
  0
ARC
  8
6
  6
CONTINUOUS
 62
     7
  5
5F
 10
917451.178253
 20
7241846.154921
 30
0.0
 40
15.0
 50
178.33205
 51
268.33205
210
0.0
220
0.0
230
1.0
  0
LINE
  8
6
  6
CONTINUOUS
 62
     7
  5
60
 10
918700.212
 20
7241794.778
 30
0.0
 11
917450.742
 21
7241831.162
 31
0.0
  0
LINE
  8
6
  6
CONTINUOUS
 62
     7
  5
61
 10
917448.995
 20
7241771.187
 30
0.0
 11
918698.465
 21
7241734.803
 31
0.0
  0
ARC
  8
6
  6
CONTINUOUS
 62
     7
  5
62
 10
917448.558613
 20
7241756.193055
 30
0.0
 40
15.0
 50
88.33205
 51
178.33205
210
0.0
220
0.0
230
1.0
  0
LINE
  8
6
  6
CONTINUOUS
 62
     7
  5
63
 10
918705.309
 20
7241454.485
 30
0.0
 11
917425.851
 21
7241491.742
 31
0.0
  0
LINE
  8
6
  6
CONTINUOUS
 62
     7
  5
64
 10
917385.286
 20
7241472.915
 30
0.0
 11
918704.728
 21
7241434.494
 31
0.0
  0
LINE
  8
6
  6
CONTINUOUS
 62
     7
  5
65
 10
917443.898
 20
7242111.48
 30
0.0
 11
918723.356
 21
7242074.222
 31
0.0
  0
LINE
  8
6
  6
CONTINUOUS
 62
     7
  5
66
 10
918723.938
 20
7242094.214
 30
0.0
 11
917404.497
 21
7242132.635
 31
0.0
  0
LINE
  8
6
  6
CONTINUOUS
 62
     7
  5
67
 10
917436.185
 20
7241846.591
 30
0.0
 11
917443.898
 21
7242111.48
 31
0.0
  0
ARC
  8
6
  6
CONTINUOUS
 62
     7
  5
68
 10
918700.648626
 20
7241809.771037
 30
0.0
 40
15.0
 50
268.33205
 51
358.33205
210
0.0
220
0.0
230
1.0
  0
ARC
  8
6
  6
CONTINUOUS
 62
     7
  5
69
 10
918698.028986
 20
7241719.80917
 30
0.0
 40
15.0
 50
358.33205
 51
88.33205
210
0.0
220
0.0
230
1.0
  0
ARC
  8
6
  6
CONTINUOUS
 62
     7
  5
6A
 10
918791.9887
 20
7241717.072826
 30
0.0
 40
15.0
 50
88.33205
 51
178.33205
210
0.0
220
0.0
230
1.0
  0
ARC
  8
6
  6
CONTINUOUS
 62
     7
  5
6B
 10
919962.493004
 20
7241682.988679
 30
0.0
 40
15.0
 50
358.33205
 51
88.33205
210
0.0
220
0.0
230
1.0
  0
ARC
  8
6
  6
CONTINUOUS
 62
     7
  5
6C
 10
919965.112643
 20
7241772.950546
 30
0.0
 40
15.0
 50
268.33205
 51
358.33205
210
0.0
220
0.0
230
1.0
  0
TEXT
  8
15
  6
CONTINUOUS
 62
    30
  5
6E
 10
917738.485
 20
7241619.361
 30
0.0
 40
50.0
  1
HAYS ESTATES
 50
28.33205
  7
ROMANC
 72
     4
 11
918007.300733
 21
7241792.69963
 31
0.0
210
0.0
220
0.0
230
1.0
  0
TEXT
  8
15
  6
CONTINUOUS
 62
    30
  5
6F
 10
918967.831
 20
7241602.984
 30
0.0
 40
50.0
  1
HAYS ESTATES
 50
28.33205
  7
ROMANC
 72
     4
 11
919236.646733
 21
7241776.32263
 31
0.0
210
0.0
220
0.0
230
1.0
  0
TEXT
  8
19
  6
CONTINUOUS
 62
     1
  5
70
 10
919934.841
 20
7238502.916
 30
0.0
 40
24.0
  1
FRANKFORD AVE
 50
88.33205
  7
ROMANC
 72
     4
 11
919927.931038
 21
7238677.889265
 31
0.0
210
0.0
220
0.0
230
1.0
  0
TEXT
  8
19
  6
CONTINUOUS
 62
     1
  5
71
 10
918391.453
 20
7237144.633
 30
0.0
 40
24.0
  1
FARM ROAD 1585
 50
358.33205
  7
ROMANC
 72
     4
 11
918573.607222
 21
7237151.333857
 31
0.0
210
0.0
220
0.0
230
1.0
  0
LINE
  8
58
  6
DIVIDE
 62
   216
  5
73
 10
914749.573
 20
7241924.108
 30
0.0
 11
920035.007
 21
7241758.927
 31
0.0
  0
ENDSEC
  0
EOF
