  0
SECTION
  2
HEADER
  9
$ACADVER
  1
AC1009
  9
$INSBASE
 10
0.0
 20
0.0
 30
0.0
  9
$EXTMIN
 10
925171.42
 20
7236772.433
 30
0.0
  9
$EXTMAX
 10
930620.078
 20
7242302.176
 30
0.0
  9
$LIMMIN
 10
0.0
 20
0.0
  9
$LIMMAX
 10
12.0
 20
9.0
  9
$ORTHOMODE
 70
     0
  9
$REGENMODE
 70
     1
  9
$FILLMODE
 70
     1
  9
$QTEXTMODE
 70
     0
  9
$MIRRTEXT
 70
     1
  9
$DRAGMODE
 70
     2
  9
$LTSCALE
 40
1.0
  9
$OSMODE
 70
     0
  9
$ATTMODE
 70
     1
  9
$TEXTSIZE
 40
0.2
  9
$TRACEWID
 40
0.05
  9
$TEXTSTYLE
  7
STANDARD
  9
$CLAYER
  8
0
  9
$CELTYPE
  6
CONTINUOUS
  9
$CECOLOR
 62
   256
  9
$DIMSCALE
 40
1.0
  9
$DIMASZ
 40
0.18
  9
$DIMEXO
 40
0.0625
  9
$DIMDLI
 40
0.38
  9
$DIMRND
 40
0.0
  9
$DIMDLE
 40
0.0
  9
$DIMEXE
 40
0.18
  9
$DIMTP
 40
0.0
  9
$DIMTM
 40
0.0
  9
$DIMTXT
 40
0.18
  9
$DIMCEN
 40
0.09
  9
$DIMTSZ
 40
0.0
  9
$DIMTOL
 70
     0
  9
$DIMLIM
 70
     0
  9
$DIMTIH
 70
     1
  9
$DIMTOH
 70
     1
  9
$DIMSE1
 70
     0
  9
$DIMSE2
 70
     0
  9
$DIMTAD
 70
     0
  9
$DIMZIN
 70
     0
  9
$DIMBLK
  1

  9
$DIMASO
 70
     1
  9
$DIMSHO
 70
     1
  9
$DIMPOST
  1

  9
$DIMAPOST
  1

  9
$DIMALT
 70
     0
  9
$DIMALTD
 70
     2
  9
$DIMALTF
 40
25.4
  9
$DIMLFAC
 40
1.0
  9
$DIMTOFL
 70
     0
  9
$DIMTVP
 40
0.0
  9
$DIMTIX
 70
     0
  9
$DIMSOXD
 70
     0
  9
$DIMSAH
 70
     0
  9
$DIMBLK1
  1

  9
$DIMBLK2
  1

  9
$DIMSTYLE
  2
STANDARD
  9
$DIMCLRD
 70
     0
  9
$DIMCLRE
 70
     0
  9
$DIMCLRT
 70
     0
  9
$DIMTFAC
 40
1.0
  9
$DIMGAP
 40
0.09
  9
$LUNITS
 70
     2
  9
$LUPREC
 70
     4
  9
$AXISMODE
 70
     0
  9
$AXISUNIT
 10
0.0
 20
0.0
  9
$SKETCHINC
 40
0.1
  9
$FILLETRAD
 40
0.0
  9
$AUNITS
 70
     0
  9
$AUPREC
 70
     0
  9
$MENU
  1
acad
  9
$ELEVATION
 40
0.0
  9
$PELEVATION
 40
0.0
  9
$THICKNESS
 40
0.0
  9
$LIMCHECK
 70
     0
  9
$BLIPMODE
 70
     1
  9
$CHAMFERA
 40
0.0
  9
$CHAMFERB
 40
0.0
  9
$SKPOLY
 70
     0
  9
$TDCREATE
 40
2453013.904537037
  9
$TDUPDATE
 40
2453013.904537037
  9
$TDINDWG
 40
0.0000000000
  9
$TDUSRTIMER
 40
0.0000000000
  9
$USRTIMER
 70
     1
  9
$ANGBASE
 50
0.0
  9
$ANGDIR
 70
     0
  9
$PDMODE
 70
     0
  9
$PDSIZE
 40
0.0
  9
$PLINEWID
 40
0.0
  9
$COORDS
 70
     0
  9
$SPLFRAME
 70
     0
  9
$SPLINETYPE
 70
     6
  9
$SPLINESEGS
 70
    10
  9
$ATTDIA
 70
     0
  9
$ATTREQ
 70
     1
  9
$HANDLING
 70
     1
  9
$HANDSEED
  5
77
  9
$SURFTAB1
 70
     6
  9
$SURFTAB2
 70
     6
  9
$SURFTYPE
 70
     6
  9
$SURFU
 70
     6
  9
$SURFV
 70
     6
  9
$UCSNAME
  2

  9
$UCSORG
 10
0.0
 20
0.0
 30
0.0
  9
$UCSXDIR
 10
1.0
 20
0.0
 30
0.0
  9
$UCSYDIR
 10
0.0
 20
1.0
 30
0.0
  9
$PUCSNAME
  2

  9
$PUCSORG
 10
0.0
 20
0.0
 30
0.0
  9
$PUCSXDIR
 10
1.0
 20
0.0
 30
0.0
  9
$PUCSYDIR
 10
0.0
 20
1.0
 30
0.0
  9
$USERI1
 70
     0
  9
$USERI2
 70
     0
  9
$USERI3
 70
     0
  9
$USERI4
 70
     0
  9
$USERI5
 70
     0
  9
$USERR1
 40
0.0
  9
$USERR2
 40
0.0
  9
$USERR3
 40
0.0
  9
$USERR4
 40
0.0
  9
$USERR5
 40
0.0
  9
$WORLDVIEW
 70
     1
  9
$SHADEDGE
 70
     3
  9
$SHADEDIF
 70
    70
  9
$TILEMODE
 70
     1
  9
$MAXACTVP
 70
    16
  9
$PINSBASE
 10
0.0
 20
0.0
 30
0.0
  9
$PLIMCHECK
 70
     0
  9
$PEXTMIN
 10
-1.000000E+20
 20
-1.000000E+20
 30
-1.000000E+20
  9
$PEXTMAX
 10
-1.000000E+20
 20
-1.000000E+20
 30
-1.000000E+20
  9
$PLIMMIN
 10
0.0
 20
0.0
  9
$PLIMMAX
 10
12.0
 20
9.0
  9
$UNITMODE
 70
     0
  9
$VISRETAIN
 70
     0
  9
$PLINEGEN
 70
     1
  9
$PSLTSCALE
 70
     0
  9
$TREEDEPTH
 70
  3020
  9
$DWGCODEPAGE
  3
ansi_1252
  0
ENDSEC
  0
SECTION
  2
TABLES
  0
TABLE
  2
VPORT
 70
     1
  0
VPORT
  2
*ACTIVE
 70
     0
 10
0.0
 20
0.0
 11
1.0
 21
1.0
 12
0.0
 22
0.0
 13
0.0
 23
0.0
 14
0.0
 24
0.0
 15
0.0
 25
0.0
 16
0.0
 26
0.0
 36
1.0
 17
927717.03474
 27
7239471.329
 37
0.0
 40
5425.71
 41
1.115991
 42
50.0
 43
0.004
 44
0.0
 50
0.0
 51
0.0
 71
     0
 72
   100
 73
     1
 74
     0
 75
     0
 76
     0
 77
     0
 78
     0
  0
ENDTAB
  0
TABLE
  2
LTYPE
 70
     7
  0
LTYPE
  2
CONTINUOUS
 70
     0
  3
Solid line
 72
    65
 73
     0
 40
0.0
  0
LTYPE
  2
DOT
 70
    64
  3
. . . . . . . . . . . . . . . . . . . . . . . . . . . . . . . . .
 72
    65
 73
     2
 40
0.25
 49
0.0
 49
-0.25
  0
LTYPE
  2
HIDDEN
 70
    64
  3
__ __ __ __ __ __ __ __ __ __ __ __ __ __ __ __ __ __ __ __ __ 
 72
    65
 73
     2
 40
0.375
 49
0.25
 49
-0.125
  0
LTYPE
  2
DASHED
 70
    64
  3
__ __ __ __ __ __ __ __ __ __ __ __ __ __ __ __ __ __ __ __ __
 72
    65
 73
     2
 40
0.75
 49
0.5
 49
-0.25
  0
LTYPE
  2
DASHDOT
 70
    64
  3
__ . __ . __ . __ . __ . __ . __ . __ . __ . __ . __ . __ . _
 72
    65
 73
     4
 40
1.0
 49
0.5
 49
-0.25
 49
0.0
 49
-0.25
  0
LTYPE
  2
DIVIDE
 70
    64
  3
____ . . ____ . . ____ . . ____ . . ____ . . ____ . . ____ . .
 72
    65
 73
     6
 40
1.25
 49
0.5
 49
-0.25
 49
0.0
 49
-0.25
 49
0.0
 49
-0.25
  0
LTYPE
  2
CENTER
 70
    64
  3
____ _ ____ _ ____ _ ____ _ ____ _ ____ _ ____ _ ____ _ ____ _
 72
    65
 73
     4
 40
2.0
 49
1.25
 49
-0.25
 49
0.25
 49
-0.25
  0
ENDTAB
  0
TABLE
  2
LAYER
 70
     9
  0
LAYER
  2
0
 70
     0
 62
     7
  6
CONTINUOUS
  0
LAYER
  2
CONSTRUCTION_CLASS
 70
     1
 62
     7
  6
CONTINUOUS
  0
LAYER
  2
PATTERN_CLASS
 70
     0
 62
     7
  6
CONTINUOUS
  0
LAYER
  2
1
 70
    64
 62
     7
  6
CONTINUOUS
  0
LAYER
  2
6
 70
    64
 62
     7
  6
CONTINUOUS
  0
LAYER
  2
11
 70
    64
 62
     7
  6
CONTINUOUS
  0
LAYER
  2
19
 70
    64
 62
     7
  6
CONTINUOUS
  0
LAYER
  2
10
 70
    64
 62
     7
  6
CONTINUOUS
  0
LAYER
  2
58
 70
    64
 62
     7
  6
CONTINUOUS
  0
ENDTAB
  0
TABLE
  2
STYLE
 70
     3
  0
STYLE
  2
STANDARD
 70
     0
 40
0.0
 41
1.0
 50
0.0
 71
     0
 42
0.0
  3
txt
  4

  0
STYLE
  2
ROMANS
 70
     0
 40
0.2
 41
1.0
 50
0.0
 71
     0
 42
0.2
  3
ROMANS
  4

  0
STYLE
  2
ROMANC
 70
     0
 40
0.2
 41
1.0
 50
0.0
 71
     0
 42
0.2
  3
ROMANC
  4

  0
ENDTAB
  0
TABLE
  2
VIEW
 70
     0
  0
ENDTAB
  0
TABLE
  2
UCS
 70
     0
  0
ENDTAB
  0
TABLE
  2
APPID
 70
     1
  0
APPID
  2
ACAD
 70
     0
  0
ENDTAB
  0
TABLE
  2
DIMSTYLE
 70
     1
  0
DIMSTYLE
  2
STANDARD
 70
     0
  3

  4

  5

  6

  7

 40
1.0
 41
0.18
 42
0.0625
 43
0.38
 44
0.18
 45
0.0
 46
0.0
 47
0.0
 48
0.0
140
0.18
141
0.09
142
0.0
143
25.4
144
1.0
145
0.0
146
1.0
147
0.09
 71
     0
 72
     0
 73
     1
 74
     1
 75
     0
 76
     0
 77
     0
 78
     0
170
     0
171
     2
172
     0
173
     0
174
     0
175
     0
176
     0
177
     0
178
     0
  0
ENDTAB
  0
ENDSEC
  0
SECTION
  2
BLOCKS
  0
ENDSEC
  0
SECTION
  2
ENTITIES
  0
POLYLINE
  8
1
  6
HIDDEN
 62
   253
  5
29
 66
     1
 10
0.0
 20
0.0
 30
0.0
  0
VERTEX
  8
1
  6
HIDDEN
 62
   253
  5
2A
 10
925338.588
 20
7242302.176
 30
0.0
  0
VERTEX
  8
1
  6
HIDDEN
 62
   253
  5
2B
 10
930620.078
 20
7242138.923
 30
0.0
  0
VERTEX
  8
1
  6
HIDDEN
 62
   253
  5
2C
 10
930457.777
 20
7236772.433
 30
0.0
  0
VERTEX
  8
1
  6
HIDDEN
 62
   253
  5
2D
 10
925171.42
 20
7236932.275
 30
0.0
  0
VERTEX
  8
1
  6
HIDDEN
 62
   253
  5
2E
 10
925338.588
 20
7242302.176
 30
0.0
  0
SEQEND
  8
1
  6
HIDDEN
 62
   253
  5
2F
  0
LINE
  8
6
  6
CONTINUOUS
 62
     7
  5
31
 10
925232.735
 20
7237733.56
 30
0.0
 11
925242.731
 21
7237733.257
 31
0.0
  0
LINE
  8
6
  6
CONTINUOUS
 62
     7
  5
32
 10
930517.914
 20
7239464.717
 30
0.0
 11
928490.698
 21
7239527.882
 31
0.0
  0
LINE
  8
6
  6
CONTINUOUS
 62
     7
  5
33
 10
928490.698
 20
7239527.882
 30
0.0
 11
928409.974
 21
7236937.184
 31
0.0
  0
LINE
  8
6
  6
CONTINUOUS
 62
     7
  5
34
 10
928409.974
 20
7236937.184
 30
0.0
 11
925395.99
 21
7237028.302
 31
0.0
  0
LINE
  8
6
  6
CONTINUOUS
 62
     7
  5
35
 10
925242.731
 20
7237733.257
 30
0.0
 11
925227.616
 21
7237233.486
 31
0.0
  0
LINE
  8
6
  6
CONTINUOUS
 62
     7
  5
36
 10
925227.616
 20
7237233.486
 30
0.0
 11
925395.99
 21
7237028.302
 31
0.0
  0
LINE
  8
6
  6
CONTINUOUS
 62
     7
  5
37
 10
928534.43
 20
7239486.5
 30
0.0
 11
929488.067
 21
7239456.786
 31
0.0
  0
LINE
  8
6
  6
CONTINUOUS
 62
     7
  5
38
 10
929488.067
 20
7239456.786
 30
0.0
 11
929476.701
 21
7239091.962
 31
0.0
  0
LINE
  8
6
  6
CONTINUOUS
 62
     7
  5
39
 10
928523.064
 20
7239121.677
 30
0.0
 11
929476.701
 21
7239091.962
 31
0.0
  0
LINE
  8
6
  6
CONTINUOUS
 62
     7
  5
3A
 10
928534.43
 20
7239486.5
 30
0.0
 11
928523.064
 21
7239121.677
 31
0.0
  0
LINE
  8
6
  6
CONTINUOUS
 62
     7
  5
3B
 10
928521.195
 20
7239061.706
 30
0.0
 11
929474.832
 21
7239031.992
 31
0.0
  0
LINE
  8
6
  6
CONTINUOUS
 62
     7
  5
3C
 10
928521.195
 20
7239061.706
 30
0.0
 11
928515.51
 21
7238879.295
 31
0.0
  0
LINE
  8
6
  6
CONTINUOUS
 62
     7
  5
3D
 10
928515.51
 20
7238879.295
 30
0.0
 11
929469.147
 21
7238849.58
 31
0.0
  0
LINE
  8
6
  6
CONTINUOUS
 62
     7
  5
3E
 10
929474.832
 20
7239031.992
 30
0.0
 11
929469.147
 21
7238849.58
 31
0.0
  0
LINE
  8
6
  6
CONTINUOUS
 62
     7
  5
3F
 10
929528.048
 20
7239455.539
 30
0.0
 11
929516.682
 21
7239090.718
 31
0.0
  0
LINE
  8
6
  6
CONTINUOUS
 62
     7
  5
40
 10
929514.813
 20
7239030.746
 30
0.0
 11
929509.128
 21
7238848.335
 31
0.0
  0
LINE
  8
6
  6
CONTINUOUS
 62
     7
  5
41
 10
929528.048
 20
7239455.539
 30
0.0
 11
930486.683
 21
7239425.67
 31
0.0
  0
LINE
  8
6
  6
CONTINUOUS
 62
     7
  5
42
 10
930486.683
 20
7239425.67
 30
0.0
 11
930475.316
 21
7239060.847
 31
0.0
  0
LINE
  8
6
  6
CONTINUOUS
 62
     7
  5
43
 10
929516.682
 20
7239090.718
 30
0.0
 11
930475.316
 21
7239060.847
 31
0.0
  0
LINE
  8
6
  6
CONTINUOUS
 62
     7
  5
44
 10
929514.813
 20
7239030.746
 30
0.0
 11
930473.447
 21
7239000.876
 31
0.0
  0
LINE
  8
6
  6
CONTINUOUS
 62
     7
  5
45
 10
929509.128
 20
7238848.335
 30
0.0
 11
930467.763
 21
7238818.465
 31
0.0
  0
LINE
  8
6
  6
CONTINUOUS
 62
     7
  5
46
 10
930473.447
 20
7239000.876
 30
0.0
 11
930467.763
 21
7238818.465
 31
0.0
  0
LINE
  8
6
  6
CONTINUOUS
 62
     7
  5
47
 10
928515.51
 20
7238879.295
 30
0.0
 11
928500.518
 21
7238879.762
 31
0.0
  0
LINE
  8
6
  6
CONTINUOUS
 62
     7
  5
48
 10
930467.763
 20
7238818.465
 30
0.0
 11
930497.749
 21
7238817.53
 31
0.0
  0
LINE
  8
6
  6
CONTINUOUS
 62
     7
  5
49
 10
930495.972
 20
7238817.584
 30
0.0
 11
930437.25
 21
7236875.972
 31
0.0
  0
LINE
  8
6
  6
CONTINUOUS
 62
     7
  5
4A
 10
928500.518
 20
7238879.762
 30
0.0
 11
928439.965
 21
7236936.377
 31
0.0
  0
LINE
  8
6
  6
CONTINUOUS
 62
     7
  5
4B
 10
928439.965
 20
7236936.377
 30
0.0
 11
930437.25
 21
7236875.972
 31
0.0
  0
LINE
  8
6
  6
CONTINUOUS
 62
     7
  5
4C
 10
929509.128
 20
7238848.335
 30
0.0
 11
929469.147
 21
7238849.58
 31
0.0
  0
TEXT
  8
11
  6
CONTINUOUS
 62
     7
  5
4F
 10
925368.695
 20
7242244.532
 30
0.0
 40
8.0
  1
40'
 50
358.2677
  7
ROMANS
 72
     4
 11
925378.144654
 21
7242248.248038
 31
0.0
210
0.0
220
0.0
230
1.0
  0
TEXT
  8
11
  6
CONTINUOUS
 62
     7
  5
50
 10
925206.82
 20
7237744.762
 30
0.0
 40
8.0
  1
40'
 50
358.2677
  7
ROMANS
 72
     4
 11
925216.269654
 21
7237748.478038
 31
0.0
210
0.0
220
0.0
230
1.0
  0
TEXT
  8
11
  6
CONTINUOUS
 62
     7
  5
51
 10
925209.961
 20
7237701.975
 30
0.0
 40
8.0
  1
50'
 50
358.2677
  7
ROMANS
 72
     4
 11
925219.410654
 21
7237705.691038
 31
0.0
210
0.0
220
0.0
230
1.0
  0
TEXT
  8
11
  6
CONTINUOUS
 62
     7
  5
52
 10
925196.183
 20
7237246.399
 30
0.0
 40
8.0
  1
50'
 50
358.2677
  7
ROMANS
 72
     4
 11
925205.632654
 21
7237250.115038
 31
0.0
210
0.0
220
0.0
230
1.0
  0
TEXT
  8
11
  6
CONTINUOUS
 62
     7
  5
53
 10
925439.922
 20
7236993.914
 30
0.0
 40
8.0
  1
50'
 50
88.2677
  7
ROMANS
 72
     4
 11
925436.205962
 21
7237003.363654
 31
0.0
210
0.0
220
0.0
230
1.0
  0
TEXT
  8
11
  6
CONTINUOUS
 62
     7
  5
54
 10
930416.893
 20
7236843.138
 30
0.0
 40
8.0
  1
50'
 50
88.2677
  7
ROMANS
 72
     4
 11
930413.176962
 21
7236852.587654
 31
0.0
210
0.0
220
0.0
230
1.0
  0
TEXT
  8
11
  6
CONTINUOUS
 62
     7
  5
55
 10
930513.289
 20
7239407.72
 30
0.0
 40
8.0
  1
50'
 50
358.2153
  7
ROMANS
 72
     4
 11
930522.742048
 21
7239411.427394
 31
0.0
210
0.0
220
0.0
230
1.0
  0
TEXT
  8
11
  6
CONTINUOUS
 62
     7
  5
56
 10
930495.391
 20
7238833.32
 30
0.0
 40
8.0
  1
50'
 50
358.2153
  7
ROMANS
 72
     4
 11
930504.844048
 21
7238837.027394
 31
0.0
210
0.0
220
0.0
230
1.0
  0
TEXT
  8
11
  6
CONTINUOUS
 62
     7
  5
57
 10
930509.88
 20
7238796.523
 30
0.0
 40
8.0
  1
20'
 50
358.2153
  7
ROMANS
 72
     4
 11
930519.333048
 21
7238800.230394
 31
0.0
210
0.0
220
0.0
230
1.0
  0
TEXT
  8
11
  6
CONTINUOUS
 62
     7
  5
58
 10
930449.599
 20
7236901.853
 30
0.0
 40
8.0
  1
20'
 50
358.2677
  7
ROMANS
 72
     4
 11
930459.048654
 21
7236905.569038
 31
0.0
210
0.0
220
0.0
230
1.0
  0
TEXT
  8
11
  6
CONTINUOUS
 62
     7
  5
59
 10
928500.533
 20
7239448.783
 30
0.0
 40
8.0
  1
45'
 50
358.2153
  7
ROMANS
 72
     4
 11
928509.986048
 21
7239452.490394
 31
0.0
210
0.0
220
0.0
230
1.0
  0
TEXT
  8
11
  6
CONTINUOUS
 62
     7
  5
5A
 10
928483.363
 20
7238897.729
 30
0.0
 40
8.0
  1
45'
 50
358.2153
  7
ROMANS
 72
     4
 11
928492.816048
 21
7238901.436394
 31
0.0
210
0.0
220
0.0
230
1.0
  0
TEXT
  8
11
  6
CONTINUOUS
 62
     7
  5
5B
 10
928474.919
 20
7238843.847
 30
0.0
 40
8.0
  1
30'
 50
358.2153
  7
ROMANS
 72
     4
 11
928484.372048
 21
7238847.554394
 31
0.0
210
0.0
220
0.0
230
1.0
  0
TEXT
  8
11
  6
CONTINUOUS
 62
     7
  5
5C
 10
929494.352
 20
7239431.352
 30
0.0
 40
8.0
  1
40'
 50
358.2153
  7
ROMANS
 72
     4
 11
929503.805048
 21
7239435.059394
 31
0.0
210
0.0
220
0.0
230
1.0
  0
TEXT
  8
11
  6
CONTINUOUS
 62
     7
  5
5D
 10
929476.55
 20
7238860.014
 30
0.0
 40
8.0
  1
40'
 50
358.2153
  7
ROMANS
 72
     4
 11
929486.003048
 21
7238863.721394
 31
0.0
210
0.0
220
0.0
230
1.0
  0
TEXT
  8
11
  6
CONTINUOUS
 62
     7
  5
5E
 10
928559.304
 20
7239495.758
 30
0.0
 40
8.0
  1
40'
 50
88.2153
  7
ROMANS
 72
     4
 11
928555.596606
 21
7239505.211048
 31
0.0
210
0.0
220
0.0
230
1.0
  0
TEXT
  8
11
  6
CONTINUOUS
 62
     7
  5
5F
 10
930475.146
 20
7239436.063
 30
0.0
 40
8.0
  1
40'
 50
88.2153
  7
ROMANS
 72
     4
 11
930471.438606
 21
7239445.516048
 31
0.0
210
0.0
220
0.0
230
1.0
  0
TEXT
  8
11
  6
CONTINUOUS
 62
     7
  5
60
 10
928549.725
 20
7239079.827
 30
0.0
 40
8.0
  1
60'
 50
88.2153
  7
ROMANS
 72
     4
 11
928546.017606
 21
7239089.280048
 31
0.0
210
0.0
220
0.0
230
1.0
  0
TEXT
  8
11
  6
CONTINUOUS
 62
     7
  5
61
 10
930452.157
 20
7239023.934
 30
0.0
 40
8.0
  1
60'
 50
88.2153
  7
ROMANS
 72
     4
 11
930448.449606
 21
7239033.387048
 31
0.0
210
0.0
220
0.0
230
1.0
  0
TEXT
  8
11
  6
CONTINUOUS
 62
     7
  5
62
 10
928417.021
 20
7236953.387
 30
0.0
 40
8.0
  1
30'
 50
358.2153
  7
ROMANS
 72
     4
 11
928426.474048
 21
7236957.094394
 31
0.0
210
0.0
220
0.0
230
1.0
  0
TEXT
  8
19
  6
CONTINUOUS
 62
     1
  5
65
 10
927845.005
 20
7242138.465
 30
0.0
 40
24.0
  1
114TH ST
 50
358.2677
  7
ROMANC
 72
     4
 11
927940.090447
 21
7242147.594765
 31
0.0
210
0.0
220
0.0
230
1.0
  0
TEXT
  8
19
  6
CONTINUOUS
 62
     1
  5
66
 10
927728.127
 20
7236923.641
 30
0.0
 40
24.0
  1
130TH ST
 50
358.2677
  7
ROMANC
 72
     4
 11
927825.007626
 21
7236932.716472
 31
0.0
210
0.0
220
0.0
230
1.0
  0
TEXT
  8
19
  6
CONTINUOUS
 62
     1
  5
67
 10
925315.442
 20
7239829.474
 30
0.0
 40
24.0
  1
SLIDE RD
 50
88.2677
  7
ROMANC
 72
     4
 11
925306.326504
 21
7239925.031231
 31
0.0
210
0.0
220
0.0
230
1.0
  0
TEXT
  8
19
  6
CONTINUOUS
 62
     1
  5
68
 10
930519.228
 20
7239001.306
 30
0.0
 40
24.0
  1
QUAKER AVE
 50
88.2153
  7
ROMANC
 72
     4
 11
930511.43874
 21
7239136.630232
 31
0.0
210
0.0
220
0.0
230
1.0
  0
TEXT
  8
10
  6
CONTINUOUS
 62
   134
  5
6A
 10
927778.837
 20
7239792.091
 30
0.0
 40
13.999
  1
UNSUBDIVIDED
 50
358.2677
  7
ROMANS
 72
     4
 11
927860.461384
 21
7239796.625589
 31
0.0
210
0.0
220
0.0
230
1.0
  0
TEXT
  8
10
  6
CONTINUOUS
 62
   134
  5
6B
 10
928899.896
 20
7239290.691
 30
0.0
 40
13.999
  1
UNSUBDIVIDED
 50
358.2153
  7
ROMANS
 72
     4
 11
928981.524497
 21
7239295.150937
 31
0.0
210
0.0
220
0.0
230
1.0
  0
TEXT
  8
10
  6
CONTINUOUS
 62
   134
  5
6C
 10
929972.986
 20
7239248.727
 30
0.0
 40
13.999
  1
UNSUBDIVIDED
 50
358.2153
  7
ROMANS
 72
     4
 11
930054.614497
 21
7239253.186937
 31
0.0
210
0.0
220
0.0
230
1.0
  0
TEXT
  8
10
  6
CONTINUOUS
 62
   134
  5
6D
 10
929979.139
 20
7238898.93
 30
0.0
 40
13.999
  1
UNSUBDIVIDED
 50
358.2153
  7
ROMANS
 72
     4
 11
930060.767497
 21
7238903.389937
 31
0.0
210
0.0
220
0.0
230
1.0
  0
TEXT
  8
10
  6
CONTINUOUS
 62
   134
  5
6E
 10
928957.692
 20
7238956.338
 30
0.0
 40
13.999
  1
UNSUBDIVIDED
 50
358.2153
  7
ROMANS
 72
     4
 11
929039.320497
 21
7238960.797937
 31
0.0
210
0.0
220
0.0
230
1.0
  0
TEXT
  8
10
  6
CONTINUOUS
 62
   134
  5
6F
 10
929395.431
 20
7237953.57
 30
0.0
 40
13.999
  1
UNSUBDIVIDED
 50
358.2153
  7
ROMANS
 72
     4
 11
929477.059497
 21
7237958.029937
 31
0.0
210
0.0
220
0.0
230
1.0
  0
LINE
  8
6
  6
CONTINUOUS
 62
     7
  5
70
 10
925372.997
 20
7242237.031
 30
0.0
 11
930599.359
 21
7242078.588
 31
0.0
  0
LINE
  8
6
  6
CONTINUOUS
 62
     7
  5
71
 10
925372.997
 20
7242237.031
 30
0.0
 11
925232.735
 21
7237733.56
 31
0.0
  0
LINE
  8
58
  6
DIVIDE
 62
   216
  5
73
 10
925339.9
 20
7241624.729
 30
0.0
 11
930615.741
 21
7241453.916
 31
0.0
  0
ENDSEC
  0
EOF
