  0
SECTION
  2
HEADER
  9
$ACADVER
  1
AC1009
  9
$INSBASE
 10
0.0
 20
0.0
 30
0.0
  9
$EXTMIN
 10
973961.478
 20
7277695.686
 30
0.0
  9
$EXTMAX
 10
979410.659
 20
7283185.429
 30
0.0
  9
$LIMMIN
 10
0.0
 20
0.0
  9
$LIMMAX
 10
12.0
 20
9.0
  9
$ORTHOMODE
 70
     0
  9
$REGENMODE
 70
     1
  9
$FILLMODE
 70
     1
  9
$QTEXTMODE
 70
     0
  9
$MIRRTEXT
 70
     1
  9
$DRAGMODE
 70
     2
  9
$LTSCALE
 40
1.0
  9
$OSMODE
 70
     0
  9
$ATTMODE
 70
     1
  9
$TEXTSIZE
 40
0.2
  9
$TRACEWID
 40
0.05
  9
$TEXTSTYLE
  7
STANDARD
  9
$CLAYER
  8
0
  9
$CELTYPE
  6
CONTINUOUS
  9
$CECOLOR
 62
   256
  9
$DIMSCALE
 40
1.0
  9
$DIMASZ
 40
0.18
  9
$DIMEXO
 40
0.0625
  9
$DIMDLI
 40
0.38
  9
$DIMRND
 40
0.0
  9
$DIMDLE
 40
0.0
  9
$DIMEXE
 40
0.18
  9
$DIMTP
 40
0.0
  9
$DIMTM
 40
0.0
  9
$DIMTXT
 40
0.18
  9
$DIMCEN
 40
0.09
  9
$DIMTSZ
 40
0.0
  9
$DIMTOL
 70
     0
  9
$DIMLIM
 70
     0
  9
$DIMTIH
 70
     1
  9
$DIMTOH
 70
     1
  9
$DIMSE1
 70
     0
  9
$DIMSE2
 70
     0
  9
$DIMTAD
 70
     0
  9
$DIMZIN
 70
     0
  9
$DIMBLK
  1

  9
$DIMASO
 70
     1
  9
$DIMSHO
 70
     1
  9
$DIMPOST
  1

  9
$DIMAPOST
  1

  9
$DIMALT
 70
     0
  9
$DIMALTD
 70
     2
  9
$DIMALTF
 40
25.4
  9
$DIMLFAC
 40
1.0
  9
$DIMTOFL
 70
     0
  9
$DIMTVP
 40
0.0
  9
$DIMTIX
 70
     0
  9
$DIMSOXD
 70
     0
  9
$DIMSAH
 70
     0
  9
$DIMBLK1
  1

  9
$DIMBLK2
  1

  9
$DIMSTYLE
  2
STANDARD
  9
$DIMCLRD
 70
     0
  9
$DIMCLRE
 70
     0
  9
$DIMCLRT
 70
     0
  9
$DIMTFAC
 40
1.0
  9
$DIMGAP
 40
0.09
  9
$LUNITS
 70
     2
  9
$LUPREC
 70
     4
  9
$AXISMODE
 70
     0
  9
$AXISUNIT
 10
0.0
 20
0.0
  9
$SKETCHINC
 40
0.1
  9
$FILLETRAD
 40
0.0
  9
$AUNITS
 70
     0
  9
$AUPREC
 70
     0
  9
$MENU
  1
acad
  9
$ELEVATION
 40
0.0
  9
$PELEVATION
 40
0.0
  9
$THICKNESS
 40
0.0
  9
$LIMCHECK
 70
     0
  9
$BLIPMODE
 70
     1
  9
$CHAMFERA
 40
0.0
  9
$CHAMFERB
 40
0.0
  9
$SKPOLY
 70
     0
  9
$TDCREATE
 40
2453013.904363426
  9
$TDUPDATE
 40
2453013.904363426
  9
$TDINDWG
 40
0.0000000000
  9
$TDUSRTIMER
 40
0.0000000000
  9
$USRTIMER
 70
     1
  9
$ANGBASE
 50
0.0
  9
$ANGDIR
 70
     0
  9
$PDMODE
 70
     0
  9
$PDSIZE
 40
0.0
  9
$PLINEWID
 40
0.0
  9
$COORDS
 70
     0
  9
$SPLFRAME
 70
     0
  9
$SPLINETYPE
 70
     6
  9
$SPLINESEGS
 70
    10
  9
$ATTDIA
 70
     0
  9
$ATTREQ
 70
     1
  9
$HANDLING
 70
     1
  9
$HANDSEED
  5
129
  9
$SURFTAB1
 70
     6
  9
$SURFTAB2
 70
     6
  9
$SURFTYPE
 70
     6
  9
$SURFU
 70
     6
  9
$SURFV
 70
     6
  9
$UCSNAME
  2

  9
$UCSORG
 10
0.0
 20
0.0
 30
0.0
  9
$UCSXDIR
 10
1.0
 20
0.0
 30
0.0
  9
$UCSYDIR
 10
0.0
 20
1.0
 30
0.0
  9
$PUCSNAME
  2

  9
$PUCSORG
 10
0.0
 20
0.0
 30
0.0
  9
$PUCSXDIR
 10
1.0
 20
0.0
 30
0.0
  9
$PUCSYDIR
 10
0.0
 20
1.0
 30
0.0
  9
$USERI1
 70
     0
  9
$USERI2
 70
     0
  9
$USERI3
 70
     0
  9
$USERI4
 70
     0
  9
$USERI5
 70
     0
  9
$USERR1
 40
0.0
  9
$USERR2
 40
0.0
  9
$USERR3
 40
0.0
  9
$USERR4
 40
0.0
  9
$USERR5
 40
0.0
  9
$WORLDVIEW
 70
     1
  9
$SHADEDGE
 70
     3
  9
$SHADEDIF
 70
    70
  9
$TILEMODE
 70
     1
  9
$MAXACTVP
 70
    16
  9
$PINSBASE
 10
0.0
 20
0.0
 30
0.0
  9
$PLIMCHECK
 70
     0
  9
$PEXTMIN
 10
-1.000000E+20
 20
-1.000000E+20
 30
-1.000000E+20
  9
$PEXTMAX
 10
-1.000000E+20
 20
-1.000000E+20
 30
-1.000000E+20
  9
$PLIMMIN
 10
0.0
 20
0.0
  9
$PLIMMAX
 10
12.0
 20
9.0
  9
$UNITMODE
 70
     0
  9
$VISRETAIN
 70
     0
  9
$PLINEGEN
 70
     1
  9
$PSLTSCALE
 70
     0
  9
$TREEDEPTH
 70
  3020
  9
$DWGCODEPAGE
  3
ansi_1252
  0
ENDSEC
  0
SECTION
  2
TABLES
  0
TABLE
  2
VPORT
 70
     1
  0
VPORT
  2
*ACTIVE
 70
     0
 10
0.0
 20
0.0
 11
1.0
 21
1.0
 12
0.0
 22
0.0
 13
0.0
 23
0.0
 14
0.0
 24
0.0
 15
0.0
 25
0.0
 16
0.0
 26
0.0
 36
1.0
 17
975999.04016
 27
7280013.4495
 37
0.0
 40
4772.771
 41
1.230627
 42
50.0
 43
0.004
 44
0.0
 50
0.0
 51
0.0
 71
     0
 72
   100
 73
     1
 74
     0
 75
     0
 76
     0
 77
     0
 78
     0
  0
ENDTAB
  0
TABLE
  2
LTYPE
 70
     7
  0
LTYPE
  2
CONTINUOUS
 70
     0
  3
Solid line
 72
    65
 73
     0
 40
0.0
  0
LTYPE
  2
DOT
 70
    64
  3
. . . . . . . . . . . . . . . . . . . . . . . . . . . . . . . . .
 72
    65
 73
     2
 40
0.25
 49
0.0
 49
-0.25
  0
LTYPE
  2
HIDDEN
 70
    64
  3
__ __ __ __ __ __ __ __ __ __ __ __ __ __ __ __ __ __ __ __ __ 
 72
    65
 73
     2
 40
0.375
 49
0.25
 49
-0.125
  0
LTYPE
  2
DASHED
 70
    64
  3
__ __ __ __ __ __ __ __ __ __ __ __ __ __ __ __ __ __ __ __ __
 72
    65
 73
     2
 40
0.75
 49
0.5
 49
-0.25
  0
LTYPE
  2
DASHDOT
 70
    64
  3
__ . __ . __ . __ . __ . __ . __ . __ . __ . __ . __ . __ . _
 72
    65
 73
     4
 40
1.0
 49
0.5
 49
-0.25
 49
0.0
 49
-0.25
  0
LTYPE
  2
DIVIDE
 70
    64
  3
____ . . ____ . . ____ . . ____ . . ____ . . ____ . . ____ . .
 72
    65
 73
     6
 40
1.25
 49
0.5
 49
-0.25
 49
0.0
 49
-0.25
 49
0.0
 49
-0.25
  0
LTYPE
  2
CENTER
 70
    64
  3
____ _ ____ _ ____ _ ____ _ ____ _ ____ _ ____ _ ____ _ ____ _
 72
    65
 73
     4
 40
2.0
 49
1.25
 49
-0.25
 49
0.25
 49
-0.25
  0
ENDTAB
  0
TABLE
  2
LAYER
 70
    12
  0
LAYER
  2
0
 70
     0
 62
     7
  6
CONTINUOUS
  0
LAYER
  2
CONSTRUCTION_CLASS
 70
     1
 62
     7
  6
CONTINUOUS
  0
LAYER
  2
PATTERN_CLASS
 70
     0
 62
     7
  6
CONTINUOUS
  0
LAYER
  2
6
 70
    64
 62
     7
  6
CONTINUOUS
  0
LAYER
  2
27
 70
    64
 62
     7
  6
CONTINUOUS
  0
LAYER
  2
11
 70
    64
 62
     7
  6
CONTINUOUS
  0
LAYER
  2
DEFPOINTS
 70
    64
 62
     7
  6
CONTINUOUS
  0
LAYER
  2
1
 70
    64
 62
     7
  6
CONTINUOUS
  0
LAYER
  2
19
 70
    64
 62
     7
  6
CONTINUOUS
  0
LAYER
  2
58
 70
    64
 62
     7
  6
CONTINUOUS
  0
LAYER
  2
28
 70
    64
 62
     7
  6
CONTINUOUS
  0
LAYER
  2
10
 70
    64
 62
     7
  6
CONTINUOUS
  0
ENDTAB
  0
TABLE
  2
STYLE
 70
     4
  0
STYLE
  2
STANDARD
 70
     0
 40
0.0
 41
1.0
 50
0.0
 71
     0
 42
0.0
  3
txt
  4

  0
STYLE
  2
ROMANS
 70
     0
 40
0.2
 41
1.0
 50
0.0
 71
     0
 42
0.2
  3
ROMANS
  4

  0
STYLE
  2
ROMANC
 70
     0
 40
0.2
 41
1.0
 50
0.0
 71
     0
 42
0.2
  3
ROMANC
  4

  0
STYLE
  2
txt
 70
     0
 40
0.2
 41
1.0
 50
0.0
 71
     0
 42
0.2
  3
TXT
  4

  0
ENDTAB
  0
TABLE
  2
VIEW
 70
     0
  0
ENDTAB
  0
TABLE
  2
UCS
 70
     0
  0
ENDTAB
  0
TABLE
  2
APPID
 70
     1
  0
APPID
  2
ACAD
 70
     0
  0
ENDTAB
  0
TABLE
  2
DIMSTYLE
 70
     2
  0
DIMSTYLE
  2
STANDARD
 70
     0
  3

  4

  5

  6

  7

 40
1.0
 41
0.18
 42
0.0625
 43
0.38
 44
0.18
 45
0.0
 46
0.0
 47
0.0
 48
0.0
140
0.18
141
0.09
142
0.0
143
25.4
144
1.0
145
0.0
146
1.0
147
0.09
 71
     0
 72
     0
 73
     1
 74
     1
 75
     0
 76
     0
 77
     0
 78
     0
170
     0
171
     2
172
     0
173
     0
174
     0
175
     0
176
     0
177
     0
178
     0
  0
DIMSTYLE
  2
MSADIM
 70
     0
  3

  4

  5

  6

  7

 40
1.0
 41
8.0
 42
4.0
 43
0.0
 44
4.0
 45
0.0
 46
0.0
 47
0.0
 48
0.0
140
8.0
141
4.0
142
0.0
143
25.4
144
1.0
145
4.0
146
1.0
147
4.0
 71
     0
 72
     0
 73
     1
 74
     1
 75
     1
 76
     1
 77
     0
 78
     2
170
     0
171
     2
172
     0
173
     0
174
     0
175
     0
176
     0
177
     0
178
     0
  0
ENDTAB
  0
ENDSEC
  0
SECTION
  2
BLOCKS
  0
BLOCK
  8
11
  6
CONTINUOUS
 62
     7
  5
5D
  2
*D0
 70
     1
 10
0.0
 20
0.0
 30
0.0
  3
*N0
  0
TEXT
  8
11
  6
CONTINUOUS
 62
     7
  5
5E
 10
977426.017
 20
7282713.049
 30
0.0
 40
8.0
  1
S27%%d53'40"W
 50
62.105639
  7
ROMANS
 72
     1
 11
977439.000122
 21
7282754.675446
 31
0.0
210
0.0
220
0.0
230
1.0
 73
     3
  0
TEXT
  8
11
  6
CONTINUOUS
 62
     7
  5
5F
 10
977421.949
 20
7282739.564
 30
0.0
 40
8.0
  1
802.6'
 50
62.105639
  7
ROMANS
 72
     1
 11
977431.929491
 21
7282758.418355
 31
0.0
210
0.0
220
0.0
230
1.0
  0
ENDBLK
  8
11
  6
CONTINUOUS
 62
     7
  5
60
  0
BLOCK
  8
11
  6
CONTINUOUS
 62
     7
  5
63
  2
*D1
 70
     1
 10
0.0
 20
0.0
 30
0.0
  3
*N1
  0
TEXT
  8
11
  6
CONTINUOUS
 62
     7
  5
64
 10
977550.029
 20
7282628.982
 30
0.0
 40
8.0
  1
S28%%d03'46"W
 50
61.937167
  7
ROMANS
 72
     1
 11
977563.134464
 21
7282670.570091
 31
0.0
210
0.0
220
0.0
230
1.0
 73
     3
  0
TEXT
  8
11
  6
CONTINUOUS
 62
     7
  5
65
 10
977544.157
 20
7282651.979
 30
0.0
 40
8.0
  1
876.64'
 50
61.937167
  7
ROMANS
 72
     1
 11
977556.074645
 21
7282674.333655
 31
0.0
210
0.0
220
0.0
230
1.0
  0
ENDBLK
  8
11
  6
CONTINUOUS
 62
     7
  5
66
  0
BLOCK
  8
11
  6
CONTINUOUS
 62
     7
  5
6F
  2
*D2
 70
     1
 10
0.0
 20
0.0
 30
0.0
  3
*N2
  0
TEXT
  8
11
  6
CONTINUOUS
 62
     7
  5
70
 10
976766.129
 20
7281421.312
 30
0.0
 40
8.0
  1
S28%%d06'52"W
 50
61.885456
  7
ROMANS
 72
     1
 11
976779.271993
 21
7281462.888246
 31
0.0
210
0.0
220
0.0
230
1.0
 73
     3
  0
TEXT
  8
11
  6
CONTINUOUS
 62
     7
  5
71
 10
976758.393
 20
7281440.787
 30
0.0
 40
8.0
  1
2036.37'
 50
61.885456
  7
ROMANS
 72
     1
 11
976772.21576
 21
7281466.658919
 31
0.0
210
0.0
220
0.0
230
1.0
  0
ENDBLK
  8
11
  6
CONTINUOUS
 62
     7
  5
72
  0
BLOCK
  8
11
  6
CONTINUOUS
 62
     7
  5
75
  2
*D3
 70
     1
 10
0.0
 20
0.0
 30
0.0
  3
*N3
  0
TEXT
  8
11
  6
CONTINUOUS
 62
     7
  5
76
 10
976843.451
 20
7281363.02
 30
0.0
 40
8.0
  1
S27%%d57'59"W
 50
62.033617
  7
ROMANS
 72
     1
 11
976856.486437
 21
7281404.630093
 31
0.0
210
0.0
220
0.0
230
1.0
 73
     3
  0
TEXT
  8
11
  6
CONTINUOUS
 62
     7
  5
77
 10
976835.665
 20
7281382.474
 30
0.0
 40
8.0
  1
1883.46'
 50
62.033617
  7
ROMANS
 72
     1
 11
976849.420811
 21
7281408.381577
 31
0.0
210
0.0
220
0.0
230
1.0
  0
ENDBLK
  8
11
  6
CONTINUOUS
 62
     7
  5
78
  0
BLOCK
  8
11
  6
CONTINUOUS
 62
     7
  5
9B
  2
*D4
 70
     1
 10
0.0
 20
0.0
 30
0.0
  3
*N4
  0
POLYLINE
  8
11
  6
CONTINUOUS
 62
     7
  5
9C
 66
     1
 10
0.0
 20
0.0
 30
0.0
  0
VERTEX
  8
11
  6
CONTINUOUS
 62
     7
  5
9D
 10
976125.923
 20
7280052.371
 30
0.0
  0
VERTEX
  8
11
  6
CONTINUOUS
 62
     7
  5
9E
 10
976119.324
 20
7280057.316
 30
0.0
  0
VERTEX
  8
11
  6
CONTINUOUS
 62
     7
  5
9F
 10
976127.474
 20
7280056.058
 30
0.0
  0
SEQEND
  8
11
  6
CONTINUOUS
 62
     7
  5
A0
  0
LINE
  8
11
  6
CONTINUOUS
 62
     7
  5
A1
 10
976119.324
 20
7280057.316
 30
0.0
 11
976152.405
 21
7280043.403
 31
0.0
  0
ENDBLK
  8
11
  6
CONTINUOUS
 62
     7
  5
A2
  0
BLOCK
  8
11
  6
CONTINUOUS
 62
     7
  5
A5
  2
*D5
 70
     1
 10
0.0
 20
0.0
 30
0.0
  3
*N5
  0
POLYLINE
  8
11
  6
CONTINUOUS
 62
     7
  5
A6
 66
     1
 10
0.0
 20
0.0
 30
0.0
  0
VERTEX
  8
11
  6
CONTINUOUS
 62
     7
  5
A7
 10
975996.57
 20
7280143.432
 30
0.0
  0
VERTEX
  8
11
  6
CONTINUOUS
 62
     7
  5
A8
 10
976000.576
 20
7280136.224
 30
0.0
  0
VERTEX
  8
11
  6
CONTINUOUS
 62
     7
  5
A9
 10
975993.649
 20
7280140.698
 30
0.0
  0
SEQEND
  8
11
  6
CONTINUOUS
 62
     7
  5
AA
  0
LINE
  8
11
  6
CONTINUOUS
 62
     7
  5
AB
 10
976000.576
 20
7280136.224
 30
0.0
 11
975976.747
 21
7280161.684
 31
0.0
  0
ENDBLK
  8
11
  6
CONTINUOUS
 62
     7
  5
AC
  0
BLOCK
  8
11
  6
CONTINUOUS
 62
     7
  5
B0
  2
*D6
 70
     1
 10
0.0
 20
0.0
 30
0.0
  3
*N6
  0
TEXT
  8
11
  6
CONTINUOUS
 62
     7
  5
B1
 10
975011.961
 20
7279193.181
 30
0.0
 40
8.0
  1
N43%%d27'31"W
 50
313.45865
  7
ROMANS
 72
     1
 11
975047.251151
 21
7279167.569914
 31
0.0
210
0.0
220
0.0
230
1.0
 73
     3
  0
TEXT
  8
11
  6
CONTINUOUS
 62
     7
  5
B2
 10
975040.32
 20
7279186.516
 30
0.0
 40
8.0
  1
27.66
 50
313.45865
  7
ROMANS
 72
     1
 11
975053.058628
 21
7279173.07287
 31
0.0
210
0.0
220
0.0
230
1.0
  0
ENDBLK
  8
11
  6
CONTINUOUS
 62
     7
  5
B3
  0
BLOCK
  8
11
  6
CONTINUOUS
 62
     7
  5
B6
  2
*D7
 70
     1
 10
0.0
 20
0.0
 30
0.0
  3
*N7
  0
TEXT
  8
11
  6
CONTINUOUS
 62
     7
  5
B7
 10
975207.518
 20
7278991.707
 30
0.0
 40
8.0
  1
S54%%d10'14"E
 50
324.170675
  7
ROMANS
 72
     1
 11
975246.658465
 21
7278973.314774
 31
0.0
210
0.0
220
0.0
230
1.0
 73
     3
  0
TEXT
  8
11
  6
CONTINUOUS
 62
     7
  5
B8
 10
975236.477
 20
7278990.533
 30
0.0
 40
8.0
  1
24.48
 50
324.170675
  7
ROMANS
 72
     1
 11
975251.340742
 21
7278979.801362
 31
0.0
210
0.0
220
0.0
230
1.0
  0
ENDBLK
  8
11
  6
CONTINUOUS
 62
     7
  5
B9
  0
BLOCK
  8
11
  6
CONTINUOUS
 62
     7
  5
BC
  2
*D8
 70
     1
 10
0.0
 20
0.0
 30
0.0
  3
*N8
  0
POLYLINE
  8
11
  6
CONTINUOUS
 62
     7
  5
BD
 66
     1
 10
0.0
 20
0.0
 30
0.0
  0
VERTEX
  8
11
  6
CONTINUOUS
 62
     7
  5
BE
 10
975098.422
 20
7279114.958
 30
0.0
  0
VERTEX
  8
11
  6
CONTINUOUS
 62
     7
  5
BF
 10
975103.837
 20
7279108.739
 30
0.0
  0
VERTEX
  8
11
  6
CONTINUOUS
 62
     7
  5
C0
 10
975096.132
 20
7279111.678
 30
0.0
  0
SEQEND
  8
11
  6
CONTINUOUS
 62
     7
  5
C1
  0
LINE
  8
11
  6
CONTINUOUS
 62
     7
  5
C2
 10
975103.837
 20
7279108.739
 30
0.0
 11
975078.189
 21
7279126.642
 31
0.0
  0
ENDBLK
  8
11
  6
CONTINUOUS
 62
     7
  5
C3
  0
BLOCK
  8
11
  6
CONTINUOUS
 62
     7
  5
C6
  2
*D9
 70
     1
 10
0.0
 20
0.0
 30
0.0
  3
*N9
  0
POLYLINE
  8
11
  6
CONTINUOUS
 62
     7
  5
C7
 66
     1
 10
0.0
 20
0.0
 30
0.0
  0
VERTEX
  8
11
  6
CONTINUOUS
 62
     7
  5
C8
 10
975189.33
 20
7279011.236
 30
0.0
  0
VERTEX
  8
11
  6
CONTINUOUS
 62
     7
  5
C9
 10
975184.82
 20
7279018.14
 30
0.0
  0
VERTEX
  8
11
  6
CONTINUOUS
 62
     7
  5
CA
 10
975192.048
 20
7279014.171
 30
0.0
  0
SEQEND
  8
11
  6
CONTINUOUS
 62
     7
  5
CB
  0
LINE
  8
11
  6
CONTINUOUS
 62
     7
  5
CC
 10
975184.82
 20
7279018.14
 30
0.0
 11
975203.916
 21
7279000.451
 31
0.0
  0
ENDBLK
  8
11
  6
CONTINUOUS
 62
     7
  5
CD
  0
BLOCK
  8
11
  6
CONTINUOUS
 62
     7
  5
D0
  2
*D10
 70
     1
 10
0.0
 20
0.0
 30
0.0
  3
*N10
  0
TEXT
  8
11
  6
CONTINUOUS
 62
     7
  5
D1
 10
975903.996
 20
7280184.216
 30
0.0
 40
8.0
  1
N56%%d45'38"W
 50
326.760544
  7
ROMANS
 72
     1
 11
975944.232009
 21
7280167.411653
 31
0.0
210
0.0
220
0.0
230
1.0
 73
     3
  0
TEXT
  8
11
  6
CONTINUOUS
 62
     7
  5
D2
 10
975930.774
 20
7280185.796
 30
0.0
 40
8.0
  1
28.81'
 50
326.760544
  7
ROMANS
 72
     1
 11
975948.616645
 21
7280174.102544
 31
0.0
210
0.0
220
0.0
230
1.0
  0
ENDBLK
  8
11
  6
CONTINUOUS
 62
     7
  5
D3
  0
BLOCK
  8
11
  6
CONTINUOUS
 62
     7
  5
D6
  2
*D11
 70
     1
 10
0.0
 20
0.0
 30
0.0
  3
*N11
  0
TEXT
  8
11
  6
CONTINUOUS
 62
     7
  5
D7
 10
976128.401
 20
7280033.953
 30
0.0
 40
8.0
  1
S55%%d28'22"E
 50
325.472897
  7
ROMANS
 72
     1
 11
976167.94934
 21
7280016.455035
 31
0.0
210
0.0
220
0.0
230
1.0
 73
     3
  0
TEXT
  8
11
  6
CONTINUOUS
 62
     7
  5
D8
 10
976154.908
 20
7280035.137
 30
0.0
 40
8.0
  1
27.79'
 50
325.472897
  7
ROMANS
 72
     1
 11
976172.483366
 21
7280023.045541
 31
0.0
210
0.0
220
0.0
230
1.0
  0
ENDBLK
  8
11
  6
CONTINUOUS
 62
     7
  5
D9
  0
BLOCK
  8
11
  6
CONTINUOUS
 62
     7
  5
FC
  2
*D12
 70
     1
 10
0.0
 20
0.0
 30
0.0
  3
*N12
  0
TEXT
  8
11
  6
CONTINUOUS
 62
     7
  5
FD
 10
975889.937
 20
7279971.195
 30
0.0
 40
8.0
  1
N36%%d28'40"E
 50
53.522217
  7
ROMANS
 72
     1
 11
975908.77102
 21
7280010.124805
 31
0.0
210
0.0
220
0.0
230
1.0
 73
     3
  0
TEXT
  8
11
  6
CONTINUOUS
 62
     7
  5
FE
 10
975887.278
 20
7279994.511
 30
0.0
 40
8.0
  1
362.32'
 50
53.522217
  7
ROMANS
 72
     1
 11
975902.338748
 21
7280014.880947
 31
0.0
210
0.0
220
0.0
230
1.0
  0
ENDBLK
  8
11
  6
CONTINUOUS
 62
     7
  5
FF
  0
BLOCK
  8
11
  6
CONTINUOUS
 62
     7
  5
102
  2
*D13
 70
     1
 10
0.0
 20
0.0
 30
0.0
  3
*N13
  0
TEXT
  8
11
  6
CONTINUOUS
 62
     7
  5
103
 10
974544.312
 20
7278602.832
 30
0.0
 40
8.0
  1
S49%%d34'04"W
 50
40.432108
  7
ROMANS
 72
     1
 11
974571.750632
 21
7278636.7207
 31
0.0
210
0.0
220
0.0
230
1.0
 73
     3
  0
TEXT
  8
11
  6
CONTINUOUS
 62
     7
  5
104
 10
974547.279
 20
7278626.381
 30
0.0
 40
8.0
  1
1482.7'
 50
40.432108
  7
ROMANS
 72
     1
 11
974566.561846
 21
7278642.81063
 31
0.0
210
0.0
220
0.0
230
1.0
  0
ENDBLK
  8
11
  6
CONTINUOUS
 62
     7
  5
105
  0
BLOCK
  8
11
  6
CONTINUOUS
 62
     7
  5
108
  2
*D14
 70
     1
 10
0.0
 20
0.0
 30
0.0
  3
*N14
  0
TEXT
  8
11
  6
CONTINUOUS
 62
     7
  5
109
 10
974605.808
 20
7278522.05
 30
0.0
 40
8.0
  1
S49%%d27'54"W
 50
40.535006
  7
ROMANS
 72
     1
 11
974633.185727
 21
7278555.987922
 31
0.0
210
0.0
220
0.0
230
1.0
 73
     3
  0
TEXT
  8
11
  6
CONTINUOUS
 62
     7
  5
10A
 10
974605.693
 20
7278543.005
 30
0.0
 40
8.0
  1
1576.43'
 50
40.535006
  7
ROMANS
 72
     1
 11
974627.986345
 21
7278562.068884
 31
0.0
210
0.0
220
0.0
230
1.0
  0
ENDBLK
  8
11
  6
CONTINUOUS
 62
     7
  5
10B
  0
ENDSEC
  0
SECTION
  2
ENTITIES
  0
POLYLINE
  8
6
  6
CONTINUOUS
 62
     7
  5
29
 66
     1
 10
0.0
 20
0.0
 30
0.0
  0
VERTEX
  8
6
  6
CONTINUOUS
 62
     7
  5
2A
 10
977611.092
 20
7283088.328
 30
0.0
  0
VERTEX
  8
6
  6
CONTINUOUS
 62
     7
  5
2B
 10
977235.602
 20
7282378.982
 30
0.0
  0
VERTEX
  8
6
  6
CONTINUOUS
 62
     7
  5
2C
 10
977256.76
 20
7282365.086
 30
0.0
  0
VERTEX
  8
6
  6
CONTINUOUS
 62
     7
  5
2D
 10
976297.148
 20
7280568.99
 30
0.0
  0
SEQEND
  8
6
  6
CONTINUOUS
 62
     7
  5
2E
  0
ARC
  8
6
  6
CONTINUOUS
 62
     7
  5
2F
 10
969837.263527
 20
7284264.845739
 30
0.0
 40
7442.4
 50
326.2034
 51
330.2534
210
0.0
220
0.0
230
1.0
  0
LINE
  8
6
  6
CONTINUOUS
 62
     7
  5
30
 10
976020.253
 20
7280122.372
 30
0.0
 11
975996.155
 21
7280138.165
 31
0.0
  0
POLYLINE
  8
6
  6
CONTINUOUS
 62
     7
  5
31
 66
     1
 10
0.0
 20
0.0
 30
0.0
  0
VERTEX
  8
6
  6
CONTINUOUS
 62
     7
  5
32
 10
977778.408
 20
7283082.875
 30
0.0
  0
VERTEX
  8
6
  6
CONTINUOUS
 62
     7
  5
33
 10
977366.001
 20
7282309.298
 30
0.0
  0
VERTEX
  8
6
  6
CONTINUOUS
 62
     7
  5
34
 10
977340.704
 20
7282325.13
 30
0.0
  0
VERTEX
  8
6
  6
CONTINUOUS
 62
     7
  5
35
 10
976457.45
 20
7280661.617
 30
0.0
  0
SEQEND
  8
6
  6
CONTINUOUS
 62
     7
  5
36
  0
ARC
  8
6
  6
CONTINUOUS
 62
     7
  5
37
 10
970752.214244
 20
7283706.86738
 30
0.0
 40
6467.04
 50
325.7934
 51
331.9334
210
0.0
220
0.0
230
1.0
  0
LINE
  8
6
  6
CONTINUOUS
 62
     7
  5
38
 10
976098.95
 20
7280068.78
 30
0.0
 11
976121.849
 21
7280053.026
 31
0.0
  0
ARC
  8
6
  6
CONTINUOUS
 62
     7
  5
39
 10
971771.27137
 20
7282987.132177
 30
0.0
 40
5247.54
 50
310.7734
 51
326.0234
210
0.0
220
0.0
230
1.0
  0
ARC
  8
27
  6
CONTINUOUS
 62
    32
  5
3B
 10
972449.482502
 20
7282382.060041
 30
0.0
 40
4274.4
 50
309.1334
 51
327.2834
210
0.0
220
0.0
230
1.0
  0
ARC
  8
27
  6
CONTINUOUS
 62
    32
  5
3C
 10
972362.244909
 20
7282707.754414
 30
0.0
 40
4529.64
 50
324.4134
 51
332.8634
210
0.0
220
0.0
230
1.0
  0
LINE
  8
27
  6
CONTINUOUS
 62
    32
  5
3D
 10
976392.522
 20
7280640.321
 30
0.0
 11
977694.501
 21
7283086.81
 31
0.0
  0
LINE
  8
6
  6
CONTINUOUS
 62
     7
  5
3E
 10
975094.43
 20
7279123.598
 30
0.0
 11
975345.079
 21
7279354.356
 31
0.0
  0
ARC
  8
6
  6
CONTINUOUS
 62
     7
  5
3F
 10
971880.610324
 20
7282877.252423
 30
0.0
 40
4941.0
 50
314.5434
 51
322.1534
210
0.0
220
0.0
230
1.0
  0
LINE
  8
6
  6
CONTINUOUS
 62
     7
  5
40
 10
975781.273
 20
7279844.409
 30
0.0
 11
975996.677
 21
7280135.747
 31
0.0
  0
LINE
  8
6
  6
CONTINUOUS
 62
     7
  5
41
 10
973979.058
 20
7277963.916
 30
0.0
 11
979256.237
 21
7277791.331
 31
0.0
  0
LINE
  8
6
  6
CONTINUOUS
 62
     7
  5
42
 10
975178.429
 20
7279027.51
 30
0.0
 11
975198.278
 21
7279013.179
 31
0.0
  0
LINE
  8
6
  6
CONTINUOUS
 62
     7
  5
43
 10
975113.452
 20
7279103.524
 30
0.0
 11
975094.43
 21
7279123.598
 31
0.0
  0
LINE
  8
6
  6
CONTINUOUS
 62
     7
  5
44
 10
975113.452
 20
7279103.524
 30
0.0
 11
973984.859
 21
7278141.925
 31
0.0
  0
LINE
  8
6
  6
CONTINUOUS
 62
     7
  5
45
 10
975178.429
 20
7279027.51
 30
0.0
 11
973980.331
 21
7278002.971
 31
0.0
  0
LINE
  8
27
  6
CONTINUOUS
 62
    32
  5
46
 10
975147.177
 20
7279066.499
 30
0.0
 11
973982.595
 21
7278072.448
 31
0.0
  0
LINE
  8
6
  6
CONTINUOUS
 62
     7
  5
47
 10
977751.226
 20
7283083.761
 30
0.0
 11
977778.408
 21
7283082.875
 31
0.0
  0
TEXT
  8
11
  6
CONTINUOUS
 62
     7
  5
4A
 10
974043.354
 20
7277932.98
 30
0.0
 40
8.0
  1
40'
 50
88.1334
  7
ROMANS
210
0.0
220
0.0
230
1.0
  0
TEXT
  8
11
  6
CONTINUOUS
 62
     7
  5
4B
 10
975840.832
 20
7277877.51
 30
0.0
 40
8.0
  1
40'
 50
88.1334
  7
ROMANS
210
0.0
220
0.0
230
1.0
  0
TEXT
  8
11
  6
CONTINUOUS
 62
     7
  5
4C
 10
979110.028
 20
7277767.849
 30
0.0
 40
8.0
  1
40'
 50
88.1334
  7
ROMANS
210
0.0
220
0.0
230
1.0
  0
TEXT
  8
11
  6
CONTINUOUS
 62
     7
  5
4D
 10
974074.313
 20
7278126.476
 30
0.0
 40
8.0
  1
50'
 50
314.325553
  7
ROMANS
210
0.0
220
0.0
230
1.0
  0
TEXT
  8
11
  6
CONTINUOUS
 62
     7
  5
4E
 10
974038.405
 20
7278165.313
 30
0.0
 40
8.0
  1
50'
 50
314.325553
  7
ROMANS
210
0.0
220
0.0
230
1.0
  0
TEXT
  8
11
  6
CONTINUOUS
 62
     7
  5
4F
 10
975087.766
 20
7279066.237
 30
0.0
 40
8.0
  1
50'
 50
314.325553
  7
ROMANS
210
0.0
220
0.0
230
1.0
  0
TEXT
  8
11
  6
CONTINUOUS
 62
     7
  5
50
 10
975119.059
 20
7279028.322
 30
0.0
 40
8.0
  1
50'
 50
314.325553
  7
ROMANS
210
0.0
220
0.0
230
1.0
  0
TEXT
  8
11
  6
CONTINUOUS
 62
     7
  5
51
 10
975208.961
 20
7279080.492
 30
0.0
 40
8.0
  1
75'
 50
314.325553
  7
ROMANS
210
0.0
220
0.0
230
1.0
  0
TEXT
  8
11
  6
CONTINUOUS
 62
     7
  5
52
 10
975145.88
 20
7279141.147
 30
0.0
 40
8.0
  1
75'
 50
314.325553
  7
ROMANS
210
0.0
220
0.0
230
1.0
  0
TEXT
  8
11
  6
CONTINUOUS
 62
     7
  5
53
 10
975978.876
 20
7280048.143
 30
0.0
 40
8.0
  1
75'
 50
320.995511
  7
ROMANS
210
0.0
220
0.0
230
1.0
  0
TEXT
  8
11
  6
CONTINUOUS
 62
     7
  5
54
 10
976083.809
 20
7280098.37
 30
0.0
 40
8.0
  1
50'
 50
314.325553
  7
ROMANS
210
0.0
220
0.0
230
1.0
  0
TEXT
  8
11
  6
CONTINUOUS
 62
     7
  5
55
 10
976045.876
 20
7280132.161
 30
0.0
 40
8.0
  1
50'
 50
314.325553
  7
ROMANS
210
0.0
220
0.0
230
1.0
  0
TEXT
  8
11
  6
CONTINUOUS
 62
     7
  5
56
 10
977786.403
 20
7283046.866
 30
0.0
 40
8.0
  1
50'
 50
88.1334
  7
ROMANS
210
0.0
220
0.0
230
1.0
  0
TEXT
  8
11
  6
CONTINUOUS
 62
     7
  5
57
 10
979382.147
 20
7282994.88
 30
0.0
 40
8.0
  1
50'
 50
88.1334
  7
ROMANS
210
0.0
220
0.0
230
1.0
  0
TEXT
  8
11
  6
CONTINUOUS
 62
     7
  5
58
 10
977531.691
 20
7283055.162
 30
0.0
 40
8.0
  1
50'
 50
88.1334
  7
ROMANS
210
0.0
220
0.0
230
1.0
  0
TEXT
  8
11
  6
CONTINUOUS
 62
     7
  5
59
 10
974184.703
 20
7283166.382
 30
0.0
 40
8.0
  1
50'
 50
88.1334
  7
ROMANS
210
0.0
220
0.0
230
1.0
  0
INSERT
  8
11
  6
CONTINUOUS
 62
     7
  5
61
  2
*D0
 10
977611.092
 20
7283088.328
 30
0.0
 70
     0
 71
     0
  0
INSERT
  8
11
  6
CONTINUOUS
 62
     7
  5
67
  2
*D1
 10
977778.408
 20
7283082.875
 30
0.0
 70
     0
 71
     0
  0
TEXT
  8
11
  6
CONTINUOUS
 62
     7
  5
68
 10
977594.894
 20
7282993.64
 30
0.0
 40
8.0
  1
75'
 50
333.122289
  7
ROMANS
 72
     4
 11
977605.028031
 21
7282992.988107
 31
0.0
210
0.0
220
0.0
230
1.0
  0
TEXT
  8
11
  6
CONTINUOUS
 62
     7
  5
69
 10
977664.471
 20
7282964.215
 30
0.0
 40
8.0
  1
75'
 50
333.122289
  7
ROMANS
 72
     4
 11
977674.605031
 21
7282963.563107
 31
0.0
210
0.0
220
0.0
230
1.0
  0
TEXT
  8
11
  6
CONTINUOUS
 62
     7
  5
6A
 10
977264.262
 20
7282404.229
 30
0.0
 40
8.0
  1
75'
 50
333.122289
  7
ROMANS
 72
     4
 11
977274.396031
 21
7282403.577107
 31
0.0
210
0.0
220
0.0
230
1.0
  0
TEXT
  8
11
  6
CONTINUOUS
 62
     7
  5
6B
 10
977339.319
 20
7282355.616
 30
0.0
 40
8.0
  1
75'
 50
333.122289
  7
ROMANS
 72
     4
 11
977349.453031
 21
7282354.964107
 31
0.0
210
0.0
220
0.0
230
1.0
  0
TEXT
  8
11
  6
CONTINUOUS
 62
     7
  5
6C
 10
977046.663
 20
7282377.772
 30
0.0
 40
8.0
  1
50'
 50
333.122289
  7
ROMANS
 72
     4
 11
977056.797031
 21
7282377.120107
 31
0.0
210
0.0
220
0.0
230
1.0
  0
TEXT
  8
11
  6
CONTINUOUS
 62
     7
  5
6D
 10
977276.261
 20
7282270.253
 30
0.0
 40
8.0
  1
50'
 50
333.122289
  7
ROMANS
 72
     4
 11
977286.395031
 21
7282269.601107
 31
0.0
210
0.0
220
0.0
230
1.0
  0
INSERT
  8
11
  6
CONTINUOUS
 62
     7
  5
73
  2
*D2
 10
977256.76
 20
7282365.086
 30
0.0
 70
     0
 71
     0
  0
INSERT
  8
11
  6
CONTINUOUS
 62
     7
  5
79
  2
*D3
 10
977340.704
 20
7282325.13
 30
0.0
 70
     0
 71
     0
  0
TEXT
  8
11
  6
CONTINUOUS
 62
     7
  5
7A
 10
976192.968
 20
7280398.499
 30
0.0
 40
8.0
  1
R
 50
58.594342
  7
ROMANS
 72
     1
 11
976194.281157
 21
7280400.649818
 31
0.0
210
0.0
220
0.0
230
1.0
  0
TEXT
  8
11
  6
CONTINUOUS
 62
     7
  5
7B
 10
976197.105
 20
7280405.272
 30
0.0
 40
8.0
  1
=
 50
58.594342
  7
ROMANS
 72
     1
 11
976198.841806
 21
7280408.116713
 31
0.0
210
0.0
220
0.0
230
1.0
  0
TEXT
  8
11
  6
CONTINUOUS
 62
     7
  5
7C
 10
976201.24
 20
7280412.046
 30
0.0
 40
8.0
  1
7
 50
58.594342
  7
ROMANS
 72
     1
 11
976202.455712
 21
7280414.037214
 31
0.0
210
0.0
220
0.0
230
1.0
  0
TEXT
  8
11
  6
CONTINUOUS
 62
     7
  5
7D
 10
976205.352
 20
7280418.803
 30
0.0
 40
8.0
  1
4
 50
59.125661
  7
ROMANS
 72
     1
 11
976206.549195
 21
7280420.805402
 31
0.0
210
0.0
220
0.0
230
1.0
  0
TEXT
  8
11
  6
CONTINUOUS
 62
     7
  5
7E
 10
976209.424
 20
7280425.615
 30
0.0
 40
8.0
  1
4
 50
59.125661
  7
ROMANS
 72
     1
 11
976210.621195
 21
7280427.617402
 31
0.0
210
0.0
220
0.0
230
1.0
  0
TEXT
  8
11
  6
CONTINUOUS
 62
     7
  5
7F
 10
976213.497
 20
7280432.427
 30
0.0
 40
8.0
  1
2
 50
59.125661
  7
ROMANS
 72
     1
 11
976214.694195
 21
7280434.429402
 31
0.0
210
0.0
220
0.0
230
1.0
  0
TEXT
  8
11
  6
CONTINUOUS
 62
     7
  5
80
 10
976217.57
 20
7280439.241
 30
0.0
 40
8.0
  1
.
 50
59.125661
  7
ROMANS
 72
     1
 11
976218.248393
 21
7280440.375666
 31
0.0
210
0.0
220
0.0
230
1.0
  0
TEXT
  8
11
  6
CONTINUOUS
 62
     7
  5
81
 10
976221.643
 20
7280446.052
 30
0.0
 40
8.0
  1
4
 50
59.125661
  7
ROMANS
 72
     1
 11
976222.840195
 21
7280448.054402
 31
0.0
210
0.0
220
0.0
230
1.0
  0
TEXT
  8
11
  6
CONTINUOUS
 62
     7
  5
82
 10
976225.715
 20
7280452.865
 30
0.0
 40
8.0
  1
'
 50
59.125661
  7
ROMANS
 72
     1
 11
976226.399038
 21
7280454.009107
 31
0.0
210
0.0
220
0.0
230
1.0
  0
TEXT
  8
11
  6
CONTINUOUS
 62
     7
  5
83
 10
976206.992
 20
7280394.602
 30
0.0
 40
8.0
  1
5
 50
58.594342
  7
ROMANS
 72
     1
 11
976201.385449
 21
7280400.771354
 31
0.0
210
0.0
220
0.0
230
1.0
 73
     3
  0
TEXT
  8
11
  6
CONTINUOUS
 62
     7
  5
84
 10
976211.128
 20
7280401.376
 30
0.0
 40
8.0
  1
2
 50
58.594342
  7
ROMANS
 72
     1
 11
976205.515717
 21
7280407.535965
 31
0.0
210
0.0
220
0.0
230
1.0
 73
     3
  0
TEXT
  8
11
  6
CONTINUOUS
 62
     7
  5
85
 10
976215.264
 20
7280408.149
 30
0.0
 40
8.0
  1
2
 50
58.594342
  7
ROMANS
 72
     1
 11
976209.651717
 21
7280414.308965
 31
0.0
210
0.0
220
0.0
230
1.0
 73
     3
  0
TEXT
  8
11
  6
CONTINUOUS
 62
     7
  5
86
 10
976219.411
 20
7280415.037
 30
0.0
 40
8.0
  1
.
 50
59.125661
  7
ROMANS
 72
     1
 11
976213.223035
 21
7280420.276921
 31
0.0
210
0.0
220
0.0
230
1.0
 73
     3
  0
TEXT
  8
11
  6
CONTINUOUS
 62
     7
  5
87
 10
976223.484
 20
7280421.849
 30
0.0
 40
8.0
  1
2
 50
59.125661
  7
ROMANS
 72
     1
 11
976217.814836
 21
7280427.956657
 31
0.0
210
0.0
220
0.0
230
1.0
 73
     3
  0
TEXT
  8
11
  6
CONTINUOUS
 62
     7
  5
88
 10
976227.556
 20
7280428.661
 30
0.0
 40
8.0
  1
9
 50
59.125661
  7
ROMANS
 72
     1
 11
976221.886836
 21
7280434.768657
 31
0.0
210
0.0
220
0.0
230
1.0
 73
     3
  0
TEXT
  8
11
  6
CONTINUOUS
 62
     7
  5
89
 10
976231.629
 20
7280435.474
 30
0.0
 40
8.0
  1
'
 50
59.125661
  7
ROMANS
 72
     1
 11
976225.44668
 21
7280440.723362
 31
0.0
210
0.0
220
0.0
230
1.0
 73
     3
  0
TEXT
  8
11
  6
CONTINUOUS
 62
     7
  5
8A
 10
976265.78
 20
7280332.882
 30
0.0
 40
8.0
  1
R
 50
58.358314
  7
ROMANS
 72
     1
 11
976267.102006
 21
7280335.027391
 31
0.0
210
0.0
220
0.0
230
1.0
  0
TEXT
  8
11
  6
CONTINUOUS
 62
     7
  5
8B
 10
976269.944
 20
7280339.64
 30
0.0
 40
8.0
  1
=
 50
58.358314
  7
ROMANS
 72
     1
 11
976271.69251
 21
7280342.477534
 31
0.0
210
0.0
220
0.0
230
1.0
  0
TEXT
  8
11
  6
CONTINUOUS
 62
     7
  5
8C
 10
976274.059
 20
7280346.39
 30
0.0
 40
8.0
  1
6
 50
58.928294
  7
ROMANS
 72
     1
 11
976275.359598
 21
7280348.548436
 31
0.0
210
0.0
220
0.0
230
1.0
  0
TEXT
  8
11
  6
CONTINUOUS
 62
     7
  5
8D
 10
976278.157
 20
7280353.188
 30
0.0
 40
8.0
  1
4
 50
58.928294
  7
ROMANS
 72
     1
 11
976279.361086
 21
7280355.186266
 31
0.0
210
0.0
220
0.0
230
1.0
  0
TEXT
  8
11
  6
CONTINUOUS
 62
     7
  5
8E
 10
976282.252
 20
7280359.986
 30
0.0
 40
8.0
  1
6
 50
58.928294
  7
ROMANS
 72
     1
 11
976283.552598
 21
7280362.144436
 31
0.0
210
0.0
220
0.0
230
1.0
  0
TEXT
  8
11
  6
CONTINUOUS
 62
     7
  5
8F
 10
976286.35
 20
7280366.784
 30
0.0
 40
8.0
  1
7
 50
58.928294
  7
ROMANS
 72
     1
 11
976287.554086
 21
7280368.782266
 31
0.0
210
0.0
220
0.0
230
1.0
  0
TEXT
  8
11
  6
CONTINUOUS
 62
     7
  5
90
 10
976290.445
 20
7280373.583
 30
0.0
 40
8.0
  1
.
 50
58.928294
  7
ROMANS
 72
     1
 11
976291.127298
 21
7280374.715322
 31
0.0
210
0.0
220
0.0
230
1.0
  0
TEXT
  8
11
  6
CONTINUOUS
 62
     7
  5
91
 10
976294.542
 20
7280380.38
 30
0.0
 40
8.0
  1
0
 50
58.928294
  7
ROMANS
 72
     1
 11
976295.910209
 21
7280382.65064
 31
0.0
210
0.0
220
0.0
230
1.0
  0
TEXT
  8
11
  6
CONTINUOUS
 62
     7
  5
92
 10
976298.639
 20
7280387.179
 30
0.0
 40
8.0
  1
4
 50
58.928294
  7
ROMANS
 72
     1
 11
976299.843086
 21
7280389.177266
 31
0.0
210
0.0
220
0.0
230
1.0
  0
TEXT
  8
11
  6
CONTINUOUS
 62
     7
  5
93
 10
976302.734
 20
7280393.977
 30
0.0
 40
8.0
  1
'
 50
58.928294
  7
ROMANS
 72
     1
 11
976303.422491
 21
7280395.1196
 31
0.0
210
0.0
220
0.0
230
1.0
  0
TEXT
  8
11
  6
CONTINUOUS
 62
     7
  5
94
 10
976283.725
 20
7280335.305
 30
0.0
 40
8.0
  1
6
 50
58.928294
  7
ROMANS
 72
     1
 11
976278.173422
 21
7280341.592319
 31
0.0
210
0.0
220
0.0
230
1.0
 73
     3
  0
TEXT
  8
11
  6
CONTINUOUS
 62
     7
  5
95
 10
976287.823
 20
7280342.103
 30
0.0
 40
8.0
  1
9
 50
58.928294
  7
ROMANS
 72
     1
 11
976282.174909
 21
7280348.230149
 31
0.0
210
0.0
220
0.0
230
1.0
 73
     3
  0
TEXT
  8
11
  6
CONTINUOUS
 62
     7
  5
96
 10
976291.919
 20
7280348.901
 30
0.0
 40
8.0
  1
2
 50
58.928294
  7
ROMANS
 72
     1
 11
976286.270909
 21
7280355.028149
 31
0.0
210
0.0
220
0.0
230
1.0
 73
     3
  0
TEXT
  8
11
  6
CONTINUOUS
 62
     7
  5
97
 10
976296.015
 20
7280355.7
 30
0.0
 40
8.0
  1
.
 50
58.928294
  7
ROMANS
 72
     1
 11
976289.845121
 21
7280360.961205
 31
0.0
210
0.0
220
0.0
230
1.0
 73
     3
  0
TEXT
  8
11
  6
CONTINUOUS
 62
     7
  5
98
 10
976300.111
 20
7280362.499
 30
0.0
 40
8.0
  1
7
 50
58.928294
  7
ROMANS
 72
     1
 11
976294.462909
 21
7280368.626149
 31
0.0
210
0.0
220
0.0
230
1.0
 73
     3
  0
TEXT
  8
11
  6
CONTINUOUS
 62
     7
  5
99
 10
976304.207
 20
7280369.297
 30
0.0
 40
8.0
  1
'
 50
58.928294
  7
ROMANS
 72
     1
 11
976298.043315
 21
7280374.568484
 31
0.0
210
0.0
220
0.0
230
1.0
 73
     3
  0
INSERT
  8
11
  6
CONTINUOUS
 62
     7
  5
A3
  2
*D4
 10
976119.324
 20
7280057.316
 30
0.0
 70
     0
 71
     0
  0
INSERT
  8
11
  6
CONTINUOUS
 62
     7
  5
AD
  2
*D5
 10
976000.576
 20
7280136.224
 30
0.0
 70
     0
 71
     0
  0
TEXT
  8
11
  6
CONTINUOUS
 62
     7
  5
AE
 10
976033.655
 20
7280003.903
 30
0.0
 40
8.0
  1
75'
 50
320.995511
  7
ROMANS
210
0.0
220
0.0
230
1.0
  0
INSERT
  8
11
  6
CONTINUOUS
 62
     7
  5
B4
  2
*D6
 10
975113.452
 20
7279103.524
 30
0.0
 70
     0
 71
     0
  0
INSERT
  8
11
  6
CONTINUOUS
 62
     7
  5
BA
  2
*D7
 10
975178.429
 20
7279027.51
 30
0.0
 70
     0
 71
     0
  0
INSERT
  8
11
  6
CONTINUOUS
 62
     7
  5
C4
  2
*D8
 10
975103.837
 20
7279108.739
 30
0.0
 70
     0
 71
     0
  0
INSERT
  8
11
  6
CONTINUOUS
 62
     7
  5
CE
  2
*D9
 10
975184.82
 20
7279018.14
 30
0.0
 70
     0
 71
     0
  0
INSERT
  8
11
  6
CONTINUOUS
 62
     7
  5
D4
  2
*D10
 10
976020.253
 20
7280122.372
 30
0.0
 70
     0
 71
     0
  0
INSERT
  8
11
  6
CONTINUOUS
 62
     7
  5
DA
  2
*D11
 10
976098.95
 20
7280068.78
 30
0.0
 70
     0
 71
     0
  0
TEXT
  8
11
  6
CONTINUOUS
 62
     7
  5
DB
 10
975505.983
 20
7279524.62
 30
0.0
 40
8.0
  1
R
 50
47.477794
  7
ROMANS
 72
     1
 11
975507.686207
 21
7279526.477279
 31
0.0
210
0.0
220
0.0
230
1.0
  0
TEXT
  8
11
  6
CONTINUOUS
 62
     7
  5
DC
 10
975511.349
 20
7279530.469
 30
0.0
 40
8.0
  1
=
 50
47.477794
  7
ROMANS
 72
     1
 11
975513.601694
 21
7279532.925472
 31
0.0
210
0.0
220
0.0
230
1.0
  0
TEXT
  8
11
  6
CONTINUOUS
 62
     7
  5
DD
 10
975516.712
 20
7279536.32
 30
0.0
 40
8.0
  1
4
 50
47.477794
  7
ROMANS
 72
     1
 11
975518.288818
 21
7279538.039457
 31
0.0
210
0.0
220
0.0
230
1.0
  0
TEXT
  8
11
  6
CONTINUOUS
 62
     7
  5
DE
 10
975522.076
 20
7279542.169
 30
0.0
 40
8.0
  1
9
 50
47.477794
  7
ROMANS
 72
     1
 11
975523.652818
 21
7279543.888457
 31
0.0
210
0.0
220
0.0
230
1.0
  0
TEXT
  8
11
  6
CONTINUOUS
 62
     7
  5
DF
 10
975527.441
 20
7279548.019
 30
0.0
 40
8.0
  1
4
 50
47.477794
  7
ROMANS
 72
     1
 11
975529.017818
 21
7279549.738457
 31
0.0
210
0.0
220
0.0
230
1.0
  0
TEXT
  8
11
  6
CONTINUOUS
 62
     7
  5
E0
 10
975532.806
 20
7279553.868
 30
0.0
 40
8.0
  1
1
 50
47.477794
  7
ROMANS
 72
     1
 11
975533.706943
 21
7279554.850442
 31
0.0
210
0.0
220
0.0
230
1.0
  0
TEXT
  8
11
  6
CONTINUOUS
 62
     7
  5
E1
 10
975538.157
 20
7279559.684
 30
0.0
 40
8.0
  1
'
 50
48.129881
  7
ROMANS
 72
     1
 11
975539.046703
 21
7279560.676631
 31
0.0
210
0.0
220
0.0
230
1.0
  0
TEXT
  8
11
  6
CONTINUOUS
 62
     7
  5
E2
 10
975514.785
 20
7279513.504
 30
0.0
 40
8.0
  1
9
 50
47.477794
  7
ROMANS
 72
     1
 11
975510.465695
 21
7279520.630464
 31
0.0
210
0.0
220
0.0
230
1.0
 73
     3
  0
TEXT
  8
11
  6
CONTINUOUS
 62
     7
  5
E3
 10
975520.149
 20
7279519.354
 30
0.0
 40
8.0
  1
9
 50
47.477794
  7
ROMANS
 72
     1
 11
975515.829695
 21
7279526.480464
 31
0.0
210
0.0
220
0.0
230
1.0
 73
     3
  0
TEXT
  8
11
  6
CONTINUOUS
 62
     7
  5
E4
 10
975525.514
 20
7279525.204
 30
0.0
 40
8.0
  1
5
 50
47.477794
  7
ROMANS
 72
     1
 11
975521.20213
 21
7279532.338571
 31
0.0
210
0.0
220
0.0
230
1.0
 73
     3
  0
TEXT
  8
11
  6
CONTINUOUS
 62
     7
  5
E5
 10
975530.879
 20
7279531.053
 30
0.0
 40
8.0
  1
.
 50
47.477794
  7
ROMANS
 72
     1
 11
975525.876384
 21
7279537.434342
 31
0.0
210
0.0
220
0.0
230
1.0
 73
     3
  0
TEXT
  8
11
  6
CONTINUOUS
 62
     7
  5
E6
 10
975536.243
 20
7279536.903
 30
0.0
 40
8.0
  1
6
 50
47.477794
  7
ROMANS
 72
     1
 11
975532.050084
 21
7279544.167286
 31
0.0
210
0.0
220
0.0
230
1.0
 73
     3
  0
TEXT
  8
11
  6
CONTINUOUS
 62
     7
  5
E7
 10
975541.608
 20
7279542.753
 30
0.0
 40
8.0
  1
5
 50
47.477794
  7
ROMANS
 72
     1
 11
975537.29613
 21
7279549.887571
 31
0.0
210
0.0
220
0.0
230
1.0
 73
     3
  0
TEXT
  8
11
  6
CONTINUOUS
 62
     7
  5
E8
 10
975546.972
 20
7279548.601
 30
0.0
 40
8.0
  1
'
 50
47.477794
  7
ROMANS
 72
     1
 11
975541.976819
 21
7279554.990449
 31
0.0
210
0.0
220
0.0
230
1.0
 73
     3
  0
TEXT
  8
11
  6
CONTINUOUS
 62
     7
  5
E9
 10
975596.82
 20
7279399.714
 30
0.0
 40
8.0
  1
R
 50
46.784569
  7
ROMANS
 72
     1
 11
975598.545553
 21
7279401.550536
 31
0.0
210
0.0
220
0.0
230
1.0
  0
TEXT
  8
11
  6
CONTINUOUS
 62
     7
  5
EA
 10
975602.254
 20
7279405.499
 30
0.0
 40
8.0
  1
=
 50
46.784569
  7
ROMANS
 72
     1
 11
975604.53625
 21
7279407.928038
 31
0.0
210
0.0
220
0.0
230
1.0
  0
TEXT
  8
11
  6
CONTINUOUS
 62
     7
  5
EB
 10
975607.69
 20
7279411.283
 30
0.0
 40
8.0
  1
5
 50
46.784569
  7
ROMANS
 72
     1
 11
975609.295039
 21
7279412.99127
 31
0.0
210
0.0
220
0.0
230
1.0
  0
TEXT
  8
11
  6
CONTINUOUS
 62
     7
  5
EC
 10
975613.102
 20
7279417.043
 30
0.0
 40
8.0
  1
2
 50
47.417322
  7
ROMANS
 72
     1
 11
975614.680632
 21
7279418.760792
 31
0.0
210
0.0
220
0.0
230
1.0
  0
TEXT
  8
11
  6
CONTINUOUS
 62
     7
  5
ED
 10
975618.472
 20
7279422.886
 30
0.0
 40
8.0
  1
4
 50
47.417322
  7
ROMANS
 72
     1
 11
975620.050632
 21
7279424.603792
 31
0.0
210
0.0
220
0.0
230
1.0
  0
TEXT
  8
11
  6
CONTINUOUS
 62
     7
  5
EE
 10
975623.843
 20
7279428.73
 30
0.0
 40
8.0
  1
7
 50
47.417322
  7
ROMANS
 72
     1
 11
975625.421632
 21
7279430.447792
 31
0.0
210
0.0
220
0.0
230
1.0
  0
TEXT
  8
11
  6
CONTINUOUS
 62
     7
  5
EF
 10
975629.215
 20
7279434.574
 30
0.0
 40
8.0
  1
.
 50
47.417322
  7
ROMANS
 72
     1
 11
975630.109536
 21
7279435.547391
 31
0.0
210
0.0
220
0.0
230
1.0
  0
TEXT
  8
11
  6
CONTINUOUS
 62
     7
  5
F0
 10
975634.584
 20
7279440.418
 30
0.0
 40
8.0
  1
5
 50
47.417322
  7
ROMANS
 72
     1
 11
975636.170076
 21
7279442.143891
 31
0.0
210
0.0
220
0.0
230
1.0
  0
TEXT
  8
11
  6
CONTINUOUS
 62
     7
  5
F1
 10
975639.955
 20
7279446.262
 30
0.0
 40
8.0
  1
4
 50
47.417322
  7
ROMANS
 72
     1
 11
975641.533632
 21
7279447.979792
 31
0.0
210
0.0
220
0.0
230
1.0
  0
TEXT
  8
11
  6
CONTINUOUS
 62
     7
  5
F2
 10
975645.326
 20
7279452.107
 30
0.0
 40
8.0
  1
'
 50
47.417322
  7
ROMANS
 72
     1
 11
975646.227979
 21
7279453.08849
 31
0.0
210
0.0
220
0.0
230
1.0
  0
TEXT
  8
11
  6
CONTINUOUS
 62
     7
  5
F3
 10
975609.22
 20
7279392.467
 30
0.0
 40
8.0
  1
1
 50
46.784569
  7
ROMANS
 72
     1
 11
975604.302489
 21
7279398.916417
 31
0.0
210
0.0
220
0.0
230
1.0
 73
     3
  0
TEXT
  8
11
  6
CONTINUOUS
 62
     7
  5
F4
 10
975614.655
 20
7279398.251
 30
0.0
 40
8.0
  1
3
 50
46.784569
  7
ROMANS
 72
     1
 11
975610.422232
 21
7279405.429201
 31
0.0
210
0.0
220
0.0
230
1.0
 73
     3
  0
TEXT
  8
11
  6
CONTINUOUS
 62
     7
  5
F5
 10
975620.09
 20
7279404.035
 30
0.0
 40
8.0
  1
9
 50
46.784569
  7
ROMANS
 72
     1
 11
975615.857232
 21
7279411.213201
 31
0.0
210
0.0
220
0.0
230
1.0
 73
     3
  0
TEXT
  8
11
  6
CONTINUOUS
 62
     7
  5
F6
 10
975625.582
 20
7279409.932
 30
0.0
 40
8.0
  1
2
 50
47.417322
  7
ROMANS
 72
     1
 11
975621.270219
 21
7279417.063019
 31
0.0
210
0.0
220
0.0
230
1.0
 73
     3
  0
TEXT
  8
11
  6
CONTINUOUS
 62
     7
  5
F7
 10
975630.952
 20
7279415.776
 30
0.0
 40
8.0
  1
.
 50
47.417322
  7
ROMANS
 72
     1
 11
975625.956122
 21
7279422.162618
 31
0.0
210
0.0
220
0.0
230
1.0
 73
     3
  0
TEXT
  8
11
  6
CONTINUOUS
 62
     7
  5
F8
 10
975636.322
 20
7279421.62
 30
0.0
 40
8.0
  1
5
 50
47.417322
  7
ROMANS
 72
     1
 11
975632.017662
 21
7279428.759118
 31
0.0
210
0.0
220
0.0
230
1.0
 73
     3
  0
TEXT
  8
11
  6
CONTINUOUS
 62
     7
  5
F9
 10
975641.694
 20
7279427.464
 30
0.0
 40
8.0
  1
8
 50
47.417322
  7
ROMANS
 72
     1
 11
975637.382219
 21
7279434.595019
 31
0.0
210
0.0
220
0.0
230
1.0
 73
     3
  0
TEXT
  8
11
  6
CONTINUOUS
 62
     7
  5
FA
 10
975647.065
 20
7279433.308
 30
0.0
 40
8.0
  1
'
 50
47.417322
  7
ROMANS
 72
     1
 11
975642.076565
 21
7279439.702717
 31
0.0
210
0.0
220
0.0
230
1.0
 73
     3
  0
INSERT
  8
11
  6
CONTINUOUS
 62
     7
  5
100
  2
*D12
 10
975781.273
 20
7279844.409
 30
0.0
 70
     0
 71
     0
  0
INSERT
  8
11
  6
CONTINUOUS
 62
     7
  5
106
  2
*D13
 10
975113.452
 20
7279103.524
 30
0.0
 70
     0
 71
     0
  0
INSERT
  8
11
  6
CONTINUOUS
 62
     7
  5
10C
  2
*D14
 10
975178.429
 20
7279027.51
 30
0.0
 70
     0
 71
     0
  0
POLYLINE
  8
1
  6
HIDDEN
 62
   253
  5
10E
 66
     1
 10
0.0
 20
0.0
 30
0.0
  0
VERTEX
  8
1
  6
HIDDEN
 62
   253
  5
10F
 10
974133.461
 20
7283144.867
 30
0.0
  0
VERTEX
  8
1
  6
HIDDEN
 62
   253
  5
110
 10
973961.478
 20
7277867.669
 30
0.0
  0
VERTEX
  8
1
  6
HIDDEN
 62
   253
  5
111
 10
979238.676
 20
7277695.686
 30
0.0
  0
VERTEX
  8
1
  6
HIDDEN
 62
   253
  5
112
 10
979410.659
 20
7282972.884
 30
0.0
  0
VERTEX
  8
1
  6
HIDDEN
 62
   253
  5
113
 10
974133.461
 20
7283144.867
 30
0.0
  0
SEQEND
  8
1
  6
HIDDEN
 62
   253
  5
114
  0
TEXT
  8
19
  6
CONTINUOUS
 62
     1
  5
117
 10
975592.105
 20
7277874.625
 30
0.0
 40
24.0
  1
E 4TH ST
 50
358.1334
  7
ROMANC
210
0.0
220
0.0
230
1.0
  0
TEXT
  8
19
  6
CONTINUOUS
 62
     1
  5
118
 10
977295.953
 20
7277797.3
 30
0.0
 40
24.0
  1
E 4TH ST
 50
358.1334
  7
ROMANC
210
0.0
220
0.0
230
1.0
  0
POLYLINE
  8
58
  6
DIVIDE
 62
   216
  5
11A
 66
     1
 10
0.0
 20
0.0
 30
0.0
  0
VERTEX
  8
58
  6
DIVIDE
 62
   216
  5
11B
 10
974133.461
 20
7283144.867
 30
0.0
  0
VERTEX
  8
58
  6
DIVIDE
 62
   216
  5
11C
 10
974131.832
 20
7283094.894
 30
0.0
  0
VERTEX
  8
58
  6
DIVIDE
 62
   216
  5
11D
 10
979409.031
 20
7282922.91
 30
0.0
  0
SEQEND
  8
58
  6
DIVIDE
 62
   216
  5
11E
  0
TEXT
  8
28
  6
CONTINUOUS
 62
    32
  5
121
 10
974453.43
 20
7278484.159
 30
0.0
 40
24.0
  1
PANHANDLE AND SANTA FE RAILWAY
 50
40.633972
  7
txt
 72
     1
 11
974716.501388
 21
7278709.909158
 31
0.0
210
0.0
220
0.0
230
1.0
  0
TEXT
  8
28
  6
CONTINUOUS
 62
    32
  5
122
 10
976967.489
 20
7281739.167
 30
0.0
 40
24.0
  1
PANHANDLE AND SANTA FE RAILWAY
 50
61.885456
  7
txt
 72
     1
 11
977130.845244
 21
7282044.919231
 31
0.0
210
0.0
220
0.0
230
1.0
  0
TEXT
  8
10
  6
CONTINUOUS
 62
   134
  5
124
 10
975209.21
 20
7281390.118
 30
0.0
 40
13.999
  1
UNSUBDIVIDED
 50
358.1334
  7
ROMANS
 11
975209.665983
 21
7281404.109572
 31
0.0
210
0.0
220
0.0
230
1.0
 73
     3
  0
TEXT
  8
10
  6
CONTINUOUS
 62
   134
  5
125
 10
977851.631
 20
7279707.454
 30
0.0
 40
13.999
  1
UNSUBDIVIDED
 50
358.1334
  7
ROMANS
 11
977852.086983
 21
7279721.445572
 31
0.0
210
0.0
220
0.0
230
1.0
 73
     3
  0
ENDSEC
  0
EOF
