  0
SECTION
  2
HEADER
  9
$ACADVER
  1
AC1009
  9
$INSBASE
 10
0.0
 20
0.0
 30
0.0
  9
$EXTMIN
 10
974082.359
 20
7282972.884
 30
0.0
  9
$EXTMAX
 10
979538.068
 20
7289051.697
 30
0.0
  9
$LIMMIN
 10
0.0
 20
0.0
  9
$LIMMAX
 10
12.0
 20
9.0
  9
$ORTHOMODE
 70
     0
  9
$REGENMODE
 70
     1
  9
$FILLMODE
 70
     1
  9
$QTEXTMODE
 70
     0
  9
$MIRRTEXT
 70
     1
  9
$DRAGMODE
 70
     2
  9
$LTSCALE
 40
1.0
  9
$OSMODE
 70
     0
  9
$ATTMODE
 70
     1
  9
$TEXTSIZE
 40
0.2
  9
$TRACEWID
 40
0.05
  9
$TEXTSTYLE
  7
STANDARD
  9
$CLAYER
  8
0
  9
$CELTYPE
  6
CONTINUOUS
  9
$CECOLOR
 62
   256
  9
$DIMSCALE
 40
1.0
  9
$DIMASZ
 40
0.18
  9
$DIMEXO
 40
0.0625
  9
$DIMDLI
 40
0.38
  9
$DIMRND
 40
0.0
  9
$DIMDLE
 40
0.0
  9
$DIMEXE
 40
0.18
  9
$DIMTP
 40
0.0
  9
$DIMTM
 40
0.0
  9
$DIMTXT
 40
0.18
  9
$DIMCEN
 40
0.09
  9
$DIMTSZ
 40
0.0
  9
$DIMTOL
 70
     0
  9
$DIMLIM
 70
     0
  9
$DIMTIH
 70
     1
  9
$DIMTOH
 70
     1
  9
$DIMSE1
 70
     0
  9
$DIMSE2
 70
     0
  9
$DIMTAD
 70
     0
  9
$DIMZIN
 70
     0
  9
$DIMBLK
  1

  9
$DIMASO
 70
     1
  9
$DIMSHO
 70
     1
  9
$DIMPOST
  1

  9
$DIMAPOST
  1

  9
$DIMALT
 70
     0
  9
$DIMALTD
 70
     2
  9
$DIMALTF
 40
25.4
  9
$DIMLFAC
 40
1.0
  9
$DIMTOFL
 70
     0
  9
$DIMTVP
 40
0.0
  9
$DIMTIX
 70
     0
  9
$DIMSOXD
 70
     0
  9
$DIMSAH
 70
     0
  9
$DIMBLK1
  1

  9
$DIMBLK2
  1

  9
$DIMSTYLE
  2
STANDARD
  9
$DIMCLRD
 70
     0
  9
$DIMCLRE
 70
     0
  9
$DIMCLRT
 70
     0
  9
$DIMTFAC
 40
1.0
  9
$DIMGAP
 40
0.09
  9
$LUNITS
 70
     2
  9
$LUPREC
 70
     4
  9
$AXISMODE
 70
     0
  9
$AXISUNIT
 10
0.0
 20
0.0
  9
$SKETCHINC
 40
0.1
  9
$FILLETRAD
 40
0.0
  9
$AUNITS
 70
     0
  9
$AUPREC
 70
     0
  9
$MENU
  1
acad
  9
$ELEVATION
 40
0.0
  9
$PELEVATION
 40
0.0
  9
$THICKNESS
 40
0.0
  9
$LIMCHECK
 70
     0
  9
$BLIPMODE
 70
     1
  9
$CHAMFERA
 40
0.0
  9
$CHAMFERB
 40
0.0
  9
$SKPOLY
 70
     0
  9
$TDCREATE
 40
2453013.904340278
  9
$TDUPDATE
 40
2453013.904340278
  9
$TDINDWG
 40
0.0000000000
  9
$TDUSRTIMER
 40
0.0000000000
  9
$USRTIMER
 70
     1
  9
$ANGBASE
 50
0.0
  9
$ANGDIR
 70
     0
  9
$PDMODE
 70
     0
  9
$PDSIZE
 40
0.0
  9
$PLINEWID
 40
0.0
  9
$COORDS
 70
     0
  9
$SPLFRAME
 70
     0
  9
$SPLINETYPE
 70
     6
  9
$SPLINESEGS
 70
    10
  9
$ATTDIA
 70
     0
  9
$ATTREQ
 70
     1
  9
$HANDLING
 70
     1
  9
$HANDSEED
  5
92
  9
$SURFTAB1
 70
     6
  9
$SURFTAB2
 70
     6
  9
$SURFTYPE
 70
     6
  9
$SURFU
 70
     6
  9
$SURFV
 70
     6
  9
$UCSNAME
  2

  9
$UCSORG
 10
0.0
 20
0.0
 30
0.0
  9
$UCSXDIR
 10
1.0
 20
0.0
 30
0.0
  9
$UCSYDIR
 10
0.0
 20
1.0
 30
0.0
  9
$PUCSNAME
  2

  9
$PUCSORG
 10
0.0
 20
0.0
 30
0.0
  9
$PUCSXDIR
 10
1.0
 20
0.0
 30
0.0
  9
$PUCSYDIR
 10
0.0
 20
1.0
 30
0.0
  9
$USERI1
 70
     0
  9
$USERI2
 70
     0
  9
$USERI3
 70
     0
  9
$USERI4
 70
     0
  9
$USERI5
 70
     0
  9
$USERR1
 40
0.0
  9
$USERR2
 40
0.0
  9
$USERR3
 40
0.0
  9
$USERR4
 40
0.0
  9
$USERR5
 40
0.0
  9
$WORLDVIEW
 70
     1
  9
$SHADEDGE
 70
     3
  9
$SHADEDIF
 70
    70
  9
$TILEMODE
 70
     1
  9
$MAXACTVP
 70
    16
  9
$PINSBASE
 10
0.0
 20
0.0
 30
0.0
  9
$PLIMCHECK
 70
     0
  9
$PEXTMIN
 10
-1.000000E+20
 20
-1.000000E+20
 30
-1.000000E+20
  9
$PEXTMAX
 10
-1.000000E+20
 20
-1.000000E+20
 30
-1.000000E+20
  9
$PLIMMIN
 10
0.0
 20
0.0
  9
$PLIMMAX
 10
12.0
 20
9.0
  9
$UNITMODE
 70
     0
  9
$VISRETAIN
 70
     0
  9
$PLINEGEN
 70
     1
  9
$PSLTSCALE
 70
     0
  9
$TREEDEPTH
 70
  3020
  9
$DWGCODEPAGE
  3
ansi_1252
  0
ENDSEC
  0
SECTION
  2
TABLES
  0
TABLE
  2
VPORT
 70
     1
  0
VPORT
  2
*ACTIVE
 70
     0
 10
0.0
 20
0.0
 11
1.0
 21
1.0
 12
0.0
 22
0.0
 13
0.0
 23
0.0
 14
0.0
 24
0.0
 15
0.0
 25
0.0
 16
0.0
 26
0.0
 36
1.0
 17
976821.90635
 27
7286012.3889
 37
0.0
 40
6419.876554
 41
1.473077
 42
50.0
 43
0.004
 44
0.0
 50
2.01374
 51
0.0
 71
     0
 72
   100
 73
     1
 74
     0
 75
     0
 76
     0
 77
     0
 78
     0
  0
ENDTAB
  0
TABLE
  2
LTYPE
 70
     7
  0
LTYPE
  2
CONTINUOUS
 70
     0
  3
Solid line
 72
    65
 73
     0
 40
0.0
  0
LTYPE
  2
DOT
 70
    64
  3
. . . . . . . . . . . . . . . . . . . . . . . . . . . . . . . . .
 72
    65
 73
     2
 40
0.25
 49
0.0
 49
-0.25
  0
LTYPE
  2
HIDDEN
 70
    64
  3
__ __ __ __ __ __ __ __ __ __ __ __ __ __ __ __ __ __ __ __ __ 
 72
    65
 73
     2
 40
0.375
 49
0.25
 49
-0.125
  0
LTYPE
  2
DASHED
 70
    64
  3
__ __ __ __ __ __ __ __ __ __ __ __ __ __ __ __ __ __ __ __ __
 72
    65
 73
     2
 40
0.75
 49
0.5
 49
-0.25
  0
LTYPE
  2
DASHDOT
 70
    64
  3
__ . __ . __ . __ . __ . __ . __ . __ . __ . __ . __ . __ . _
 72
    65
 73
     4
 40
1.0
 49
0.5
 49
-0.25
 49
0.0
 49
-0.25
  0
LTYPE
  2
DIVIDE
 70
    64
  3
____ . . ____ . . ____ . . ____ . . ____ . . ____ . . ____ . .
 72
    65
 73
     6
 40
1.25
 49
0.5
 49
-0.25
 49
0.0
 49
-0.25
 49
0.0
 49
-0.25
  0
LTYPE
  2
CENTER
 70
    64
  3
____ _ ____ _ ____ _ ____ _ ____ _ ____ _ ____ _ ____ _ ____ _
 72
    65
 73
     4
 40
2.0
 49
1.25
 49
-0.25
 49
0.25
 49
-0.25
  0
ENDTAB
  0
TABLE
  2
LAYER
 70
    14
  0
LAYER
  2
0
 70
     0
 62
     7
  6
CONTINUOUS
  0
LAYER
  2
CONSTRUCTION_CLASS
 70
     1
 62
     7
  6
CONTINUOUS
  0
LAYER
  2
PATTERN_CLASS
 70
     0
 62
     7
  6
CONTINUOUS
  0
LAYER
  2
6
 70
    64
 62
     7
  6
CONTINUOUS
  0
LAYER
  2
27
 70
    64
 62
     7
  6
CONTINUOUS
  0
LAYER
  2
11
 70
    64
 62
     7
  6
CONTINUOUS
  0
LAYER
  2
19
 70
    64
 62
     7
  6
CONTINUOUS
  0
LAYER
  2
DEFPOINTS
 70
    64
 62
     7
  6
CONTINUOUS
  0
LAYER
  2
1
 70
    64
 62
     7
  6
CONTINUOUS
  0
LAYER
  2
7
 70
    64
 62
     7
  6
CONTINUOUS
  0
LAYER
  2
10
 70
    64
 62
     7
  6
CONTINUOUS
  0
LAYER
  2
15
 70
    64
 62
     7
  6
CONTINUOUS
  0
LAYER
  2
58
 70
    64
 62
     7
  6
CONTINUOUS
  0
LAYER
  2
28
 70
    64
 62
     7
  6
CONTINUOUS
  0
ENDTAB
  0
TABLE
  2
STYLE
 70
     4
  0
STYLE
  2
STANDARD
 70
     0
 40
0.0
 41
1.0
 50
0.0
 71
     0
 42
0.0
  3
txt
  4

  0
STYLE
  2
ROMANS
 70
     0
 40
0.2
 41
1.0
 50
0.0
 71
     0
 42
0.2
  3
ROMANS
  4

  0
STYLE
  2
ROMANC
 70
     0
 40
0.2
 41
1.0
 50
0.0
 71
     0
 42
0.2
  3
ROMANC
  4

  0
STYLE
  2
txt
 70
     0
 40
0.2
 41
1.0
 50
0.0
 71
     0
 42
0.2
  3
TXT
  4

  0
ENDTAB
  0
TABLE
  2
VIEW
 70
     0
  0
ENDTAB
  0
TABLE
  2
UCS
 70
     0
  0
ENDTAB
  0
TABLE
  2
APPID
 70
     1
  0
APPID
  2
ACAD
 70
     0
  0
ENDTAB
  0
TABLE
  2
DIMSTYLE
 70
     2
  0
DIMSTYLE
  2
STANDARD
 70
     0
  3

  4

  5

  6

  7

 40
1.0
 41
0.18
 42
0.0625
 43
0.38
 44
0.18
 45
0.0
 46
0.0
 47
0.0
 48
0.0
140
0.18
141
0.09
142
0.0
143
25.4
144
1.0
145
0.0
146
1.0
147
0.09
 71
     0
 72
     0
 73
     1
 74
     1
 75
     0
 76
     0
 77
     0
 78
     0
170
     0
171
     2
172
     0
173
     0
174
     0
175
     0
176
     0
177
     0
178
     0
  0
DIMSTYLE
  2
MSADIM
 70
     0
  3

  4

  5

  6

  7

 40
1.0
 41
8.0
 42
4.0
 43
0.0
 44
4.0
 45
0.0
 46
0.0
 47
0.0
 48
0.0
140
8.0
141
4.0
142
0.0
143
25.4
144
1.0
145
4.0
146
1.0
147
4.0
 71
     0
 72
     0
 73
     1
 74
     1
 75
     1
 76
     1
 77
     0
 78
     2
170
     0
171
     2
172
     0
173
     0
174
     0
175
     0
176
     0
177
     0
178
     0
  0
ENDTAB
  0
ENDSEC
  0
SECTION
  2
BLOCKS
  0
BLOCK
  8
11
  6
CONTINUOUS
 62
     7
  5
4C
  2
*D0
 70
     1
 10
0.0
 20
0.0
 30
0.0
  3
*N0
  0
TEXT
  8
11
  6
CONTINUOUS
 62
     7
  5
4D
 10
978482.32
 20
7284632.942
 30
0.0
 40
8.0
  1
N28%%d24'07"E
 50
61.598178
  7
ROMANS
 72
     1
 11
978495.49815
 21
7284674.131639
 31
0.0
210
0.0
220
0.0
230
1.0
 73
     3
  0
TEXT
  8
11
  6
CONTINUOUS
 62
     7
  5
4E
 10
978474.508
 20
7284652.135
 30
0.0
 40
8.0
  1
4011.03'
 50
61.598178
  7
ROMANS
 72
     1
 11
978488.460306
 21
7284677.937288
 31
0.0
210
0.0
220
0.0
230
1.0
  0
ENDBLK
  8
11
  6
CONTINUOUS
 62
     7
  5
4F
  0
ENDSEC
  0
SECTION
  2
ENTITIES
  0
LINE
  8
6
  6
CONTINUOUS
 62
     7
  5
29
 10
974352.537
 20
7288298.649
 30
0.0
 11
974449.21
 21
7288380.119
 31
0.0
  0
LINE
  8
6
  6
CONTINUOUS
 62
     7
  5
2A
 10
974343.461
 20
7287909.294
 30
0.0
 11
974839.623
 21
7288361.754
 31
0.0
  0
LINE
  8
6
  6
CONTINUOUS
 62
     7
  5
2B
 10
977728.152
 20
7283023.422
 30
0.0
 11
979491.124
 21
7286289.787
 31
0.0
  0
LINE
  8
6
  6
CONTINUOUS
 62
     7
  5
2C
 10
977588.018
 20
7283027.989
 30
0.0
 11
979497.704
 21
7286561.022
 31
0.0
  0
LINE
  8
27
  6
CONTINUOUS
 62
    32
  5
2E
 10
977672.098
 20
7283025.249
 30
0.0
 11
979493.756
 21
7286398.276
 31
0.0
  0
TEXT
  8
11
  6
CONTINUOUS
 62
     7
  5
31
 10
974576.462
 20
7288084.303
 30
0.0
 40
8.0
  1
8
 50
42.511067
  7
ROMANS
 72
     1
 11
974572.775903
 21
7288091.776659
 31
0.0
210
0.0
220
0.0
230
1.0
 73
     3
  0
TEXT
  8
11
  6
CONTINUOUS
 62
     7
  5
32
 10
974582.359
 20
7288089.709
 30
0.0
 40
8.0
  1
4
 50
42.511067
  7
ROMANS
 72
     1
 11
974578.672903
 21
7288097.182659
 31
0.0
210
0.0
220
0.0
230
1.0
 73
     3
  0
TEXT
  8
11
  6
CONTINUOUS
 62
     7
  5
33
 10
974588.024
 20
7288094.902
 30
0.0
 40
8.0
  1
0
 50
42.511067
  7
ROMANS
 72
     1
 11
974584.572315
 21
7288102.590542
 31
0.0
210
0.0
220
0.0
230
1.0
 73
     3
  0
TEXT
  8
11
  6
CONTINUOUS
 62
     7
  5
34
 10
974594.896
 20
7288101.202
 30
0.0
 40
8.0
  1
.
 50
42.511067
  7
ROMANS
 72
     1
 11
974590.464647
 21
7288107.992493
 31
0.0
210
0.0
220
0.0
230
1.0
 73
     3
  0
TEXT
  8
11
  6
CONTINUOUS
 62
     7
  5
35
 10
974600.05
 20
7288105.926
 30
0.0
 40
8.0
  1
9
 50
42.511067
  7
ROMANS
 72
     1
 11
974596.363903
 21
7288113.399659
 31
0.0
210
0.0
220
0.0
230
1.0
 73
     3
  0
TEXT
  8
11
  6
CONTINUOUS
 62
     7
  5
36
 10
974606.69
 20
7288112.014
 30
0.0
 40
8.0
  1
'
 50
42.511067
  7
ROMANS
 72
     1
 11
974602.267493
 21
7288118.812602
 31
0.0
210
0.0
220
0.0
230
1.0
 73
     3
  0
TEXT
  8
11
  6
CONTINUOUS
 62
     7
  5
37
 10
974277.574
 20
7288290.777
 30
0.0
 40
8.0
  1
1
 50
88.5315
  7
ROMANS
 72
     1
 11
974269.610814
 21
7288292.315581
 31
0.0
210
0.0
220
0.0
230
1.0
 73
     3
  0
TEXT
  8
11
  6
CONTINUOUS
 62
     7
  5
38
 10
974277.753
 20
7288297.768
 30
0.0
 40
8.0
  1
9
 50
88.5315
  7
ROMANS
 72
     1
 11
974269.815416
 21
7288300.305253
 31
0.0
210
0.0
220
0.0
230
1.0
 73
     3
  0
TEXT
  8
11
  6
CONTINUOUS
 62
     7
  5
39
 10
974277.958
 20
7288305.764
 30
0.0
 40
8.0
  1
3
 50
88.5315
  7
ROMANS
 72
     1
 11
974270.020416
 21
7288308.301253
 31
0.0
210
0.0
220
0.0
230
1.0
 73
     3
  0
TEXT
  8
11
  6
CONTINUOUS
 62
     7
  5
3A
 10
974278.189
 20
7288314.77
 30
0.0
 40
8.0
  1
'
 50
88.5315
  7
ROMANS
 72
     1
 11
974270.225814
 21
7288316.308581
 31
0.0
210
0.0
220
0.0
230
1.0
 73
     3
  0
TEXT
  8
11
  6
CONTINUOUS
 62
     7
  5
3B
 10
974347.202
 20
7288372.618
 30
0.0
 40
8.0
  1
2
 50
358.5315
  7
ROMANS
 72
     1
 11
974349.739253
 21
7288380.555584
 31
0.0
210
0.0
220
0.0
230
1.0
 73
     3
  0
TEXT
  8
11
  6
CONTINUOUS
 62
     7
  5
3C
 10
974354.885
 20
7288372.421
 30
0.0
 40
8.0
  1
0
 50
358.5315
  7
ROMANS
 72
     1
 11
974357.740148
 21
7288380.350434
 31
0.0
210
0.0
220
0.0
230
1.0
 73
     3
  0
TEXT
  8
11
  6
CONTINUOUS
 62
     7
  5
3D
 10
974362.882
 20
7288372.216
 30
0.0
 40
8.0
  1
0
 50
358.5315
  7
ROMANS
 72
     1
 11
974365.737148
 21
7288380.145434
 31
0.0
210
0.0
220
0.0
230
1.0
 73
     3
  0
TEXT
  8
11
  6
CONTINUOUS
 62
     7
  5
3E
 10
974372.202
 20
7288371.977
 30
0.0
 40
8.0
  1
'
 50
358.5315
  7
ROMANS
 72
     1
 11
974373.740581
 21
7288379.940186
 31
0.0
210
0.0
220
0.0
230
1.0
 73
     3
  0
TEXT
  8
11
  6
CONTINUOUS
 62
     7
  5
3F
 10
978641.749
 20
7286295.878
 30
0.0
 40
8.0
  1
 
 50
358.5315
  7
ROMANS
 72
     1
 11
978644.414124
 21
7286295.809677
 31
0.0
210
0.0
220
0.0
230
1.0
  0
TEXT
  8
11
  6
CONTINUOUS
 62
     7
  5
40
 10
977732.355
 20
7283163.93
 30
0.0
 40
8.0
  1
125'
 50
335.316847
  7
ROMANS
210
0.0
220
0.0
230
1.0
  0
TEXT
  8
11
  6
CONTINUOUS
 62
     7
  5
41
 10
978218.302
 20
7284063.67
 30
0.0
 40
8.0
  1
125'
 50
335.316847
  7
ROMANS
210
0.0
220
0.0
230
1.0
  0
TEXT
  8
11
  6
CONTINUOUS
 62
     7
  5
42
 10
978782.605
 20
7285106.248
 30
0.0
 40
8.0
  1
125'
 50
335.316847
  7
ROMANS
210
0.0
220
0.0
230
1.0
  0
TEXT
  8
11
  6
CONTINUOUS
 62
     7
  5
43
 10
979349.067
 20
7286158.344
 30
0.0
 40
8.0
  1
125'
 50
335.316847
  7
ROMANS
210
0.0
220
0.0
230
1.0
  0
TEXT
  8
11
  6
CONTINUOUS
 62
     7
  5
44
 10
974459.948
 20
7288223.251
 30
0.0
 40
8.0
  1
280'
 50
310.144019
  7
ROMANS
210
0.0
220
0.0
230
1.0
  0
TEXT
  8
19
  6
CONTINUOUS
 62
     1
  5
47
 10
974402.239
 20
7288066.153
 30
0.0
 40
24.0
  1
  U.S. 62 & 82
 50
43.551947
  7
ROMANC
 72
     4
 11
974502.371711
 21
7288177.905518
 31
0.0
210
0.0
220
0.0
230
1.0
  0
TEXT
  8
19
  6
CONTINUOUS
 62
     1
  5
48
 10
974400.199
 20
7288014.542
 30
0.0
 40
24.0
  1
IDALOU HIGHWAY
 50
43.551947
  7
ROMANC
 72
     4
 11
974526.82857
 21
7288151.484795
 31
0.0
210
0.0
220
0.0
230
1.0
  0
INSERT
  8
11
  6
CONTINUOUS
 62
     7
  5
50
  2
*D0
 10
977595.744
 20
7283018.608
 30
0.0
 70
     0
 71
     0
  0
POLYLINE
  8
1
  6
HIDDEN
 62
   253
  5
52
 66
     1
 10
0.0
 20
0.0
 30
0.0
  0
VERTEX
  8
1
  6
HIDDEN
 62
   253
  5
53
 10
974228.189
 20
7288386.76
 30
0.0
  0
VERTEX
  8
1
  6
HIDDEN
 62
   253
  5
54
 10
979538.068
 20
7288224.901
 30
0.0
  0
VERTEX
  8
1
  6
HIDDEN
 62
   253
  5
55
 10
979410.659
 20
7282972.884
 30
0.0
  0
VERTEX
  8
1
  6
HIDDEN
 62
   253
  5
56
 10
974082.359
 20
7283135.613
 30
0.0
  0
VERTEX
  8
1
  6
HIDDEN
 62
   253
  5
57
 10
974228.189
 20
7288386.76
 30
0.0
  0
SEQEND
  8
1
  6
HIDDEN
 62
   253
  5
58
  0
TEXT
  8
19
  6
CONTINUOUS
 62
     1
  5
59
 10
975180.427
 20
7288331.245
 30
0.0
 40
24.0
  1
URSULINE ST
 50
358.5315
  7
ROMANC
 72
     4
 11
975318.444285
 21
7288339.710763
 31
0.0
210
0.0
220
0.0
230
1.0
  0
TEXT
  8
19
  6
CONTINUOUS
 62
     1
  5
5A
 10
979030.746
 20
7283005.735
 30
0.0
 40
24.0
  1
ERSKINE ST
 50
358.1334
  7
ROMANC
 72
     4
 11
979153.615846
 21
7283013.737062
 31
0.0
210
0.0
220
0.0
230
1.0
  0
TEXT
  8
19
  6
CONTINUOUS
 62
     1
  5
5B
 10
974278.724
 20
7287401.792
 30
0.0
 40
24.0
  1
WOOD AVE
 50
88.5315
  7
ROMANC
 72
     4
 11
974269.478576
 21
7287509.396277
 31
0.0
210
0.0
220
0.0
230
1.0
  0
TEXT
  8
19
  6
CONTINUOUS
 62
     1
  5
5C
 10
976739.154
 20
7283058.332
 30
0.0
 40
24.0
  1
ERSKINE ST
 50
358.1334
  7
ROMANC
 72
     4
 11
976862.023846
 21
7283066.334062
 31
0.0
210
0.0
220
0.0
230
1.0
  0
TEXT
  8
19
  6
CONTINUOUS
 62
     1
  5
5D
 10
974363.016
 20
7283136.616
 30
0.0
 40
24.0
  1
ERSKINE ST
 50
358.1334
  7
ROMANC
 72
     4
 11
974485.885846
 21
7283144.618062
 31
0.0
210
0.0
220
0.0
230
1.0
  0
LINE
  8
6
  6
CONTINUOUS
 62
     7
  5
5E
 10
976102.235
 20
7288329.387
 30
0.0
 11
976089.707
 21
7287840.698
 31
0.0
  0
LINE
  8
6
  6
CONTINUOUS
 62
     7
  5
5F
 10
976089.707
 20
7287840.698
 30
0.0
 11
977226.873
 21
7287811.546
 31
0.0
  0
LINE
  8
6
  6
CONTINUOUS
 62
     7
  5
60
 10
977226.873
 20
7287811.546
 30
0.0
 11
977239.401
 21
7288300.235
 31
0.0
  0
LINE
  8
6
  6
CONTINUOUS
 62
     7
  5
61
 10
976161.429
 20
7288297.19
 30
0.0
 11
977238.615
 21
7288269.576
 31
0.0
  0
LINE
  8
7
  6
CONTINUOUS
 62
     7
  5
63
 10
977042.344
 20
7287816.277
 30
0.0
 11
977054.086
 21
7288274.307
 31
0.0
  0
LINE
  8
7
  6
CONTINUOUS
 62
     7
  5
64
 10
976857.815
 20
7287821.008
 30
0.0
 11
976869.557
 21
7288279.038
 31
0.0
  0
LINE
  8
7
  6
CONTINUOUS
 62
     7
  5
65
 10
976673.285
 20
7287825.738
 30
0.0
 11
976685.027
 21
7288283.768
 31
0.0
  0
LINE
  8
7
  6
CONTINUOUS
 62
     7
  5
66
 10
976488.756
 20
7287830.469
 30
0.0
 11
976500.498
 21
7288288.499
 31
0.0
  0
LINE
  8
7
  6
CONTINUOUS
 62
     7
  5
67
 10
976304.227
 20
7287835.199
 30
0.0
 11
976315.969
 21
7288293.229
 31
0.0
  0
LINE
  8
7
  6
CONTINUOUS
 62
     7
  5
68
 10
976119.697
 20
7287839.93
 30
0.0
 11
976130.67
 21
7288267.969
 31
0.0
  0
ARC
  8
6
  6
CONTINUOUS
 62
     7
  5
69
 10
976160.660303
 20
7288267.200223
 30
0.0
 40
30.0
 50
88.531506
 51
178.531494
210
0.0
220
0.0
230
1.0
  0
TEXT
  8
11
  6
CONTINUOUS
 62
     7
  5
6B
 10
976222.451
 20
7288285.512
 30
0.0
 40
8.0
  1
154.57'
 50
356.664906
  7
txt
 72
     4
 11
976245.10167
 21
7288288.198836
 31
0.0
210
0.0
220
0.0
230
1.0
  0
TEXT
  8
11
  6
CONTINUOUS
 62
     7
  5
6C
 10
976398.913
 20
7288279.234
 30
0.0
 40
8.0
  1
154.59'
 50
356.664906
  7
txt
 72
     4
 11
976421.344043
 21
7288281.933635
 31
0.0
210
0.0
220
0.0
230
1.0
  0
TEXT
  8
11
  6
CONTINUOUS
 62
     7
  5
6D
 10
976573.499
 20
7288276.506
 30
0.0
 40
8.0
  1
154.59'
 50
356.664906
  7
txt
 72
     4
 11
976595.930043
 21
7288279.205635
 31
0.0
210
0.0
220
0.0
230
1.0
  0
TEXT
  8
11
  6
CONTINUOUS
 62
     7
  5
6E
 10
976753.277
 20
7288271.897
 30
0.0
 40
8.0
  1
154.59'
 50
356.664906
  7
txt
 72
     4
 11
976775.708043
 21
7288274.596635
 31
0.0
210
0.0
220
0.0
230
1.0
  0
TEXT
  8
11
  6
CONTINUOUS
 62
     7
  5
6F
 10
976948.763
 20
7288266.885
 30
0.0
 40
8.0
  1
154.59'
 50
356.664906
  7
txt
 72
     4
 11
976971.194043
 21
7288269.584635
 31
0.0
210
0.0
220
0.0
230
1.0
  0
TEXT
  8
11
  6
CONTINUOUS
 62
     7
  5
70
 10
977128.541
 20
7288262.277
 30
0.0
 40
8.0
  1
154.59'
 50
356.664906
  7
txt
 72
     4
 11
977150.972043
 21
7288264.976635
 31
0.0
210
0.0
220
0.0
230
1.0
  0
TEXT
  8
11
  6
CONTINUOUS
 62
     7
  5
71
 10
976109.118
 20
7288268.785
 30
0.0
 40
8.0
  1
30'
 50
356.664906
  7
txt
 72
     4
 11
976118.940433
 21
7288272.219391
 31
0.0
210
0.0
220
0.0
230
1.0
  0
TEXT
  8
11
  6
CONTINUOUS
 62
     7
  5
72
 10
977229.852
 20
7288051.87
 30
0.0
 40
8.0
  1
458.18'
 50
88.531506
  7
txt
 72
     4
 11
977226.428005
 21
7288074.390144
 31
0.0
210
0.0
220
0.0
230
1.0
  0
TEXT
  8
11
  6
CONTINUOUS
 62
     7
  5
73
 10
977043.093
 20
7288056.658
 30
0.0
 40
8.0
  1
458.18'
 50
88.531506
  7
txt
 72
     4
 11
977039.669005
 21
7288079.178144
 31
0.0
210
0.0
220
0.0
230
1.0
  0
TEXT
  8
11
  6
CONTINUOUS
 62
     7
  5
74
 10
976859.825
 20
7288061.356
 30
0.0
 40
8.0
  1
458.18'
 50
88.531506
  7
txt
 72
     4
 11
976856.401005
 21
7288083.876144
 31
0.0
210
0.0
220
0.0
230
1.0
  0
TEXT
  8
11
  6
CONTINUOUS
 62
     7
  5
75
 10
976676.556
 20
7288066.054
 30
0.0
 40
8.0
  1
458.18'
 50
88.531506
  7
txt
 72
     4
 11
976673.132005
 21
7288088.574144
 31
0.0
210
0.0
220
0.0
230
1.0
  0
TEXT
  8
11
  6
CONTINUOUS
 62
     7
  5
76
 10
976491.542
 20
7288070.797
 30
0.0
 40
8.0
  1
458.18'
 50
88.531506
  7
txt
 72
     4
 11
976488.118005
 21
7288093.317144
 31
0.0
210
0.0
220
0.0
230
1.0
  0
TEXT
  8
11
  6
CONTINUOUS
 62
     7
  5
77
 10
976306.528
 20
7288075.54
 30
0.0
 40
8.0
  1
458.18'
 50
88.531506
  7
txt
 72
     4
 11
976303.104005
 21
7288098.060144
 31
0.0
210
0.0
220
0.0
230
1.0
  0
TEXT
  8
11
  6
CONTINUOUS
 62
     7
  5
78
 10
976138.879
 20
7288076.345
 30
0.0
 40
8.0
  1
428.15'
 50
88.531506
  7
txt
 72
     4
 11
976135.455005
 21
7288098.865144
 31
0.0
210
0.0
220
0.0
230
1.0
  0
TEXT
  8
10
  6
CONTINUOUS
 62
   134
  5
7A
 10
976209.87
 20
7288089.955
 30
0.0
 40
13.999
  1
1
 50
358.531506
  7
txt
 72
     4
 11
976212.252667
 21
7288096.896219
 31
0.0
210
0.0
220
0.0
230
1.0
  0
TEXT
  8
10
  6
CONTINUOUS
 62
   134
  5
7B
 10
976390.66
 20
7288085.321
 30
0.0
 40
13.999
  1
2
 50
358.531506
  7
txt
 72
     4
 11
976395.521852
 21
7288092.198663
 31
0.0
210
0.0
220
0.0
230
1.0
  0
TEXT
  8
10
  6
CONTINUOUS
 62
   134
  5
7C
 10
976584.401
 20
7288080.355
 30
0.0
 40
13.999
  1
3
 50
358.531506
  7
txt
 72
     4
 11
976589.262852
 21
7288087.232663
 31
0.0
210
0.0
220
0.0
230
1.0
  0
TEXT
  8
10
  6
CONTINUOUS
 62
   134
  5
7D
 10
976772.575
 20
7288075.531
 30
0.0
 40
13.999
  1
4
 50
358.531506
  7
txt
 72
     4
 11
976777.767744
 21
7288082.40018
 31
0.0
210
0.0
220
0.0
230
1.0
  0
TEXT
  8
10
  6
CONTINUOUS
 62
   134
  5
7E
 10
976952.684
 20
7288070.915
 30
0.0
 40
13.999
  1
5
 50
358.531506
  7
txt
 72
     4
 11
976957.545852
 21
7288077.792663
 31
0.0
210
0.0
220
0.0
230
1.0
  0
TEXT
  8
10
  6
CONTINUOUS
 62
   134
  5
7F
 10
977139.774
 20
7288066.12
 30
0.0
 40
13.999
  1
6
 50
358.531506
  7
txt
 72
     4
 11
977144.305961
 21
7288073.00612
 31
0.0
210
0.0
220
0.0
230
1.0
  0
TEXT
  8
15
  6
CONTINUOUS
 62
    30
  5
81
 10
976341.39
 20
7287861.179
 30
0.0
 40
50.0
  1
RUSSELL LANE
 50
28.531506
  7
ROMANC
 72
     4
 11
976610.638259
 21
7288036.016463
 31
0.0
210
0.0
220
0.0
230
1.0
  0
TEXT
  8
19
  6
CONTINUOUS
 62
     1
  5
82
 10
976547.202
 20
7288326.094
 30
0.0
 40
24.0
  1
CR6400
 50
358.531506
  7
ROMANC
 72
     4
 11
976618.728129
 21
7288336.264322
 31
0.0
210
0.0
220
0.0
230
1.0
  0
LINE
  8
6
  6
CONTINUOUS
 62
     7
  5
83
 10
974839.623
 20
7288361.754
 30
0.0
 11
976102.235
 21
7288329.387
 31
0.0
  0
LINE
  8
58
  6
DIVIDE
 62
   216
  5
85
 10
974251.612
 20
7286395.098
 30
0.0
 11
974302.611
 21
7288384.444
 31
0.0
  0
LINE
  8
58
  6
DIVIDE
 62
   216
  5
86
 10
979491.547
 20
7286307.227
 30
0.0
 11
974251.612
 21
7286395.098
 31
0.0
  0
LINE
  8
58
  6
DIVIDE
 62
   216
  5
87
 10
974302.611
 20
7288384.444
 30
0.0
 11
974325.995
 21
7289049.501
 31
0.0
  0
LINE
  8
58
  6
DIVIDE
 62
   216
  5
88
 10
974263.537
 20
7289051.697
 30
0.0
 11
974325.995
 21
7289049.501
 31
0.0
  0
TEXT
  8
10
  6
CONTINUOUS
 62
   134
  5
89
 10
974290.929
 20
7288325.463
 30
0.0
 40
13.999
  1
VACANT
 50
358.5315
  7
ROMANS
 11
974291.287757
 21
7288339.457402
 31
0.0
210
0.0
220
0.0
230
1.0
 73
     3
  0
TEXT
  8
10
  6
CONTINUOUS
 62
   134
  5
8A
 10
976726.378
 20
7285650.572
 30
0.0
 40
13.999
  1
UNSUBDIVIDED
 50
358.5315
  7
ROMANS
 11
976726.736757
 21
7285664.566402
 31
0.0
210
0.0
220
0.0
230
1.0
 73
     3
  0
TEXT
  8
10
  6
CONTINUOUS
 62
   134
  5
8B
 10
978818.443
 20
7283898.853
 30
0.0
 40
13.999
  1
UNSUBDIVIDED
 50
358.5315
  7
ROMANS
 11
978818.801757
 21
7283912.847402
 31
0.0
210
0.0
220
0.0
230
1.0
 73
     3
  0
TEXT
  8
28
  6
CONTINUOUS
 62
    32
  5
8D
 10
977904.744
 20
7283478.121
 30
0.0
 40
24.0
  1
FORT WORTH & DENVER RAILWAY
 50
61.607753
  7
txt
 72
     1
 11
978057.228525
 21
7283760.22646
 31
0.0
210
0.0
220
0.0
230
1.0
  0
TEXT
  8
28
  6
CONTINUOUS
 62
    32
  5
8E
 10
978838.725
 20
7285211.526
 30
0.0
 40
24.0
  1
FORT WORTH & DENVER RAILWAY
 50
61.607753
  7
txt
 72
     1
 11
978991.209525
 21
7285493.63146
 31
0.0
210
0.0
220
0.0
230
1.0
  0
ENDSEC
  0
EOF
