  0
SECTION
  2
HEADER
  9
$ACADVER
  1
AC1009
  9
$INSBASE
 10
0.0
 20
0.0
 30
0.0
  9
$EXTMIN
 10
974248.352
 20
7288229.246
 30
0.0
  9
$EXTMAX
 10
979678.763
 20
7293657.379
 30
0.0
  9
$LIMMIN
 10
0.0
 20
0.0
  9
$LIMMAX
 10
12.0
 20
9.0
  9
$ORTHOMODE
 70
     0
  9
$REGENMODE
 70
     1
  9
$FILLMODE
 70
     1
  9
$QTEXTMODE
 70
     0
  9
$MIRRTEXT
 70
     1
  9
$DRAGMODE
 70
     2
  9
$LTSCALE
 40
1.0
  9
$OSMODE
 70
     0
  9
$ATTMODE
 70
     1
  9
$TEXTSIZE
 40
0.2
  9
$TRACEWID
 40
0.05
  9
$TEXTSTYLE
  7
STANDARD
  9
$CLAYER
  8
0
  9
$CELTYPE
  6
CONTINUOUS
  9
$CECOLOR
 62
   256
  9
$DIMSCALE
 40
1.0
  9
$DIMASZ
 40
0.18
  9
$DIMEXO
 40
0.0625
  9
$DIMDLI
 40
0.38
  9
$DIMRND
 40
0.0
  9
$DIMDLE
 40
0.0
  9
$DIMEXE
 40
0.18
  9
$DIMTP
 40
0.0
  9
$DIMTM
 40
0.0
  9
$DIMTXT
 40
0.18
  9
$DIMCEN
 40
0.09
  9
$DIMTSZ
 40
0.0
  9
$DIMTOL
 70
     0
  9
$DIMLIM
 70
     0
  9
$DIMTIH
 70
     1
  9
$DIMTOH
 70
     1
  9
$DIMSE1
 70
     0
  9
$DIMSE2
 70
     0
  9
$DIMTAD
 70
     0
  9
$DIMZIN
 70
     0
  9
$DIMBLK
  1

  9
$DIMASO
 70
     1
  9
$DIMSHO
 70
     1
  9
$DIMPOST
  1

  9
$DIMAPOST
  1

  9
$DIMALT
 70
     0
  9
$DIMALTD
 70
     2
  9
$DIMALTF
 40
25.4
  9
$DIMLFAC
 40
1.0
  9
$DIMTOFL
 70
     0
  9
$DIMTVP
 40
0.0
  9
$DIMTIX
 70
     0
  9
$DIMSOXD
 70
     0
  9
$DIMSAH
 70
     0
  9
$DIMBLK1
  1

  9
$DIMBLK2
  1

  9
$DIMSTYLE
  2
STANDARD
  9
$DIMCLRD
 70
     0
  9
$DIMCLRE
 70
     0
  9
$DIMCLRT
 70
     0
  9
$DIMTFAC
 40
1.0
  9
$DIMGAP
 40
0.09
  9
$LUNITS
 70
     2
  9
$LUPREC
 70
     4
  9
$AXISMODE
 70
     0
  9
$AXISUNIT
 10
0.0
 20
0.0
  9
$SKETCHINC
 40
0.1
  9
$FILLETRAD
 40
0.0
  9
$AUNITS
 70
     0
  9
$AUPREC
 70
     0
  9
$MENU
  1
acad
  9
$ELEVATION
 40
0.0
  9
$PELEVATION
 40
0.0
  9
$THICKNESS
 40
0.0
  9
$LIMCHECK
 70
     0
  9
$BLIPMODE
 70
     1
  9
$CHAMFERA
 40
0.0
  9
$CHAMFERB
 40
0.0
  9
$SKPOLY
 70
     0
  9
$TDCREATE
 40
2453013.904305555
  9
$TDUPDATE
 40
2453013.904305555
  9
$TDINDWG
 40
0.0000000000
  9
$TDUSRTIMER
 40
0.0000000000
  9
$USRTIMER
 70
     1
  9
$ANGBASE
 50
0.0
  9
$ANGDIR
 70
     0
  9
$PDMODE
 70
     0
  9
$PDSIZE
 40
0.0
  9
$PLINEWID
 40
0.0
  9
$COORDS
 70
     0
  9
$SPLFRAME
 70
     0
  9
$SPLINETYPE
 70
     6
  9
$SPLINESEGS
 70
    10
  9
$ATTDIA
 70
     0
  9
$ATTREQ
 70
     1
  9
$HANDLING
 70
     1
  9
$HANDSEED
  5
BD
  9
$SURFTAB1
 70
     6
  9
$SURFTAB2
 70
     6
  9
$SURFTYPE
 70
     6
  9
$SURFU
 70
     6
  9
$SURFV
 70
     6
  9
$UCSNAME
  2

  9
$UCSORG
 10
0.0
 20
0.0
 30
0.0
  9
$UCSXDIR
 10
1.0
 20
0.0
 30
0.0
  9
$UCSYDIR
 10
0.0
 20
1.0
 30
0.0
  9
$PUCSNAME
  2

  9
$PUCSORG
 10
0.0
 20
0.0
 30
0.0
  9
$PUCSXDIR
 10
1.0
 20
0.0
 30
0.0
  9
$PUCSYDIR
 10
0.0
 20
1.0
 30
0.0
  9
$USERI1
 70
     0
  9
$USERI2
 70
     0
  9
$USERI3
 70
     0
  9
$USERI4
 70
     0
  9
$USERI5
 70
     0
  9
$USERR1
 40
0.0
  9
$USERR2
 40
0.0
  9
$USERR3
 40
0.0
  9
$USERR4
 40
0.0
  9
$USERR5
 40
0.0
  9
$WORLDVIEW
 70
     1
  9
$SHADEDGE
 70
     3
  9
$SHADEDIF
 70
    70
  9
$TILEMODE
 70
     1
  9
$MAXACTVP
 70
    16
  9
$PINSBASE
 10
0.0
 20
0.0
 30
0.0
  9
$PLIMCHECK
 70
     0
  9
$PEXTMIN
 10
-1.000000E+20
 20
-1.000000E+20
 30
-1.000000E+20
  9
$PEXTMAX
 10
-1.000000E+20
 20
-1.000000E+20
 30
-1.000000E+20
  9
$PLIMMIN
 10
0.0
 20
0.0
  9
$PLIMMAX
 10
12.0
 20
9.0
  9
$UNITMODE
 70
     0
  9
$VISRETAIN
 70
     0
  9
$PLINEGEN
 70
     1
  9
$PSLTSCALE
 70
     0
  9
$TREEDEPTH
 70
  3020
  9
$DWGCODEPAGE
  3
ansi_1252
  0
ENDSEC
  0
SECTION
  2
TABLES
  0
TABLE
  2
VPORT
 70
     1
  0
VPORT
  2
*ACTIVE
 70
     0
 10
0.0
 20
0.0
 11
1.0
 21
1.0
 12
0.0
 22
0.0
 13
0.0
 23
0.0
 14
0.0
 24
0.0
 15
0.0
 25
0.0
 16
0.0
 26
0.0
 36
1.0
 17
976649.708337
 27
7290800.345244
 37
0.0
 40
5448.174
 41
1.2213
 42
50.0
 43
0.004
 44
0.0
 50
2.01374
 51
0.0
 71
     0
 72
   100
 73
     1
 74
     0
 75
     0
 76
     0
 77
     0
 78
     0
  0
ENDTAB
  0
TABLE
  2
LTYPE
 70
     7
  0
LTYPE
  2
CONTINUOUS
 70
     0
  3
Solid line
 72
    65
 73
     0
 40
0.0
  0
LTYPE
  2
DOT
 70
    64
  3
. . . . . . . . . . . . . . . . . . . . . . . . . . . . . . . . .
 72
    65
 73
     2
 40
0.25
 49
0.0
 49
-0.25
  0
LTYPE
  2
HIDDEN
 70
    64
  3
__ __ __ __ __ __ __ __ __ __ __ __ __ __ __ __ __ __ __ __ __ 
 72
    65
 73
     2
 40
0.375
 49
0.25
 49
-0.125
  0
LTYPE
  2
DASHED
 70
    64
  3
__ __ __ __ __ __ __ __ __ __ __ __ __ __ __ __ __ __ __ __ __
 72
    65
 73
     2
 40
0.75
 49
0.5
 49
-0.25
  0
LTYPE
  2
DASHDOT
 70
    64
  3
__ . __ . __ . __ . __ . __ . __ . __ . __ . __ . __ . __ . _
 72
    65
 73
     4
 40
1.0
 49
0.5
 49
-0.25
 49
0.0
 49
-0.25
  0
LTYPE
  2
DIVIDE
 70
    64
  3
____ . . ____ . . ____ . . ____ . . ____ . . ____ . . ____ . .
 72
    65
 73
     6
 40
1.25
 49
0.5
 49
-0.25
 49
0.0
 49
-0.25
 49
0.0
 49
-0.25
  0
LTYPE
  2
CENTER
 70
    64
  3
____ _ ____ _ ____ _ ____ _ ____ _ ____ _ ____ _ ____ _ ____ _
 72
    65
 73
     4
 40
2.0
 49
1.25
 49
-0.25
 49
0.25
 49
-0.25
  0
ENDTAB
  0
TABLE
  2
LAYER
 70
    11
  0
LAYER
  2
0
 70
     0
 62
     7
  6
CONTINUOUS
  0
LAYER
  2
CONSTRUCTION_CLASS
 70
     1
 62
     7
  6
CONTINUOUS
  0
LAYER
  2
PATTERN_CLASS
 70
     0
 62
     7
  6
CONTINUOUS
  0
LAYER
  2
6
 70
    64
 62
     7
  6
CONTINUOUS
  0
LAYER
  2
11
 70
    64
 62
     7
  6
CONTINUOUS
  0
LAYER
  2
19
 70
    64
 62
     7
  6
CONTINUOUS
  0
LAYER
  2
DEFPOINTS
 70
    64
 62
     7
  6
CONTINUOUS
  0
LAYER
  2
1
 70
    64
 62
     7
  6
CONTINUOUS
  0
LAYER
  2
10
 70
    64
 62
     7
  6
CONTINUOUS
  0
LAYER
  2
28
 70
    64
 62
     7
  6
CONTINUOUS
  0
LAYER
  2
27
 70
    64
 62
     7
  6
CONTINUOUS
  0
ENDTAB
  0
TABLE
  2
STYLE
 70
     4
  0
STYLE
  2
STANDARD
 70
     0
 40
0.0
 41
1.0
 50
0.0
 71
     0
 42
0.0
  3
txt
  4

  0
STYLE
  2
ROMANS
 70
     0
 40
0.2
 41
1.0
 50
0.0
 71
     0
 42
0.2
  3
ROMANS
  4

  0
STYLE
  2
ROMANC
 70
     0
 40
0.2
 41
1.0
 50
0.0
 71
     0
 42
0.2
  3
ROMANC
  4

  0
STYLE
  2
txt
 70
     0
 40
0.2
 41
1.0
 50
0.0
 71
     0
 42
0.2
  3
TXT
  4

  0
ENDTAB
  0
TABLE
  2
VIEW
 70
     0
  0
ENDTAB
  0
TABLE
  2
UCS
 70
     0
  0
ENDTAB
  0
TABLE
  2
APPID
 70
     1
  0
APPID
  2
ACAD
 70
     0
  0
ENDTAB
  0
TABLE
  2
DIMSTYLE
 70
     2
  0
DIMSTYLE
  2
STANDARD
 70
     0
  3

  4

  5

  6

  7

 40
1.0
 41
0.18
 42
0.0625
 43
0.38
 44
0.18
 45
0.0
 46
0.0
 47
0.0
 48
0.0
140
0.18
141
0.09
142
0.0
143
25.4
144
1.0
145
0.0
146
1.0
147
0.09
 71
     0
 72
     0
 73
     1
 74
     1
 75
     0
 76
     0
 77
     0
 78
     0
170
     0
171
     2
172
     0
173
     0
174
     0
175
     0
176
     0
177
     0
178
     0
  0
DIMSTYLE
  2
MSADIM
 70
     0
  3

  4

  5

  6

  7

 40
1.0
 41
8.0
 42
4.0
 43
0.0
 44
4.0
 45
0.0
 46
0.0
 47
0.0
 48
0.0
140
8.0
141
4.0
142
0.0
143
25.4
144
1.0
145
4.0
146
1.0
147
4.0
 71
     0
 72
     0
 73
     1
 74
     1
 75
     1
 76
     1
 77
     0
 78
     2
170
     0
171
     2
172
     0
173
     0
174
     0
175
     0
176
     0
177
     0
178
     0
  0
ENDTAB
  0
ENDSEC
  0
SECTION
  2
BLOCKS
  0
BLOCK
  8
11
  6
CONTINUOUS
 62
     7
  5
73
  2
*D0
 70
     1
 10
0.0
 20
0.0
 30
0.0
  3
*N0
  0
TEXT
  8
11
  6
CONTINUOUS
 62
     7
  5
74
 10
979338.783
 20
7292985.105
 30
0.0
 40
8.0
  1
N42%%d17'55"W
 50
312.298489
  7
ROMANS
 72
     1
 11
979373.547363
 21
7292958.784636
 31
0.0
210
0.0
220
0.0
230
1.0
 73
     3
  0
TEXT
  8
11
  6
CONTINUOUS
 62
     7
  5
75
 10
979362.416
 20
7292982.906
 30
0.0
 40
8.0
  1
220.84'
 50
312.298489
  7
ROMANS
 72
     1
 11
979379.464932
 21
7292964.168476
 31
0.0
210
0.0
220
0.0
230
1.0
  0
ENDBLK
  8
11
  6
CONTINUOUS
 62
     7
  5
76
  0
BLOCK
  8
11
  6
CONTINUOUS
 62
     7
  5
79
  2
*D1
 70
     1
 10
0.0
 20
0.0
 30
0.0
  3
*N1
  0
TEXT
  8
11
  6
CONTINUOUS
 62
     7
  5
7A
 10
979454.805
 20
7293079.465
 30
0.0
 40
8.0
  1
N41%%d56'17"W
 50
311.938006
  7
ROMANS
 72
     1
 11
979489.403078
 21
7293052.926434
 31
0.0
210
0.0
220
0.0
230
1.0
 73
     3
  0
TEXT
  8
11
  6
CONTINUOUS
 62
     7
  5
7B
 10
979478.423
 20
7293077.118
 30
0.0
 40
8.0
  1
213.95'
 50
311.938006
  7
ROMANS
 72
     1
 11
979495.353706
 21
7293058.273582
 31
0.0
210
0.0
220
0.0
230
1.0
  0
ENDBLK
  8
11
  6
CONTINUOUS
 62
     7
  5
7C
  0
BLOCK
  8
11
  6
CONTINUOUS
 62
     7
  5
8E
  2
*D2
 70
     1
 10
0.0
 20
0.0
 30
0.0
  3
*N2
  0
TEXT
  8
11
  6
CONTINUOUS
 62
     7
  5
8F
 10
977312.34
 20
7290952.703
 30
0.0
 40
8.0
  1
S48%%d03'43"W
 50
41.937936
  7
ROMANS
 72
     1
 11
977338.878608
 21
7290987.301046
 31
0.0
210
0.0
220
0.0
230
1.0
 73
     3
  0
TEXT
  8
11
  6
CONTINUOUS
 62
     7
  5
90
 10
977311.712
 20
7290973.648
 30
0.0
 40
8.0
  1
6749.70'
 50
41.937936
  7
ROMANS
 72
     1
 11
977333.531915
 21
7290993.251984
 31
0.0
210
0.0
220
0.0
230
1.0
  0
ENDBLK
  8
11
  6
CONTINUOUS
 62
     7
  5
91
  0
BLOCK
  8
11
  6
CONTINUOUS
 62
     7
  5
94
  2
*D3
 70
     1
 10
0.0
 20
0.0
 30
0.0
  3
*N3
  0
TEXT
  8
11
  6
CONTINUOUS
 62
     7
  5
95
 10
977482.784
 20
7290729.429
 30
0.0
 40
8.0
  1
S48%%d03'43"W
 50
41.93795
  7
ROMANS
 72
     1
 11
977509.322599
 21
7290764.027053
 31
0.0
210
0.0
220
0.0
230
1.0
 73
     3
  0
TEXT
  8
11
  6
CONTINUOUS
 62
     7
  5
96
 10
977482.156
 20
7290750.374
 30
0.0
 40
8.0
  1
6263.09'
 50
41.93795
  7
ROMANS
 72
     1
 11
977503.975911
 21
7290769.977989
 31
0.0
210
0.0
220
0.0
230
1.0
  0
ENDBLK
  8
11
  6
CONTINUOUS
 62
     7
  5
97
  0
ENDSEC
  0
SECTION
  2
ENTITIES
  0
LINE
  8
6
  6
CONTINUOUS
 62
     7
  5
29
 10
975926.43
 20
7293613.88
 30
0.0
 11
974378.689
 21
7292957.202
 31
0.0
  0
LINE
  8
6
  6
CONTINUOUS
 62
     7
  5
2A
 10
976166.358
 20
7293607.047
 30
0.0
 11
974375.558
 21
7292847.245
 31
0.0
  0
LINE
  8
6
  6
CONTINUOUS
 62
     7
  5
2B
 10
979653.384
 20
7292695.725
 30
0.0
 11
974994.462
 21
7288509.94
 31
0.0
  0
LINE
  8
6
  6
CONTINUOUS
 62
     7
  5
2C
 10
975141.689
 20
7288354.083
 30
0.0
 11
974994.462
 21
7288509.94
 31
0.0
  0
LINE
  8
6
  6
CONTINUOUS
 62
     7
  5
2D
 10
979673.628
 20
7293406.758
 30
0.0
 11
979086.104
 21
7293423.486
 31
0.0
  0
LINE
  8
6
  6
CONTINUOUS
 62
     7
  5
2E
 10
979445.644
 20
7292885.491
 30
0.0
 11
979297.023
 21
7293048.832
 31
0.0
  0
LINE
  8
6
  6
CONTINUOUS
 62
     7
  5
2F
 10
979556.072
 20
7292984.707
 30
0.0
 11
979413.086
 21
7293143.855
 31
0.0
  0
ARC
  8
6
  6
CONTINUOUS
 62
     7
  5
30
 10
978469.099496
 20
7292371.009524
 30
0.0
 40
1070.0
 50
39.307314
 51
88.3691
210
0.0
220
0.0
230
1.0
  0
ARC
  8
6
  6
CONTINUOUS
 62
     7
  5
31
 10
978469.099496
 20
7292371.009524
 30
0.0
 40
1220.0
 50
39.307314
 51
59.619428
210
0.0
220
0.0
230
1.0
  0
LINE
  8
6
  6
CONTINUOUS
 62
     7
  5
32
 10
979664.382
 20
7293082.017
 30
0.0
 11
979556.072
 21
7292984.707
 31
0.0
  0
LINE
  8
6
  6
CONTINUOUS
 62
     7
  5
33
 10
979445.644
 20
7292885.491
 30
0.0
 11
974424.75
 21
7288374.496
 31
0.0
  0
LINE
  8
6
  6
CONTINUOUS
 62
     7
  5
34
 10
974395.768
 20
7293557.03
 30
0.0
 11
975704.607
 21
7293519.764
 31
0.0
  0
LINE
  8
6
  6
CONTINUOUS
 62
     7
  5
35
 10
975944.536
 20
7293512.933
 30
0.0
 11
978499.541
 21
7293440.186
 31
0.0
  0
TEXT
  8
11
  6
CONTINUOUS
 62
     7
  5
38
 10
974322.208
 20
7288380.417
 30
0.0
 40
8.0
  1
1
 50
358.3691
  7
ROMANS
 72
     1
 11
974323.54046
 21
7288380.379062
 31
0.0
210
0.0
220
0.0
230
1.0
  0
TEXT
  8
11
  6
CONTINUOUS
 62
     7
  5
39
 10
974329.198
 20
7288380.218
 30
0.0
 40
8.0
  1
8
 50
358.3691
  7
ROMANS
 72
     1
 11
974331.530055
 21
7288380.151601
 31
0.0
210
0.0
220
0.0
230
1.0
  0
TEXT
  8
11
  6
CONTINUOUS
 62
     7
  5
3A
 10
974337.194
 20
7288379.99
 30
0.0
 40
8.0
  1
5
 50
358.3691
  7
ROMANS
 72
     1
 11
974339.53705
 21
7288379.923288
 31
0.0
210
0.0
220
0.0
230
1.0
  0
TEXT
  8
11
  6
CONTINUOUS
 62
     7
  5
3B
 10
974346.199
 20
7288379.734
 30
0.0
 40
8.0
  1
.
 50
358.3691
  7
ROMANS
 72
     1
 11
974347.520464
 21
7288379.696375
 31
0.0
210
0.0
220
0.0
230
1.0
  0
TEXT
  8
11
  6
CONTINUOUS
 62
     7
  5
3C
 10
974353.188
 20
7288379.534
 30
0.0
 40
8.0
  1
5
 50
358.3691
  7
ROMANS
 72
     1
 11
974355.53105
 21
7288379.467288
 31
0.0
210
0.0
220
0.0
230
1.0
  0
TEXT
  8
11
  6
CONTINUOUS
 62
     7
  5
3D
 10
974362.192
 20
7288379.278
 30
0.0
 40
8.0
  1
'
 50
358.3691
  7
ROMANS
 72
     1
 11
974363.52446
 21
7288379.240062
 31
0.0
210
0.0
220
0.0
230
1.0
  0
TEXT
  8
11
  6
CONTINUOUS
 62
     7
  5
3E
 10
975064.567
 20
7288440.095
 30
0.0
 40
8.0
  1
2
 50
313.3691
  7
ROMANS
 72
     1
 11
975066.169061
 21
7288438.399037
 31
0.0
210
0.0
220
0.0
230
1.0
  0
TEXT
  8
11
  6
CONTINUOUS
 62
     7
  5
3F
 10
975070.752
 20
7288433.548
 30
0.0
 40
8.0
  1
1
 50
313.3691
  7
ROMANS
 72
     1
 11
975071.667365
 21
7288432.578982
 31
0.0
210
0.0
220
0.0
230
1.0
  0
TEXT
  8
11
  6
CONTINUOUS
 62
     7
  5
40
 10
975075.553
 20
7288428.464
 30
0.0
 40
8.0
  1
4
 50
313.3691
  7
ROMANS
 72
     1
 11
975077.155061
 21
7288426.768037
 31
0.0
210
0.0
220
0.0
230
1.0
  0
TEXT
  8
11
  6
CONTINUOUS
 62
     7
  5
41
 10
975081.738
 20
7288421.917
 30
0.0
 40
8.0
  1
.
 50
313.3691
  7
ROMANS
 72
     1
 11
975082.645812
 21
7288420.955979
 31
0.0
210
0.0
220
0.0
230
1.0
  0
TEXT
  8
11
  6
CONTINUOUS
 62
     7
  5
42
 10
975086.541
 20
7288416.832
 30
0.0
 40
8.0
  1
4
 50
313.3691
  7
ROMANS
 72
     1
 11
975088.143061
 21
7288415.136037
 31
0.0
210
0.0
220
0.0
230
1.0
  0
TEXT
  8
11
  6
CONTINUOUS
 62
     7
  5
43
 10
975092.726
 20
7288410.286
 30
0.0
 40
8.0
  1
'
 50
313.3691
  7
ROMANS
 72
     1
 11
975093.641365
 21
7288409.316982
 31
0.0
210
0.0
220
0.0
230
1.0
  0
TEXT
  8
11
  6
CONTINUOUS
 62
     7
  5
44
 10
974984.383
 20
7293529.657
 30
0.0
 40
8.0
  1
1
 50
358.3691
  7
ROMANS
 72
     1
 11
974985.943146
 21
7293537.615821
 31
0.0
210
0.0
220
0.0
230
1.0
 73
     3
  0
TEXT
  8
11
  6
CONTINUOUS
 62
     7
  5
45
 10
974991.372
 20
7293529.457
 30
0.0
 40
8.0
  1
3
 50
358.3691
  7
ROMANS
 72
     1
 11
974993.931741
 21
7293537.38736
 31
0.0
210
0.0
220
0.0
230
1.0
 73
     3
  0
TEXT
  8
11
  6
CONTINUOUS
 62
     7
  5
46
 10
974999.369
 20
7293529.23
 30
0.0
 40
8.0
  1
7
 50
358.3691
  7
ROMANS
 72
     1
 11
975001.928741
 21
7293537.16036
 31
0.0
210
0.0
220
0.0
230
1.0
 73
     3
  0
TEXT
  8
11
  6
CONTINUOUS
 62
     7
  5
47
 10
975007.051
 20
7293529.011
 30
0.0
 40
8.0
  1
0
 50
358.3691
  7
ROMANS
 72
     1
 11
975009.928612
 21
7293536.93231
 31
0.0
210
0.0
220
0.0
230
1.0
 73
     3
  0
TEXT
  8
11
  6
CONTINUOUS
 62
     7
  5
48
 10
975016.37
 20
7293528.746
 30
0.0
 40
8.0
  1
.
 50
358.3691
  7
ROMANS
 72
     1
 11
975017.91915
 21
7293536.705134
 31
0.0
210
0.0
220
0.0
230
1.0
 73
     3
  0
TEXT
  8
11
  6
CONTINUOUS
 62
     7
  5
49
 10
975023.359
 20
7293528.547
 30
0.0
 40
8.0
  1
2
 50
358.3691
  7
ROMANS
 72
     1
 11
975025.918741
 21
7293536.47736
 31
0.0
210
0.0
220
0.0
230
1.0
 73
     3
  0
TEXT
  8
11
  6
CONTINUOUS
 62
     7
  5
4A
 10
975031.167
 20
7293528.324
 30
0.0
 40
8.0
  1
6
 50
358.3691
  7
ROMANS
 72
     1
 11
975033.913665
 21
7293536.249038
 31
0.0
210
0.0
220
0.0
230
1.0
 73
     3
  0
TEXT
  8
11
  6
CONTINUOUS
 62
     7
  5
4B
 10
975040.36
 20
7293528.063
 30
0.0
 40
8.0
  1
'
 50
358.3691
  7
ROMANS
 72
     1
 11
975041.920146
 21
7293536.021821
 31
0.0
210
0.0
220
0.0
230
1.0
 73
     3
  0
TEXT
  8
11
  6
CONTINUOUS
 62
     7
  5
4C
 10
974397.648
 20
7293236.584
 30
0.0
 40
8.0
  1
5
 50
88.3691
  7
ROMANS
 72
     1
 11
974389.717953
 21
7293239.154736
 31
0.0
210
0.0
220
0.0
230
1.0
 73
     3
  0
TEXT
  8
11
  6
CONTINUOUS
 62
     7
  5
4D
 10
974397.876
 20
7293244.581
 30
0.0
 40
8.0
  1
9
 50
88.3691
  7
ROMANS
 72
     1
 11
974389.94564
 21
7293247.140741
 31
0.0
210
0.0
220
0.0
230
1.0
 73
     3
  0
TEXT
  8
11
  6
CONTINUOUS
 62
     7
  5
4E
 10
974398.103
 20
7293252.578
 30
0.0
 40
8.0
  1
5
 50
88.3691
  7
ROMANS
 72
     1
 11
974390.172953
 21
7293255.148736
 31
0.0
210
0.0
220
0.0
230
1.0
 73
     3
  0
TEXT
  8
11
  6
CONTINUOUS
 62
     7
  5
4F
 10
974398.36
 20
7293261.582
 30
0.0
 40
8.0
  1
.
 50
88.3691
  7
ROMANS
 72
     1
 11
974390.400866
 21
7293263.13115
 31
0.0
210
0.0
220
0.0
230
1.0
 73
     3
  0
TEXT
  8
11
  6
CONTINUOUS
 62
     7
  5
50
 10
974398.559
 20
7293268.571
 30
0.0
 40
8.0
  1
8
 50
88.3691
  7
ROMANS
 72
     1
 11
974390.62864
 21
7293271.130741
 31
0.0
210
0.0
220
0.0
230
1.0
 73
     3
  0
TEXT
  8
11
  6
CONTINUOUS
 62
     7
  5
51
 10
974398.815
 20
7293277.577
 30
0.0
 40
8.0
  1
'
 50
88.3691
  7
ROMANS
 72
     1
 11
974390.856179
 21
7293279.137146
 31
0.0
210
0.0
220
0.0
230
1.0
 73
     3
  0
TEXT
  8
19
  6
CONTINUOUS
 62
     1
  5
54
 10
978374.396
 20
7291719.111
 30
0.0
 40
24.0
  1
 
 50
41.93795
  7
ROMANC
 72
     1
 11
978380.346952
 21
7291724.457603
 31
0.0
210
0.0
220
0.0
230
1.0
  0
TEXT
  8
19
  6
CONTINUOUS
 62
     1
  5
55
 10
974897.355
 20
7293594.258
 30
0.0
 40
24.0
  1
F.M.  2641
 50
358.3691
  7
ROMANC
 72
     4
 11
974993.087871
 21
7293603.537131
 31
0.0
210
0.0
220
0.0
230
1.0
  0
TEXT
  8
19
  6
CONTINUOUS
 62
     1
  5
56
 10
976792.499
 20
7293540.3
 30
0.0
 40
24.0
  1
F.M.  2641
 50
358.3691
  7
ROMANC
 72
     4
 11
976888.231871
 21
7293549.579131
 31
0.0
210
0.0
220
0.0
230
1.0
  0
TEXT
  8
19
  6
CONTINUOUS
 62
     1
  5
57
 10
979164.789
 20
7293465.619
 30
0.0
 40
24.0
  1
F.M.  2641
 50
358.3691
  7
ROMANC
 72
     4
 11
979260.521871
 21
7293474.898131
 31
0.0
210
0.0
220
0.0
230
1.0
  0
TEXT
  8
11
  6
CONTINUOUS
 62
     7
  5
58
 10
978704.189
 20
7293218.724
 30
0.0
 40
8.0
  1
R.O.W. FOR F.M. 2641 MIGHT NOT BE CORRECT
 50
358.3691
  7
ROMANS
210
0.0
220
0.0
230
1.0
  0
TEXT
  8
11
  6
CONTINUOUS
 62
     7
  5
59
 10
976835.696
 20
7293457.446
 30
0.0
 40
8.0
  1
R.O.W. FOR F.M. 2641 MIGHT NOT BE CORRECT
 50
358.3691
  7
ROMANS
210
0.0
220
0.0
230
1.0
  0
TEXT
  8
11
  6
CONTINUOUS
 62
     7
  5
5A
 10
975021.896
 20
7288744.945
 30
0.0
 40
8.0
  1
280'
 50
315.194658
  7
ROMANS
210
0.0
220
0.0
230
1.0
  0
TEXT
  8
11
  6
CONTINUOUS
 62
     7
  5
5B
 10
976351.374
 20
7289942.907
 30
0.0
 40
8.0
  1
280'
 50
315.194658
  7
ROMANS
210
0.0
220
0.0
230
1.0
  0
TEXT
  8
11
  6
CONTINUOUS
 62
     7
  5
5C
 10
978378.527
 20
7291755.91
 30
0.0
 40
8.0
  1
280'
 50
315.194658
  7
ROMANS
210
0.0
220
0.0
230
1.0
  0
TEXT
  8
11
  6
CONTINUOUS
 62
     7
  5
5D
 10
979391.873
 20
7292677.623
 30
0.0
 40
8.0
  1
280'
 50
315.194658
  7
ROMANS
210
0.0
220
0.0
230
1.0
  0
TEXT
  8
11
  6
CONTINUOUS
 62
     7
  5
5E
 10
975863.54
 20
7293544.319
 30
0.0
 40
8.0
  1
100'
 50
294.007156
  7
ROMANS
 72
     4
 11
975872.618519
 21
7293533.766779
 31
0.0
210
0.0
220
0.0
230
1.0
  0
TEXT
  8
11
  6
CONTINUOUS
 62
     7
  5
5F
 10
975190.329
 20
7293258.123
 30
0.0
 40
8.0
  1
100'
 50
294.007156
  7
ROMANS
 72
     4
 11
975199.407519
 21
7293247.570779
 31
0.0
210
0.0
220
0.0
230
1.0
  0
TEXT
  8
11
  6
CONTINUOUS
 62
     7
  5
60
 10
974466.642
 20
7292952.74
 30
0.0
 40
8.0
  1
100'
 50
294.007156
  7
ROMANS
 72
     4
 11
974475.720519
 21
7292942.187779
 31
0.0
210
0.0
220
0.0
230
1.0
  0
TEXT
  8
11
  6
CONTINUOUS
 62
     7
  5
61
 10
976990.857
 20
7293486.143
 30
0.0
 40
8.0
  1
2556.04'
 50
358.3691
  7
ROMANS
 72
     1
 11
977020.178118
 21
7293485.308161
 31
0.0
210
0.0
220
0.0
230
1.0
  0
TEXT
  8
11
  6
CONTINUOUS
 62
     7
  5
62
 10
978895.056
 20
7293355.753
 30
0.0
 40
8.0
  1
R
 50
336.649333
  7
ROMANS
 72
     1
 11
978897.369603
 21
7293354.754179
 31
0.0
210
0.0
220
0.0
230
1.0
  0
TEXT
  8
11
  6
CONTINUOUS
 62
     7
  5
63
 10
978902.343
 20
7293352.606
 30
0.0
 40
8.0
  1
=
 50
336.649333
  7
ROMANS
 72
     1
 11
978905.403015
 21
7293351.28494
 31
0.0
210
0.0
220
0.0
230
1.0
  0
TEXT
  8
11
  6
CONTINUOUS
 62
     7
  5
64
 10
978909.66
 20
7293349.353
 30
0.0
 40
8.0
  1
1
 50
335.248058
  7
ROMANS
 72
     1
 11
978910.870536
 21
7293348.794886
 31
0.0
210
0.0
220
0.0
230
1.0
  0
TEXT
  8
11
  6
CONTINUOUS
 62
     7
  5
65
 10
978916.869
 20
7293346.029
 30
0.0
 40
8.0
  1
0
 50
335.248058
  7
ROMANS
 72
     1
 11
978919.27645
 21
7293344.919051
 31
0.0
210
0.0
220
0.0
230
1.0
  0
TEXT
  8
11
  6
CONTINUOUS
 62
     7
  5
66
 10
978924.076
 20
7293342.705
 30
0.0
 40
8.0
  1
7
 50
335.248058
  7
ROMANS
 72
     1
 11
978926.194665
 21
7293341.728195
 31
0.0
210
0.0
220
0.0
230
1.0
  0
TEXT
  8
11
  6
CONTINUOUS
 62
     7
  5
67
 10
978931.338
 20
7293339.326
 30
0.0
 40
8.0
  1
0
 50
333.846783
  7
ROMANS
 72
     1
 11
978933.717587
 21
7293338.157511
 31
0.0
210
0.0
220
0.0
230
1.0
  0
TEXT
  8
11
  6
CONTINUOUS
 62
     7
  5
68
 10
978938.462
 20
7293335.826
 30
0.0
 40
8.0
  1
'
 50
333.846783
  7
ROMANS
 72
     1
 11
978939.659423
 21
7293335.238009
 31
0.0
210
0.0
220
0.0
230
1.0
  0
TEXT
  8
11
  6
CONTINUOUS
 62
     7
  5
69
 10
978888.998
 20
7293343.119
 30
0.0
 40
8.0
  1
8
 50
336.649333
  7
ROMANS
 72
     1
 11
978894.310779
 21
7293349.539068
 31
0.0
210
0.0
220
0.0
230
1.0
 73
     3
  0
TEXT
  8
11
  6
CONTINUOUS
 62
     7
  5
6A
 10
978896.285
 20
7293339.974
 30
0.0
 40
8.0
  1
8
 50
336.649333
  7
ROMANS
 72
     1
 11
978901.597779
 21
7293346.394068
 31
0.0
210
0.0
220
0.0
230
1.0
 73
     3
  0
TEXT
  8
11
  6
CONTINUOUS
 62
     7
  5
6B
 10
978903.296
 20
7293336.87
 30
0.0
 40
8.0
  1
8
 50
335.248058
  7
ROMANS
 72
     1
 11
978908.764189
 21
7293343.158227
 31
0.0
210
0.0
220
0.0
230
1.0
 73
     3
  0
TEXT
  8
11
  6
CONTINUOUS
 62
     7
  5
6C
 10
978910.504
 20
7293333.548
 30
0.0
 40
8.0
  1
.
 50
335.248058
  7
ROMANS
 72
     1
 11
978915.054071
 21
7293340.259523
 31
0.0
210
0.0
220
0.0
230
1.0
 73
     3
  0
TEXT
  8
11
  6
CONTINUOUS
 62
     7
  5
6D
 10
978917.712
 20
7293330.224
 30
0.0
 40
8.0
  1
4
 50
335.248058
  7
ROMANS
 72
     1
 11
978923.180189
 21
7293336.512227
 31
0.0
210
0.0
220
0.0
230
1.0
 73
     3
  0
TEXT
  8
11
  6
CONTINUOUS
 62
     7
  5
6E
 10
978924.67
 20
7293327.002
 30
0.0
 40
8.0
  1
9
 50
333.846783
  7
ROMANS
 72
     1
 11
978930.290329
 21
7293333.154625
 31
0.0
210
0.0
220
0.0
230
1.0
 73
     3
  0
TEXT
  8
11
  6
CONTINUOUS
 62
     7
  5
6F
 10
978931.795
 20
7293323.503
 30
0.0
 40
8.0
  1
'
 50
333.846783
  7
ROMANS
 72
     1
 11
978936.518608
 21
7293330.095957
 31
0.0
210
0.0
220
0.0
230
1.0
 73
     3
  0
INSERT
  8
11
  6
CONTINUOUS
 62
     7
  5
77
  2
*D0
 10
979445.644
 20
7292885.491
 30
0.0
 70
     0
 71
     0
  0
INSERT
  8
11
  6
CONTINUOUS
 62
     7
  5
7D
  2
*D1
 10
979556.072
 20
7292984.707
 30
0.0
 70
     0
 71
     0
  0
TEXT
  8
11
  6
CONTINUOUS
 62
     7
  5
7E
 10
979259.372
 20
7293304.284
 30
0.0
 40
8.0
  1
R
 50
319.777133
  7
ROMANS
 72
     1
 11
979261.296117
 21
7293302.656679
 31
0.0
210
0.0
220
0.0
230
1.0
  0
TEXT
  8
11
  6
CONTINUOUS
 62
     7
  5
7F
 10
979265.434
 20
7293299.159
 30
0.0
 40
8.0
  1
=
 50
319.777133
  7
ROMANS
 72
     1
 11
979267.978873
 21
7293297.006674
 31
0.0
210
0.0
220
0.0
230
1.0
  0
TEXT
  8
11
  6
CONTINUOUS
 62
     7
  5
80
 10
979271.506
 20
7293293.944
 30
0.0
 40
8.0
  1
1
 50
318.464828
  7
ROMANS
 72
     1
 11
979272.503816
 21
7293293.060115
 31
0.0
210
0.0
220
0.0
230
1.0
  0
TEXT
  8
11
  6
CONTINUOUS
 62
     7
  5
81
 10
979277.448
 20
7293288.679
 30
0.0
 40
8.0
  1
2
 50
318.464828
  7
ROMANS
 72
     1
 11
979279.194364
 21
7293287.132035
 31
0.0
210
0.0
220
0.0
230
1.0
  0
TEXT
  8
11
  6
CONTINUOUS
 62
     7
  5
82
 10
979283.389
 20
7293283.417
 30
0.0
 40
8.0
  1
2
 50
318.464828
  7
ROMANS
 72
     1
 11
979285.135364
 21
7293281.870035
 31
0.0
210
0.0
220
0.0
230
1.0
  0
TEXT
  8
11
  6
CONTINUOUS
 62
     7
  5
83
 10
979289.404
 20
7293278.132
 30
0.0
 40
8.0
  1
0
 50
317.152522
  7
ROMANS
 72
     1
 11
979291.347625
 21
7293276.32919
 31
0.0
210
0.0
220
0.0
230
1.0
  0
TEXT
  8
11
  6
CONTINUOUS
 62
     7
  5
84
 10
979295.223
 20
7293272.736
 30
0.0
 40
8.0
  1
'
 50
317.152522
  7
ROMANS
 72
     1
 11
979296.200311
 21
7293271.829495
 31
0.0
210
0.0
220
0.0
230
1.0
  0
TEXT
  8
11
  6
CONTINUOUS
 62
     7
  5
85
 10
979251.522
 20
7293292.588
 30
0.0
 40
8.0
  1
4
 50
319.777133
  7
ROMANS
 72
     1
 11
979258.469435
 21
7293297.189743
 31
0.0
210
0.0
220
0.0
230
1.0
 73
     3
  0
TEXT
  8
11
  6
CONTINUOUS
 62
     7
  5
86
 10
979257.582
 20
7293287.463
 30
0.0
 40
8.0
  1
3
 50
319.777133
  7
ROMANS
 72
     1
 11
979264.529435
 21
7293292.064743
 31
0.0
210
0.0
220
0.0
230
1.0
 73
     3
  0
TEXT
  8
11
  6
CONTINUOUS
 62
     7
  5
87
 10
979263.388
 20
7293282.43
 30
0.0
 40
8.0
  1
0
 50
318.464828
  7
ROMANS
 72
     1
 11
979270.67704
 21
7293286.660566
 31
0.0
210
0.0
220
0.0
230
1.0
 73
     3
  0
TEXT
  8
11
  6
CONTINUOUS
 62
     7
  5
88
 10
979269.33
 20
7293277.167
 30
0.0
 40
8.0
  1
.
 50
318.464828
  7
ROMANS
 72
     1
 11
979275.624219
 21
7293282.278799
 31
0.0
210
0.0
220
0.0
230
1.0
 73
     3
  0
TEXT
  8
11
  6
CONTINUOUS
 62
     7
  5
89
 10
979275.271
 20
7293271.904
 30
0.0
 40
8.0
  1
2
 50
318.464828
  7
ROMANS
 72
     1
 11
979282.322002
 21
7293276.345426
 31
0.0
210
0.0
220
0.0
230
1.0
 73
     3
  0
TEXT
  8
11
  6
CONTINUOUS
 62
     7
  5
8A
 10
979281.025
 20
7293266.811
 30
0.0
 40
8.0
  1
4
 50
317.152522
  7
ROMANS
 72
     1
 11
979288.17587
 21
7293271.089778
 31
0.0
210
0.0
220
0.0
230
1.0
 73
     3
  0
TEXT
  8
11
  6
CONTINUOUS
 62
     7
  5
8B
 10
979286.844
 20
7293261.412
 30
0.0
 40
8.0
  1
'
 50
317.152522
  7
ROMANS
 72
     1
 11
979293.261704
 21
7293266.370827
 31
0.0
210
0.0
220
0.0
230
1.0
 73
     3
  0
TEXT
  8
11
  6
CONTINUOUS
 62
     7
  5
8C
 10
979404.516
 20
7293417.421
 30
0.0
 40
8.0
  1
587.76'
 50
358.3691
  7
ROMANS
 72
     1
 11
979429.838738
 21
7293416.700004
 31
0.0
210
0.0
220
0.0
230
1.0
  0
INSERT
  8
11
  6
CONTINUOUS
 62
     7
  5
92
  2
*D2
 10
979445.644
 20
7292885.491
 30
0.0
 70
     0
 71
     0
  0
INSERT
  8
11
  6
CONTINUOUS
 62
     7
  5
98
  2
*D3
 10
979653.384
 20
7292695.725
 30
0.0
 70
     0
 71
     0
  0
TEXT
  8
11
  6
CONTINUOUS
 62
     7
  5
99
 10
979673.322
 20
7293009.371
 30
0.0
 40
8.0
  1
811.71'
 50
88.3691
  7
ROMANS
 72
     4
 11
979670.044616
 21
7293034.807581
 31
0.0
210
0.0
220
0.0
230
1.0
  0
POLYLINE
  8
1
  6
HIDDEN
 62
   253
  5
9B
 66
     1
 10
0.0
 20
0.0
 30
0.0
  0
VERTEX
  8
1
  6
HIDDEN
 62
   253
  5
9C
 10
979526.213
 20
7288229.246
 30
0.0
  0
VERTEX
  8
1
  6
HIDDEN
 62
   253
  5
9D
 10
974248.352
 20
7288379.518
 30
0.0
  0
VERTEX
  8
1
  6
HIDDEN
 62
   253
  5
9E
 10
974398.625
 20
7293657.379
 30
0.0
  0
VERTEX
  8
1
  6
HIDDEN
 62
   253
  5
9F
 10
979676.486
 20
7293507.106
 30
0.0
  0
SEQEND
  8
1
  6
HIDDEN
 62
   253
  5
A0
  0
LINE
  8
1
  6
HIDDEN
 62
   253
  5
A1
 10
979676.486
 20
7293507.106
 30
0.0
 11
979526.213
 21
7288229.246
 31
0.0
  0
TEXT
  8
19
  6
CONTINUOUS
 62
     1
  5
A2
 10
974292.916
 20
7288816.267
 30
0.0
 40
24.0
  1
WOOD AVE
 50
88.3691
  7
ROMANC
 72
     4
 11
974283.975608
 21
7288923.89705
 31
0.0
210
0.0
220
0.0
230
1.0
  0
TEXT
  8
19
  6
CONTINUOUS
 62
     1
  5
A3
 10
974352.572
 20
7290911.512
 30
0.0
 40
24.0
  1
WOOD AVE
 50
88.3691
  7
ROMANC
 72
     4
 11
974343.631608
 21
7291019.14205
 31
0.0
210
0.0
220
0.0
230
1.0
  0
TEXT
  8
19
  6
CONTINUOUS
 62
     1
  5
A4
 10
974416.692
 20
7293163.482
 30
0.0
 40
24.0
  1
WOOD AVE
 50
88.3691
  7
ROMANC
 72
     4
 11
974407.751608
 21
7293271.11205
 31
0.0
210
0.0
220
0.0
230
1.0
  0
TEXT
  8
19
  6
CONTINUOUS
 62
     1
  5
A5
 10
979526.685
 20
7288526.211
 30
0.0
 40
24.0
  1
FIDDLEWOOD AVE
 50
88.3691
  7
ROMANC
 72
     4
 11
979519.84205
 21
7288707.507196
 31
0.0
210
0.0
220
0.0
230
1.0
  0
TEXT
  8
19
  6
CONTINUOUS
 62
     1
  5
A6
 10
979623.914
 20
7291941.079
 30
0.0
 40
24.0
  1
FIDDLEWOOD AVE
 50
88.3691
  7
ROMANC
 72
     4
 11
979617.07105
 21
7292122.375196
 31
0.0
210
0.0
220
0.0
230
1.0
  0
TEXT
  8
19
  6
CONTINUOUS
 62
     1
  5
A7
 10
974671.709
 20
7288382.273
 30
0.0
 40
24.0
  1
URSULINE ST
 50
358.3691
  7
ROMANC
 72
     4
 11
974809.749726
 21
7288390.347531
 31
0.0
210
0.0
220
0.0
230
1.0
  0
TEXT
  8
19
  6
CONTINUOUS
 62
     1
  5
A8
 10
976869.486
 20
7288319.696
 30
0.0
 40
24.0
  1
URSULINE ST
 50
358.3691
  7
ROMANC
 72
     4
 11
977007.526726
 21
7288327.770531
 31
0.0
210
0.0
220
0.0
230
1.0
  0
TEXT
  8
19
  6
CONTINUOUS
 62
     1
  5
A9
 10
979086.553
 20
7288256.572
 30
0.0
 40
24.0
  1
URSULINE ST
 50
358.3691
  7
ROMANC
 72
     4
 11
979224.593726
 21
7288264.646531
 31
0.0
210
0.0
220
0.0
230
1.0
  0
TEXT
  8
19
  6
CONTINUOUS
 62
     1
  5
AA
 10
975099.108
 20
7288763.617
 30
0.0
 40
24.0
  1
U.S. 62 & 82 (IDALOU HWY)
 50
43.3691
  7
ROMANC
 72
     4
 11
975301.042025
 21
7288970.877763
 31
0.0
210
0.0
220
0.0
230
1.0
  0
TEXT
  8
19
  6
CONTINUOUS
 62
     1
  5
AB
 10
976933.662
 20
7290395.896
 30
0.0
 40
24.0
  1
U.S. 62 & 82 (IDALOU HWY)
 50
43.3691
  7
ROMANC
 72
     4
 11
977135.596025
 21
7290603.156763
 31
0.0
210
0.0
220
0.0
230
1.0
  0
TEXT
  8
19
  6
CONTINUOUS
 62
     1
  5
AC
 10
978960.355
 20
7292222.193
 30
0.0
 40
24.0
  1
U.S. 62 & 82 (IDALOU HWY)
 50
43.3691
  7
ROMANC
 72
     4
 11
979162.289025
 21
7292429.453763
 31
0.0
210
0.0
220
0.0
230
1.0
  0
TEXT
  8
10
  6
CONTINUOUS
 62
   134
  5
AE
 10
974658.697
 20
7293344.796
 30
0.0
 40
13.999
  1
UNSUBDIVIDED
 50
358.3691
  7
ROMANS
 11
974659.095422
 21
7293358.789329
 31
0.0
210
0.0
220
0.0
230
1.0
 73
     3
  0
TEXT
  8
28
  6
CONTINUOUS
 62
    32
  5
B1
 10
974640.368
 20
7293018.462
 30
0.0
 40
24.0
  1
PANHANDLE & SANTA FE RR
 50
22.986261
  7
txt
 72
     4
 11
974880.008723
 21
7293133.15064
 31
0.0
210
0.0
220
0.0
230
1.0
  0
TEXT
  8
11
  6
CONTINUOUS
 62
     7
  5
B2
 10
975151.737
 20
7293289.537
 30
0.0
 40
8.0
  1
1681.29'
 50
22.990619
  7
ROMANS
 72
     1
 11
975178.740045
 21
7293300.993895
 31
0.0
210
0.0
220
0.0
230
1.0
  0
TEXT
  8
11
  6
CONTINUOUS
 62
     7
  5
B3
 10
975192.316
 20
7293198.125
 30
0.0
 40
8.0
  1
1945.32'
 50
22.990578
  7
ROMANS
 72
     1
 11
975219.319053
 21
7293209.581876
 31
0.0
210
0.0
220
0.0
230
1.0
  0
TEXT
  8
10
  6
CONTINUOUS
 62
   134
  5
B4
 10
976319.759
 20
7292082.253
 30
0.0
 40
13.999
  1
UNSUBDIVIDED
 50
358.3691
  7
ROMANS
 11
976320.157422
 21
7292096.246329
 31
0.0
210
0.0
220
0.0
230
1.0
 73
     3
  0
TEXT
  8
10
  6
CONTINUOUS
 62
   134
  5
B5
 10
977810.454
 20
7289621.709
 30
0.0
 40
13.999
  1
UNSUBDIVIDED
 50
358.3691
  7
ROMANS
 11
977810.852422
 21
7289635.702329
 31
0.0
210
0.0
220
0.0
230
1.0
 73
     3
  0
TEXT
  8
10
  6
CONTINUOUS
 62
   134
  5
B6
 10
979437.591
 20
7293258.333
 30
0.0
 40
13.999
  1
UNSUBDIVIDED
 50
358.3691
  7
ROMANS
 11
979437.989422
 21
7293272.326329
 31
0.0
210
0.0
220
0.0
230
1.0
 73
     3
  0
LINE
  8
27
  6
CONTINUOUS
 62
    32
  5
B8
 10
976046.394
 20
7293610.464
 30
0.0
 11
974377.123
 21
7292902.224
 31
0.0
  0
TEXT
  8
11
  6
CONTINUOUS
 62
     7
  5
B9
 10
978392.248
 20
7291735.15
 30
0.0
 40
24.0
  1
 
 50
41.93795
  7
ROMANC
 72
     1
 11
978398.198952
 21
7291740.496603
 31
0.0
210
0.0
220
0.0
230
1.0
  0
ENDSEC
  0
EOF
