  0
SECTION
  2
HEADER
  9
$ACADVER
  1
AC1009
  9
$INSBASE
 10
0.0
 20
0.0
 30
0.0
  9
$EXTMIN
 10
964059.73
 20
7304359.418
 30
0.0
  9
$EXTMAX
 10
969496.563
 20
7309795.83
 30
0.0
  9
$LIMMIN
 10
0.0
 20
0.0
  9
$LIMMAX
 10
12.0
 20
9.0
  9
$ORTHOMODE
 70
     0
  9
$REGENMODE
 70
     1
  9
$FILLMODE
 70
     1
  9
$QTEXTMODE
 70
     0
  9
$MIRRTEXT
 70
     1
  9
$DRAGMODE
 70
     2
  9
$LTSCALE
 40
1.0
  9
$OSMODE
 70
     0
  9
$ATTMODE
 70
     1
  9
$TEXTSIZE
 40
0.2
  9
$TRACEWID
 40
0.05
  9
$TEXTSTYLE
  7
STANDARD
  9
$CLAYER
  8
0
  9
$CELTYPE
  6
CONTINUOUS
  9
$CECOLOR
 62
   256
  9
$DIMSCALE
 40
1.0
  9
$DIMASZ
 40
0.18
  9
$DIMEXO
 40
0.0625
  9
$DIMDLI
 40
0.38
  9
$DIMRND
 40
0.0
  9
$DIMDLE
 40
0.0
  9
$DIMEXE
 40
0.18
  9
$DIMTP
 40
0.0
  9
$DIMTM
 40
0.0
  9
$DIMTXT
 40
0.18
  9
$DIMCEN
 40
0.09
  9
$DIMTSZ
 40
0.0
  9
$DIMTOL
 70
     0
  9
$DIMLIM
 70
     0
  9
$DIMTIH
 70
     1
  9
$DIMTOH
 70
     1
  9
$DIMSE1
 70
     0
  9
$DIMSE2
 70
     0
  9
$DIMTAD
 70
     0
  9
$DIMZIN
 70
     0
  9
$DIMBLK
  1

  9
$DIMASO
 70
     1
  9
$DIMSHO
 70
     1
  9
$DIMPOST
  1

  9
$DIMAPOST
  1

  9
$DIMALT
 70
     0
  9
$DIMALTD
 70
     2
  9
$DIMALTF
 40
25.4
  9
$DIMLFAC
 40
1.0
  9
$DIMTOFL
 70
     0
  9
$DIMTVP
 40
0.0
  9
$DIMTIX
 70
     0
  9
$DIMSOXD
 70
     0
  9
$DIMSAH
 70
     0
  9
$DIMBLK1
  1

  9
$DIMBLK2
  1

  9
$DIMSTYLE
  2
STANDARD
  9
$DIMCLRD
 70
     0
  9
$DIMCLRE
 70
     0
  9
$DIMCLRT
 70
     0
  9
$DIMTFAC
 40
1.0
  9
$DIMGAP
 40
0.09
  9
$LUNITS
 70
     2
  9
$LUPREC
 70
     4
  9
$AXISMODE
 70
     0
  9
$AXISUNIT
 10
0.0
 20
0.0
  9
$SKETCHINC
 40
0.1
  9
$FILLETRAD
 40
0.0
  9
$AUNITS
 70
     0
  9
$AUPREC
 70
     0
  9
$MENU
  1
acad
  9
$ELEVATION
 40
0.0
  9
$PELEVATION
 40
0.0
  9
$THICKNESS
 40
0.0
  9
$LIMCHECK
 70
     0
  9
$BLIPMODE
 70
     1
  9
$CHAMFERA
 40
0.0
  9
$CHAMFERB
 40
0.0
  9
$SKPOLY
 70
     0
  9
$TDCREATE
 40
2453013.904282407
  9
$TDUPDATE
 40
2453013.904282407
  9
$TDINDWG
 40
0.0000000000
  9
$TDUSRTIMER
 40
0.0000000000
  9
$USRTIMER
 70
     1
  9
$ANGBASE
 50
0.0
  9
$ANGDIR
 70
     0
  9
$PDMODE
 70
     0
  9
$PDSIZE
 40
0.0
  9
$PLINEWID
 40
0.0
  9
$COORDS
 70
     0
  9
$SPLFRAME
 70
     0
  9
$SPLINETYPE
 70
     6
  9
$SPLINESEGS
 70
    10
  9
$ATTDIA
 70
     0
  9
$ATTREQ
 70
     1
  9
$HANDLING
 70
     1
  9
$HANDSEED
  5
8F
  9
$SURFTAB1
 70
     6
  9
$SURFTAB2
 70
     6
  9
$SURFTYPE
 70
     6
  9
$SURFU
 70
     6
  9
$SURFV
 70
     6
  9
$UCSNAME
  2

  9
$UCSORG
 10
0.0
 20
0.0
 30
0.0
  9
$UCSXDIR
 10
1.0
 20
0.0
 30
0.0
  9
$UCSYDIR
 10
0.0
 20
1.0
 30
0.0
  9
$PUCSNAME
  2

  9
$PUCSORG
 10
0.0
 20
0.0
 30
0.0
  9
$PUCSXDIR
 10
1.0
 20
0.0
 30
0.0
  9
$PUCSYDIR
 10
0.0
 20
1.0
 30
0.0
  9
$USERI1
 70
     0
  9
$USERI2
 70
     0
  9
$USERI3
 70
     0
  9
$USERI4
 70
     0
  9
$USERI5
 70
     0
  9
$USERR1
 40
0.0
  9
$USERR2
 40
0.0
  9
$USERR3
 40
0.0
  9
$USERR4
 40
0.0
  9
$USERR5
 40
0.0
  9
$WORLDVIEW
 70
     1
  9
$SHADEDGE
 70
     3
  9
$SHADEDIF
 70
    70
  9
$TILEMODE
 70
     1
  9
$MAXACTVP
 70
    16
  9
$PINSBASE
 10
0.0
 20
0.0
 30
0.0
  9
$PLIMCHECK
 70
     0
  9
$PEXTMIN
 10
-1.000000E+20
 20
-1.000000E+20
 30
-1.000000E+20
  9
$PEXTMAX
 10
-1.000000E+20
 20
-1.000000E+20
 30
-1.000000E+20
  9
$PLIMMIN
 10
0.0
 20
0.0
  9
$PLIMMAX
 10
12.0
 20
9.0
  9
$UNITMODE
 70
     0
  9
$VISRETAIN
 70
     0
  9
$PLINEGEN
 70
     1
  9
$PSLTSCALE
 70
     0
  9
$TREEDEPTH
 70
  3020
  9
$DWGCODEPAGE
  3
ansi_1252
  0
ENDSEC
  0
SECTION
  2
TABLES
  0
TABLE
  2
VPORT
 70
     1
  0
VPORT
  2
*ACTIVE
 70
     0
 10
0.0
 20
0.0
 11
1.0
 21
1.0
 12
0.0
 22
0.0
 13
0.0
 23
0.0
 14
0.0
 24
0.0
 15
0.0
 25
0.0
 16
0.0
 26
0.0
 36
1.0
 17
966478.377198
 27
7306945.337769
 37
0.0
 40
5404.355
 41
1.2213
 42
50.0
 43
0.004
 44
0.0
 50
1.681086
 51
0.0
 71
     0
 72
   100
 73
     1
 74
     0
 75
     0
 76
     0
 77
     0
 78
     0
  0
ENDTAB
  0
TABLE
  2
LTYPE
 70
     7
  0
LTYPE
  2
CONTINUOUS
 70
     0
  3
Solid line
 72
    65
 73
     0
 40
0.0
  0
LTYPE
  2
DOT
 70
    64
  3
. . . . . . . . . . . . . . . . . . . . . . . . . . . . . . . . .
 72
    65
 73
     2
 40
0.25
 49
0.0
 49
-0.25
  0
LTYPE
  2
HIDDEN
 70
    64
  3
__ __ __ __ __ __ __ __ __ __ __ __ __ __ __ __ __ __ __ __ __ 
 72
    65
 73
     2
 40
0.375
 49
0.25
 49
-0.125
  0
LTYPE
  2
DASHED
 70
    64
  3
__ __ __ __ __ __ __ __ __ __ __ __ __ __ __ __ __ __ __ __ __
 72
    65
 73
     2
 40
0.75
 49
0.5
 49
-0.25
  0
LTYPE
  2
DASHDOT
 70
    64
  3
__ . __ . __ . __ . __ . __ . __ . __ . __ . __ . __ . __ . _
 72
    65
 73
     4
 40
1.0
 49
0.5
 49
-0.25
 49
0.0
 49
-0.25
  0
LTYPE
  2
DIVIDE
 70
    64
  3
____ . . ____ . . ____ . . ____ . . ____ . . ____ . . ____ . .
 72
    65
 73
     6
 40
1.25
 49
0.5
 49
-0.25
 49
0.0
 49
-0.25
 49
0.0
 49
-0.25
  0
LTYPE
  2
CENTER
 70
    64
  3
____ _ ____ _ ____ _ ____ _ ____ _ ____ _ ____ _ ____ _ ____ _
 72
    65
 73
     4
 40
2.0
 49
1.25
 49
-0.25
 49
0.25
 49
-0.25
  0
ENDTAB
  0
TABLE
  2
LAYER
 70
     9
  0
LAYER
  2
0
 70
    64
 62
     7
  6
CONTINUOUS
  0
LAYER
  2
CONSTRUCTION_CLASS
 70
     1
 62
     7
  6
CONTINUOUS
  0
LAYER
  2
PATTERN_CLASS
 70
     0
 62
     7
  6
CONTINUOUS
  0
LAYER
  2
DEFPOINTS
 70
    64
 62
     7
  6
CONTINUOUS
  0
LAYER
  2
1
 70
    64
 62
     7
  6
CONTINUOUS
  0
LAYER
  2
19
 70
    64
 62
     7
  6
CONTINUOUS
  0
LAYER
  2
58
 70
    64
 62
     7
  6
CONTINUOUS
  0
LAYER
  2
6
 70
    64
 62
     7
  6
CONTINUOUS
  0
LAYER
  2
10
 70
    64
 62
     7
  6
CONTINUOUS
  0
ENDTAB
  0
TABLE
  2
STYLE
 70
     3
  0
STYLE
  2
STANDARD
 70
     0
 40
0.0
 41
1.0
 50
0.0
 71
     0
 42
0.0
  3
txt
  4

  0
STYLE
  2
ROMANC
 70
     0
 40
0.2
 41
1.0
 50
0.0
 71
     0
 42
0.2
  3
ROMANC
  4

  0
STYLE
  2
ROMANS
 70
     0
 40
0.2
 41
1.0
 50
0.0
 71
     0
 42
0.2
  3
ROMANS
  4

  0
ENDTAB
  0
TABLE
  2
VIEW
 70
     0
  0
ENDTAB
  0
TABLE
  2
UCS
 70
     0
  0
ENDTAB
  0
TABLE
  2
APPID
 70
     1
  0
APPID
  2
ACAD
 70
     0
  0
ENDTAB
  0
TABLE
  2
DIMSTYLE
 70
     2
  0
DIMSTYLE
  2
STANDARD
 70
     0
  3

  4

  5

  6

  7

 40
1.0
 41
0.18
 42
0.0625
 43
0.38
 44
0.18
 45
0.0
 46
0.0
 47
0.0
 48
0.0
140
0.18
141
0.09
142
0.0
143
25.4
144
1.0
145
0.0
146
1.0
147
0.09
 71
     0
 72
     0
 73
     1
 74
     1
 75
     0
 76
     0
 77
     0
 78
     0
170
     0
171
     2
172
     0
173
     0
174
     0
175
     0
176
     0
177
     0
178
     0
  0
DIMSTYLE
  2
MSADIM
 70
     0
  3

  4

  5

  6

  7

 40
1.0
 41
8.0
 42
4.0
 43
0.0
 44
4.0
 45
0.0
 46
0.0
 47
0.0
 48
0.0
140
8.0
141
4.0
142
0.0
143
25.4
144
1.0
145
4.0
146
1.0
147
4.0
 71
     0
 72
     0
 73
     1
 74
     1
 75
     1
 76
     1
 77
     0
 78
     2
170
     0
171
     2
172
     0
173
     0
174
     0
175
     0
176
     0
177
     0
178
     0
  0
ENDTAB
  0
ENDSEC
  0
SECTION
  2
BLOCKS
  0
BLOCK
  8
0
  6
CONTINUOUS
 62
     7
  5
4D
  2
*D0
 70
     1
 10
0.0
 20
0.0
 30
0.0
  3
*N0
  0
TEXT
  8
0
  6
CONTINUOUS
 62
     7
  5
4E
 10
964193.521
 20
7306028.523
 30
0.0
 40
8.0
  1
S24%%d24'37"W
 50
65.5896
  7
ROMANS
 72
     1
 11
964203.950524
 21
7306070.861487
 31
0.0
210
0.0
220
0.0
230
1.0
 73
     3
  0
TEXT
  8
0
  6
CONTINUOUS
 62
     7
  5
4F
 10
964187.849
 20
7306054.742
 30
0.0
 40
8.0
  1
407.4'
 50
65.5896
  7
ROMANS
 72
     1
 11
964196.665283
 21
7306074.168015
 31
0.0
210
0.0
220
0.0
230
1.0
  0
ENDBLK
  8
0
  6
CONTINUOUS
 62
     7
  5
50
  0
BLOCK
  8
0
  6
CONTINUOUS
 62
     7
  5
53
  2
*D1
 70
     1
 10
0.0
 20
0.0
 30
0.0
  3
*N1
  0
TEXT
  8
0
  6
CONTINUOUS
 62
     7
  5
54
 10
964157.054
 20
7305731.045
 30
0.0
 40
8.0
  1
S18%%d56'34"E
 50
288.942878
  7
ROMANS
 72
     1
 11
964178.417318
 21
7305693.443688
 31
0.0
210
0.0
220
0.0
230
1.0
 73
     3
  0
TEXT
  8
0
  6
CONTINUOUS
 62
     7
  5
55
 10
964177.761
 20
7305720.002
 30
0.0
 40
8.0
  1
399.95'
 50
288.942878
  7
ROMANS
 72
     1
 11
964185.984734
 21
7305696.040967
 31
0.0
210
0.0
220
0.0
230
1.0
  0
ENDBLK
  8
0
  6
CONTINUOUS
 62
     7
  5
56
  0
ENDSEC
  0
SECTION
  2
ENTITIES
  0
LINE
  8
0
  6
CONTINUOUS
 62
     7
  5
28
 10
964130.394
 20
7307270.523
 30
0.0
 11
964061.556
 21
7304487.684
 31
0.0
  0
LINE
  8
0
  6
CONTINUOUS
 62
     7
  5
29
 10
964440.257
 20
7305644.096
 30
0.0
 11
965619.92
 21
7305614.916
 31
0.0
  0
LINE
  8
0
  6
CONTINUOUS
 62
     7
  5
2A
 10
964472.404
 20
7306943.687
 30
0.0
 11
965652.067
 21
7306914.506
 31
0.0
  0
LINE
  8
0
  6
CONTINUOUS
 62
     7
  5
2B
 10
964391.553
 20
7305695.333
 30
0.0
 11
964421.226
 21
7306894.921
 31
0.0
  0
LINE
  8
0
  6
CONTINUOUS
 62
     7
  5
2C
 10
965671.164
 20
7305663.681
 30
0.0
 11
965700.838
 21
7306863.268
 31
0.0
  0
ARC
  8
0
  6
CONTINUOUS
 62
     7
  5
2D
 10
965650.837362
 20
7306864.5014
 30
0.0
 40
50.000164
 50
358.583
 51
88.583
210
0.0
220
0.0
230
1.0
  0
ARC
  8
0
  6
CONTINUOUS
 62
     7
  5
2E
 10
965621.162711
 20
7305664.86442
 30
0.0
 40
50.000164
 50
268.583
 51
358.583
210
0.0
220
0.0
230
1.0
  0
ARC
  8
0
  6
CONTINUOUS
 62
     7
  5
2F
 10
964441.519681
 20
7305694.044494
 30
0.0
 40
50.000164
 50
178.583
 51
268.583
210
0.0
220
0.0
230
1.0
  0
ARC
  8
0
  6
CONTINUOUS
 62
     7
  5
30
 10
964471.194332
 20
7306893.681474
 30
0.0
 40
50.000164
 50
88.583
 51
178.583
210
0.0
220
0.0
230
1.0
  0
LINE
  8
0
  6
CONTINUOUS
 62
     7
  5
31
 10
964246.007
 20
7305508.835
 30
0.0
 11
965815.522
 21
7305470.011
 31
0.0
  0
LINE
  8
0
  6
CONTINUOUS
 62
     7
  5
32
 10
964304.817
 20
7307077.869
 30
0.0
 11
965854.347
 21
7307039.539
 31
0.0
  0
LINE
  8
0
  6
CONTINUOUS
 62
     7
  5
33
 10
964284.539
 20
7306258.112
 30
0.0
 11
964304.817
 21
7307077.869
 31
0.0
  0
LINE
  8
0
  6
CONTINUOUS
 62
     7
  5
34
 10
965815.522
 20
7305470.011
 30
0.0
 11
965854.347
 21
7307039.539
 31
0.0
  0
LINE
  8
0
  6
CONTINUOUS
 62
     7
  5
35
 10
964284.539
 20
7306258.112
 30
0.0
 11
964116.172
 21
7305887.128
 31
0.0
  0
LINE
  8
0
  6
CONTINUOUS
 62
     7
  5
36
 10
964116.172
 20
7305887.128
 30
0.0
 11
964246.007
 21
7305508.835
 31
0.0
  0
LINE
  8
0
  6
CONTINUOUS
 62
     7
  5
37
 10
964065.873
 20
7304736.066
 30
0.0
 11
964059.73
 21
7304487.729
 31
0.0
  0
LINE
  8
0
  6
CONTINUOUS
 62
     7
  5
38
 10
964245.998
 20
7309795.246
 30
0.0
 11
964115.232
 21
7304557.365
 31
0.0
  0
TEXT
  8
0
  6
CONTINUOUS
 62
    30
  5
3A
 10
964823.708
 20
7306235.803
 30
0.0
 40
50.0
  1
RESERVOIR
 50
358.583
  7
ROMANC
 72
     4
 11
965054.555793
 21
7306255.100314
 31
0.0
210
0.0
220
0.0
230
1.0
  0
TEXT
  8
0
  6
CONTINUOUS
 62
     7
  5
3C
 10
965567.919
 20
7304459.462
 30
0.0
 40
8.0
  1
LIA 5280-12994.8'
 50
358.583
  7
ROMANS
210
0.0
220
0.0
230
1.0
  0
TEXT
  8
0
  6
CONTINUOUS
 62
     7
  5
3D
 10
966691.054
 20
7305655.977
 30
0.0
 40
8.0
  1
2674.12'
 50
88.583
  7
ROMANS
210
0.0
220
0.0
230
1.0
  0
TEXT
  8
0
  6
CONTINUOUS
 62
     7
  5
3E
 10
964364.253
 20
7306894.698
 30
0.0
 40
8.0
  1
453.8'
 50
88.583
  7
ROMANS
210
0.0
220
0.0
230
1.0
  0
TEXT
  8
0
  6
CONTINUOUS
 62
     7
  5
3F
 10
964094.603
 20
7305297.14
 30
0.0
 40
8.0
  1
2219.95'
 50
88.583
  7
ROMANS
210
0.0
220
0.0
230
1.0
  0
TEXT
  8
0
  6
CONTINUOUS
 62
     7
  5
40
 10
964221.89
 20
7306657.192
 30
0.0
 40
8.0
  1
250'
 50
358.583
  7
ROMANS
210
0.0
220
0.0
230
1.0
  0
TEXT
  8
0
  6
CONTINUOUS
 62
     7
  5
41
 10
965315.448
 20
7307086.318
 30
0.0
 40
8.0
  1
2359'
 50
358.583
  7
ROMANS
210
0.0
220
0.0
230
1.0
  0
TEXT
  8
0
  6
CONTINUOUS
 62
     7
  5
42
 10
965044.744
 20
7307047.9
 30
0.0
 40
8.0
  1
1550'
 50
358.583
  7
ROMANS
 72
     4
 11
965062.170615
 21
7307051.470153
 31
0.0
210
0.0
220
0.0
230
1.0
  0
TEXT
  8
0
  6
CONTINUOUS
 62
     7
  5
43
 10
965046.347
 20
7306916.949
 30
0.0
 40
8.0
  1
1180'
 50
358.583
  7
ROMANS
 72
     4
 11
965063.773615
 21
7306920.519153
 31
0.0
210
0.0
220
0.0
230
1.0
  0
TEXT
  8
0
  6
CONTINUOUS
 62
     7
  5
44
 10
965016.39
 20
7305632.833
 30
0.0
 40
8.0
  1
1180'
 50
358.583
  7
ROMANS
 72
     4
 11
965033.816615
 21
7305636.403153
 31
0.0
210
0.0
220
0.0
230
1.0
  0
TEXT
  8
0
  6
CONTINUOUS
 62
     7
  5
45
 10
965021.857
 20
7305491.452
 30
0.0
 40
8.0
  1
1570'
 50
358.583
  7
ROMANS
 72
     4
 11
965039.283615
 21
7305495.022153
 31
0.0
210
0.0
220
0.0
230
1.0
  0
TEXT
  8
0
  6
CONTINUOUS
 62
     7
  5
46
 10
965831.526
 20
7306274.35
 30
0.0
 40
8.0
  1
1570'
 50
88.583
  7
ROMANS
 72
     4
 11
965827.955847
 21
7306291.776615
 31
0.0
210
0.0
220
0.0
230
1.0
  0
TEXT
  8
0
  6
CONTINUOUS
 62
     7
  5
47
 10
965683.02
 20
7306277.616
 30
0.0
 40
8.0
  1
1200'
 50
88.583
  7
ROMANS
 72
     4
 11
965679.449847
 21
7306295.042615
 31
0.0
210
0.0
220
0.0
230
1.0
  0
TEXT
  8
0
  6
CONTINUOUS
 62
     7
  5
48
 10
964419.012
 20
7306329.748
 30
0.0
 40
8.0
  1
1200'
 50
88.583
  7
ROMANS
 72
     4
 11
964415.441847
 21
7306347.174615
 31
0.0
210
0.0
220
0.0
230
1.0
  0
TEXT
  8
0
  6
CONTINUOUS
 62
     7
  5
49
 10
964308.363
 20
7306685.306
 30
0.0
 40
8.0
  1
820'
 50
88.583
  7
ROMANS
 72
     4
 11
964304.693932
 21
7306698.733838
 31
0.0
210
0.0
220
0.0
230
1.0
  0
INSERT
  8
0
  6
CONTINUOUS
 62
     7
  5
51
  2
*D0
 10
964284.539
 20
7306258.112
 30
0.0
 70
     0
 71
     0
  0
INSERT
  8
0
  6
CONTINUOUS
 62
     7
  5
57
  2
*D1
 10
964116.172
 20
7305887.128
 30
0.0
 70
     0
 71
     0
  0
TEXT
  8
0
  6
CONTINUOUS
 62
     7
  5
58
 10
964435.158
 20
7306908.405
 30
0.0
 40
8.0
  1
R
 50
66.655881
  7
ROMANS
 72
     1
 11
964428.811424
 21
7306913.888738
 31
0.0
210
0.0
220
0.0
230
1.0
 73
     3
  0
TEXT
  8
0
  6
CONTINUOUS
 62
     7
  5
59
 10
964437.384
 20
7306913.398
 30
0.0
 40
8.0
  1
=
 50
53.689617
  7
ROMANS
 72
     1
 11
964432.911099
 21
7306920.821075
 31
0.0
210
0.0
220
0.0
230
1.0
 73
     3
  0
TEXT
  8
0
  6
CONTINUOUS
 62
     7
  5
5A
 10
964441.377
 20
7306918.765
 30
0.0
 40
8.0
  1
5
 50
47.206486
  7
ROMANS
 72
     1
 11
964437.098962
 21
7306925.919909
 31
0.0
210
0.0
220
0.0
230
1.0
 73
     3
  0
TEXT
  8
0
  6
CONTINUOUS
 62
     7
  5
5B
 10
964444.978
 20
7306922.917
 30
0.0
 40
8.0
  1
0
 50
34.240222
  7
ROMANS
 72
     1
 11
964442.668233
 21
7306931.022108
 31
0.0
210
0.0
220
0.0
230
1.0
 73
     3
  0
TEXT
  8
0
  6
CONTINUOUS
 62
     7
  5
5C
 10
964450.466
 20
7306926.753
 30
0.0
 40
8.0
  1
'
 50
27.757092
  7
ROMANS
 72
     1
 11
964447.919819
 21
7306934.45325
 31
0.0
210
0.0
220
0.0
230
1.0
 73
     3
  0
TEXT
  8
0
  6
CONTINUOUS
 62
     7
  5
5D
 10
965666.508
 20
7306900.129
 30
0.0
 40
8.0
  1
R
 50
336.655881
  7
ROMANS
 72
     1
 11
965671.991738
 21
7306906.475576
 31
0.0
210
0.0
220
0.0
230
1.0
 73
     3
  0
TEXT
  8
0
  6
CONTINUOUS
 62
     7
  5
5E
 10
965671.385
 20
7306897.7
 30
0.0
 40
8.0
  1
=
 50
323.689617
  7
ROMANS
 72
     1
 11
965678.808075
 21
7306902.172901
 31
0.0
210
0.0
220
0.0
230
1.0
 73
     3
  0
TEXT
  8
0
  6
CONTINUOUS
 62
     7
  5
5F
 10
965676.677
 20
7306893.618
 30
0.0
 40
8.0
  1
5
 50
317.206486
  7
ROMANS
 72
     1
 11
965683.831909
 21
7306897.896038
 31
0.0
210
0.0
220
0.0
230
1.0
 73
     3
  0
TEXT
  8
0
  6
CONTINUOUS
 62
     7
  5
60
 10
965680.653
 20
7306889.865
 30
0.0
 40
8.0
  1
0
 50
304.240222
  7
ROMANS
 72
     1
 11
965688.758108
 21
7306892.174767
 31
0.0
210
0.0
220
0.0
230
1.0
 73
     3
  0
TEXT
  8
0
  6
CONTINUOUS
 62
     7
  5
61
 10
965684.39
 20
7306884.317
 30
0.0
 40
8.0
  1
'
 50
297.757092
  7
ROMANS
 72
     1
 11
965692.09025
 21
7306886.863181
 31
0.0
210
0.0
220
0.0
230
1.0
 73
     3
  0
TEXT
  8
0
  6
CONTINUOUS
 62
     7
  5
62
 10
965639.476
 20
7305621.481
 30
0.0
 40
8.0
  1
R
 50
27.757092
  7
ROMANS
 72
     1
 11
965641.706024
 21
7305622.654625
 31
0.0
210
0.0
220
0.0
230
1.0
  0
TEXT
  8
0
  6
CONTINUOUS
 62
     7
  5
63
 10
965646.145
 20
7305625.11
 30
0.0
 40
8.0
  1
=
 50
34.240222
  7
ROMANS
 72
     1
 11
965648.900344
 21
7305626.985359
 31
0.0
210
0.0
220
0.0
230
1.0
  0
TEXT
  8
0
  6
CONTINUOUS
 62
     7
  5
64
 10
965652.136
 20
7305629.256
 30
0.0
 40
8.0
  1
5
 50
47.206486
  7
ROMANS
 72
     1
 11
965653.728416
 21
7305630.976043
 31
0.0
210
0.0
220
0.0
230
1.0
  0
TEXT
  8
0
  6
CONTINUOUS
 62
     7
  5
65
 10
965657.311
 20
7305634.819
 30
0.0
 40
8.0
  1
0
 50
53.689617
  7
ROMANS
 72
     1
 11
965658.880814
 21
7305636.955231
 31
0.0
210
0.0
220
0.0
230
1.0
  0
TEXT
  8
0
  6
CONTINUOUS
 62
     7
  5
66
 10
965661.607
 20
7305641.073
 30
0.0
 40
8.0
  1
'
 50
60.172747
  7
ROMANS
 72
     1
 11
965662.270016
 21
7305642.229416
 31
0.0
210
0.0
220
0.0
230
1.0
  0
TEXT
  8
0
  6
CONTINUOUS
 62
     7
  5
67
 10
964398.408
 20
7305675.217
 30
0.0
 40
8.0
  1
R
 50
297.757092
  7
ROMANS
 72
     1
 11
964399.581625
 21
7305672.986976
 31
0.0
210
0.0
220
0.0
230
1.0
  0
TEXT
  8
0
  6
CONTINUOUS
 62
     7
  5
68
 10
964402.093
 20
7305668.583
 30
0.0
 40
8.0
  1
=
 50
304.240222
  7
ROMANS
 72
     1
 11
964403.968359
 21
7305665.827656
 31
0.0
210
0.0
220
0.0
230
1.0
  0
TEXT
  8
0
  6
CONTINUOUS
 62
     7
  5
69
 10
964406.337
 20
7305662.677
 30
0.0
 40
8.0
  1
5
 50
317.206486
  7
ROMANS
 72
     1
 11
964408.057043
 21
7305661.084584
 31
0.0
210
0.0
220
0.0
230
1.0
  0
TEXT
  8
0
  6
CONTINUOUS
 62
     7
  5
6A
 10
964411.943
 20
7305657.554
 30
0.0
 40
8.0
  1
0
 50
323.689617
  7
ROMANS
 72
     1
 11
964414.079231
 21
7305655.984186
 31
0.0
210
0.0
220
0.0
230
1.0
  0
TEXT
  8
0
  6
CONTINUOUS
 62
     7
  5
6B
 10
964418.232
 20
7305653.311
 30
0.0
 40
8.0
  1
'
 50
330.172747
  7
ROMANS
 72
     1
 11
964419.388416
 21
7305652.647984
 31
0.0
210
0.0
220
0.0
230
1.0
  0
POLYLINE
  8
1
  6
HIDDEN
 62
   253
  5
6D
 66
     1
 10
0.0
 20
0.0
 30
0.0
 70
     1
  0
VERTEX
  8
1
  6
HIDDEN
 62
   253
  5
6E
 10
964078.924
 20
7304524.732
 30
0.0
  0
VERTEX
  8
1
  6
HIDDEN
 62
   253
  5
6F
 10
969354.642
 20
7304382.078
 30
0.0
  0
VERTEX
  8
1
  6
HIDDEN
 62
   253
  5
70
 10
969496.563
 20
7309653.505
 30
0.0
  0
VERTEX
  8
1
  6
HIDDEN
 62
   253
  5
71
 10
964221.004
 20
7309795.83
 30
0.0
  0
SEQEND
  8
1
  6
HIDDEN
 62
   253
  5
72
  0
TEXT
  8
19
  6
CONTINUOUS
 62
     1
  5
74
 10
969418.458
 20
7309162.825
 30
0.0
 40
24.0
  1
N OLIVE AVE
 50
88.583
  7
ROMANC
 72
     4
 11
969409.938291
 21
7309303.668753
 31
0.0
210
0.0
220
0.0
230
1.0
  0
TEXT
  8
19
  6
CONTINUOUS
 62
     1
  5
75
 10
969299.884
 20
7304562.9
 30
0.0
 40
24.0
  1
N OLIVE AVE
 50
88.583
  7
ROMANC
 72
     4
 11
969291.364291
 21
7304703.743753
 31
0.0
210
0.0
220
0.0
230
1.0
  0
TEXT
  8
19
  6
CONTINUOUS
 62
     1
  5
76
 10
969360.463
 20
7306983.033
 30
0.0
 40
24.0
  1
N OLIVE AVE
 50
88.583
  7
ROMANC
 72
     4
 11
969351.943291
 21
7307123.876753
 31
0.0
210
0.0
220
0.0
230
1.0
  0
TEXT
  8
19
  6
CONTINUOUS
 62
     1
  5
77
 10
964214.226
 20
7309173.055
 30
0.0
 40
24.0
  1
N GUAVA AVE
 50
88.583
  7
ROMANC
 72
     4
 11
964206.014708
 21
7309326.366939
 31
0.0
210
0.0
220
0.0
230
1.0
  0
TEXT
  8
19
  6
CONTINUOUS
 62
     1
  5
78
 10
964125.765
 20
7305466.64
 30
0.0
 40
24.0
  1
N GUAVA AVE
 50
88.583
  7
ROMANC
 72
     4
 11
964117.553708
 21
7305619.951939
 31
0.0
210
0.0
220
0.0
230
1.0
  0
TEXT
  8
19
  6
CONTINUOUS
 62
     1
  5
79
 10
964357.099
 20
7309730.909
 30
0.0
 40
24.0
  1
E KEUKA ST
 50
358.583
  7
ROMANC
 72
     4
 11
964490.199121
 21
7309739.620258
 31
0.0
210
0.0
220
0.0
230
1.0
  0
TEXT
  8
19
  6
CONTINUOUS
 62
     1
  5
7A
 10
968979.822
 20
7309616.907
 30
0.0
 40
24.0
  1
E KEUKA ST
 50
358.583
  7
ROMANC
 72
     4
 11
969112.922121
 21
7309625.618258
 31
0.0
210
0.0
220
0.0
230
1.0
  0
TEXT
  8
19
  6
CONTINUOUS
 62
     1
  5
7B
 10
966636.992
 20
7309676.955
 30
0.0
 40
24.0
  1
E KEUKA ST
 50
358.583
  7
ROMANC
 72
     4
 11
966770.092121
 21
7309685.666258
 31
0.0
210
0.0
220
0.0
230
1.0
  0
TEXT
  8
19
  6
CONTINUOUS
 62
     1
  5
7C
 10
964271.806
 20
7304489.254
 30
0.0
 40
24.0
  1
E STONEHILL ST
 50
358.583
  7
ROMANC
 72
     4
 11
964444.386045
 21
7304496.988669
 31
0.0
210
0.0
220
0.0
230
1.0
  0
TEXT
  8
19
  6
CONTINUOUS
 62
     1
  5
7D
 10
968741.41
 20
7304379.937
 30
0.0
 40
24.0
  1
E STONEHILL ST
 50
358.583
  7
ROMANC
 72
     4
 11
968913.990045
 21
7304387.671669
 31
0.0
210
0.0
220
0.0
230
1.0
  0
POLYLINE
  8
58
  6
DIVIDE
 62
   216
  5
7F
 66
     1
 10
0.0
 20
0.0
 30
0.0
  0
VERTEX
  8
58
  6
DIVIDE
 62
   216
  5
80
 10
966668.932
 20
7304423.187
 30
0.0
  0
VERTEX
  8
58
  6
DIVIDE
 62
   216
  5
81
 10
966734.318
 20
7307066.498
 30
0.0
  0
VERTEX
  8
58
  6
DIVIDE
 62
   216
  5
82
 10
964376.039
 20
7307124.833
 30
0.0
  0
VERTEX
  8
58
  6
DIVIDE
 62
   216
  5
83
 10
964364.817
 20
7306671.172
 30
0.0
  0
VERTEX
  8
58
  6
DIVIDE
 62
   216
  5
84
 10
964113.894
 20
7306677.379
 30
0.0
  0
SEQEND
  8
58
  6
DIVIDE
 62
   216
  5
85
  0
LINE
  8
6
  6
CONTINUOUS
 62
     7
  5
87
 10
964115.232
 20
7304557.365
 30
0.0
 11
969353.786
 21
7304422.092
 31
0.0
  0
LINE
  8
6
  6
CONTINUOUS
 62
     7
  5
88
 10
969353.786
 20
7304422.092
 30
0.0
 11
969476.569
 21
7309654.044
 31
0.0
  0
LINE
  8
58
  6
DIVIDE
 62
   216
  5
89
 10
964059.73
 20
7304487.729
 30
0.0
 11
964113.894
 21
7306677.379
 31
0.0
  0
TEXT
  8
10
  6
CONTINUOUS
 62
   134
  5
8B
 10
966896.559
 20
7307587.27
 30
0.0
 40
13.999
  1
UNSUBDIVIDED
 50
358.583
  7
ROMANS
 11
966896.905178
 21
7307601.264719
 31
0.0
210
0.0
220
0.0
230
1.0
 73
     3
  0
ENDSEC
  0
EOF
