  0
SECTION
  2
HEADER
  9
$ACADVER
  1
AC1009
  9
$INSBASE
 10
0.0
 20
0.0
 30
0.0
  9
$EXTMIN
 10
2732604110749.9253
 20
24593435672468.074
 30
0.0
  9
$EXTMAX
 10
2732604116238.8154
 20
24593435677913.355
 30
0.0
  9
$LIMMIN
 10
0.0
 20
0.0
  9
$LIMMAX
 10
12.0
 20
9.0
  9
$ORTHOMODE
 70
     0
  9
$REGENMODE
 70
     1
  9
$FILLMODE
 70
     1
  9
$QTEXTMODE
 70
     0
  9
$MIRRTEXT
 70
     1
  9
$DRAGMODE
 70
     2
  9
$LTSCALE
 40
1.0
  9
$OSMODE
 70
     0
  9
$ATTMODE
 70
     1
  9
$TEXTSIZE
 40
0.2
  9
$TRACEWID
 40
0.05
  9
$TEXTSTYLE
  7
STANDARD
  9
$CLAYER
  8
0
  9
$CELTYPE
  6
CONTINUOUS
  9
$CECOLOR
 62
   256
  9
$DIMSCALE
 40
1.0
  9
$DIMASZ
 40
0.18
  9
$DIMEXO
 40
0.0625
  9
$DIMDLI
 40
0.38
  9
$DIMRND
 40
0.0
  9
$DIMDLE
 40
0.0
  9
$DIMEXE
 40
0.18
  9
$DIMTP
 40
0.0
  9
$DIMTM
 40
0.0
  9
$DIMTXT
 40
0.18
  9
$DIMCEN
 40
0.09
  9
$DIMTSZ
 40
0.0
  9
$DIMTOL
 70
     0
  9
$DIMLIM
 70
     0
  9
$DIMTIH
 70
     1
  9
$DIMTOH
 70
     1
  9
$DIMSE1
 70
     0
  9
$DIMSE2
 70
     0
  9
$DIMTAD
 70
     0
  9
$DIMZIN
 70
     0
  9
$DIMBLK
  1

  9
$DIMASO
 70
     1
  9
$DIMSHO
 70
     1
  9
$DIMPOST
  1

  9
$DIMAPOST
  1

  9
$DIMALT
 70
     0
  9
$DIMALTD
 70
     2
  9
$DIMALTF
 40
25.4
  9
$DIMLFAC
 40
1.0
  9
$DIMTOFL
 70
     0
  9
$DIMTVP
 40
0.0
  9
$DIMTIX
 70
     0
  9
$DIMSOXD
 70
     0
  9
$DIMSAH
 70
     0
  9
$DIMBLK1
  1

  9
$DIMBLK2
  1

  9
$DIMSTYLE
  2
STANDARD
  9
$DIMCLRD
 70
     0
  9
$DIMCLRE
 70
     0
  9
$DIMCLRT
 70
     0
  9
$DIMTFAC
 40
1.0
  9
$DIMGAP
 40
0.09
  9
$LUNITS
 70
     2
  9
$LUPREC
 70
     4
  9
$AXISMODE
 70
     0
  9
$AXISUNIT
 10
0.0
 20
0.0
  9
$SKETCHINC
 40
0.1
  9
$FILLETRAD
 40
0.0
  9
$AUNITS
 70
     0
  9
$AUPREC
 70
     0
  9
$MENU
  1
acad
  9
$ELEVATION
 40
0.0
  9
$PELEVATION
 40
0.0
  9
$THICKNESS
 40
0.0
  9
$LIMCHECK
 70
     0
  9
$BLIPMODE
 70
     1
  9
$CHAMFERA
 40
0.0
  9
$CHAMFERB
 40
0.0
  9
$SKPOLY
 70
     0
  9
$TDCREATE
 40
2453013.904247685
  9
$TDUPDATE
 40
2453013.904247685
  9
$TDINDWG
 40
0.0000000000
  9
$TDUSRTIMER
 40
0.0000000000
  9
$USRTIMER
 70
     1
  9
$ANGBASE
 50
0.0
  9
$ANGDIR
 70
     0
  9
$PDMODE
 70
     0
  9
$PDSIZE
 40
0.0
  9
$PLINEWID
 40
0.0
  9
$COORDS
 70
     0
  9
$SPLFRAME
 70
     0
  9
$SPLINETYPE
 70
     6
  9
$SPLINESEGS
 70
    10
  9
$ATTDIA
 70
     0
  9
$ATTREQ
 70
     1
  9
$HANDLING
 70
     1
  9
$HANDSEED
  5
95
  9
$SURFTAB1
 70
     6
  9
$SURFTAB2
 70
     6
  9
$SURFTYPE
 70
     6
  9
$SURFU
 70
     6
  9
$SURFV
 70
     6
  9
$UCSNAME
  2

  9
$UCSORG
 10
0.0
 20
0.0
 30
0.0
  9
$UCSXDIR
 10
1.0
 20
0.0
 30
0.0
  9
$UCSYDIR
 10
0.0
 20
1.0
 30
0.0
  9
$PUCSNAME
  2

  9
$PUCSORG
 10
0.0
 20
0.0
 30
0.0
  9
$PUCSXDIR
 10
1.0
 20
0.0
 30
0.0
  9
$PUCSYDIR
 10
0.0
 20
1.0
 30
0.0
  9
$USERI1
 70
     0
  9
$USERI2
 70
     0
  9
$USERI3
 70
     0
  9
$USERI4
 70
     0
  9
$USERI5
 70
     0
  9
$USERR1
 40
0.0
  9
$USERR2
 40
0.0
  9
$USERR3
 40
0.0
  9
$USERR4
 40
0.0
  9
$USERR5
 40
0.0
  9
$WORLDVIEW
 70
     1
  9
$SHADEDGE
 70
     3
  9
$SHADEDIF
 70
    70
  9
$TILEMODE
 70
     1
  9
$MAXACTVP
 70
    16
  9
$PINSBASE
 10
0.0
 20
0.0
 30
0.0
  9
$PLIMCHECK
 70
     0
  9
$PEXTMIN
 10
-1.000000E+20
 20
-1.000000E+20
 30
-1.000000E+20
  9
$PEXTMAX
 10
-1.000000E+20
 20
-1.000000E+20
 30
-1.000000E+20
  9
$PLIMMIN
 10
0.0
 20
0.0
  9
$PLIMMAX
 10
12.0
 20
9.0
  9
$UNITMODE
 70
     0
  9
$VISRETAIN
 70
     0
  9
$PLINEGEN
 70
     1
  9
$PSLTSCALE
 70
     0
  9
$TREEDEPTH
 70
  3020
  9
$DWGCODEPAGE
  3
ansi_1252
  0
ENDSEC
  0
SECTION
  2
TABLES
  0
TABLE
  2
VPORT
 70
     1
  0
VPORT
  2
*ACTIVE
 70
     0
 10
0.0
 20
0.0
 11
1.0
 21
1.0
 12
0.000193
 22
0.000656
 13
0.0
 23
0.0
 14
0.0
 24
0.0
 15
0.0
 25
0.0
 16
0.0
 26
0.0
 36
1.0
 17
2732604113206.5889
 27
24593435675046.324
 37
0.0
 40
5435.806
 41
1.220527
 42
50.0
 43
0.004
 44
0.0
 50
1.681086
 51
0.0
 71
     0
 72
   100
 73
     1
 74
     0
 75
     0
 76
     0
 77
     0
 78
     0
  0
ENDTAB
  0
TABLE
  2
LTYPE
 70
     7
  0
LTYPE
  2
CONTINUOUS
 70
     0
  3
Solid line
 72
    65
 73
     0
 40
0.0
  0
LTYPE
  2
DOT
 70
    64
  3
. . . . . . . . . . . . . . . . . . . . . . . . . . . . . . . . .
 72
    65
 73
     2
 40
0.25
 49
0.0
 49
-0.25
  0
LTYPE
  2
HIDDEN
 70
    64
  3
__ __ __ __ __ __ __ __ __ __ __ __ __ __ __ __ __ __ __ __ __ 
 72
    65
 73
     2
 40
0.375
 49
0.25
 49
-0.125
  0
LTYPE
  2
DASHED
 70
    64
  3
__ __ __ __ __ __ __ __ __ __ __ __ __ __ __ __ __ __ __ __ __
 72
    65
 73
     2
 40
0.75
 49
0.5
 49
-0.25
  0
LTYPE
  2
DASHDOT
 70
    64
  3
__ . __ . __ . __ . __ . __ . __ . __ . __ . __ . __ . __ . _
 72
    65
 73
     4
 40
1.0
 49
0.5
 49
-0.25
 49
0.0
 49
-0.25
  0
LTYPE
  2
DIVIDE
 70
    64
  3
____ . . ____ . . ____ . . ____ . . ____ . . ____ . . ____ . .
 72
    65
 73
     6
 40
1.25
 49
0.5
 49
-0.25
 49
0.0
 49
-0.25
 49
0.0
 49
-0.25
  0
LTYPE
  2
CENTER
 70
    64
  3
____ _ ____ _ ____ _ ____ _ ____ _ ____ _ ____ _ ____ _ ____ _
 72
    65
 73
     4
 40
2.0
 49
1.25
 49
-0.25
 49
0.25
 49
-0.25
  0
ENDTAB
  0
TABLE
  2
LAYER
 70
    10
  0
LAYER
  2
0
 70
    64
 62
     7
  6
CONTINUOUS
  0
LAYER
  2
CONSTRUCTION_CLASS
 70
     1
 62
     7
  6
CONTINUOUS
  0
LAYER
  2
PATTERN_CLASS
 70
     0
 62
     7
  6
CONTINUOUS
  0
LAYER
  2
DEFPOINTS
 70
    64
 62
     7
  6
CONTINUOUS
  0
LAYER
  2
1
 70
    64
 62
     7
  6
CONTINUOUS
  0
LAYER
  2
19
 70
    64
 62
     7
  6
CONTINUOUS
  0
LAYER
  2
6
 70
    64
 62
     7
  6
CONTINUOUS
  0
LAYER
  2
22
 70
    64
 62
     7
  6
CONTINUOUS
  0
LAYER
  2
58
 70
    64
 62
     7
  6
CONTINUOUS
  0
LAYER
  2
10
 70
    64
 62
     7
  6
CONTINUOUS
  0
ENDTAB
  0
TABLE
  2
STYLE
 70
     3
  0
STYLE
  2
STANDARD
 70
     0
 40
0.0
 41
1.0
 50
0.0
 71
     0
 42
0.0
  3
txt
  4

  0
STYLE
  2
ROMANC
 70
     0
 40
0.2
 41
1.0
 50
0.0
 71
     0
 42
0.2
  3
ROMANC
  4

  0
STYLE
  2
ROMANS
 70
     0
 40
0.2
 41
1.0
 50
0.0
 71
     0
 42
0.2
  3
ROMANS
  4

  0
ENDTAB
  0
TABLE
  2
VIEW
 70
     0
  0
ENDTAB
  0
TABLE
  2
UCS
 70
     0
  0
ENDTAB
  0
TABLE
  2
APPID
 70
     1
  0
APPID
  2
ACAD
 70
     0
  0
ENDTAB
  0
TABLE
  2
DIMSTYLE
 70
     2
  0
DIMSTYLE
  2
STANDARD
 70
     0
  3

  4

  5

  6

  7

 40
1.0
 41
0.18
 42
0.0625
 43
0.38
 44
0.18
 45
0.0
 46
0.0
 47
0.0
 48
0.0
140
0.18
141
0.09
142
0.0
143
25.4
144
1.0
145
0.0
146
1.0
147
0.09
 71
     0
 72
     0
 73
     1
 74
     1
 75
     0
 76
     0
 77
     0
 78
     0
170
     0
171
     2
172
     0
173
     0
174
     0
175
     0
176
     0
177
     0
178
     0
  0
DIMSTYLE
  2
MSADIM
 70
     0
  3

  4

  5

  6

  7

 40
1.0
 41
8.0
 42
4.0
 43
0.0
 44
4.0
 45
0.0
 46
0.0
 47
0.0
 48
0.0
140
8.0
141
4.0
142
0.0
143
25.4
144
1.0
145
4.0
146
1.0
147
4.0
 71
     0
 72
     0
 73
     1
 74
     1
 75
     1
 76
     1
 77
     0
 78
     2
170
     0
171
     2
172
     0
173
     0
174
     0
175
     0
176
     0
177
     0
178
     0
  0
ENDTAB
  0
ENDSEC
  0
SECTION
  2
BLOCKS
  0
BLOCK
  8
0
  6
CONTINUOUS
 62
     7
  5
64
  2
*D0
 70
     1
 10
0.0
 20
0.0
 30
0.0
  3
*N0
  0
TEXT
  8
0
  6
CONTINUOUS
 62
     7
  5
65
 10
2732604114561.2085
 20
24593435674885.543
 30
0.0
 40
8.0
  1
S36%%d35'47"E
 50
306.596508
  7
ROMANS
 72
     1
 11
2732604114592.9687
 21
24593435674856.191
 31
0.0
210
0.0
220
0.0
230
1.0
 73
     3
  0
TEXT
  8
0
  6
CONTINUOUS
 62
     7
  5
66
 10
2732604114581.9043
 20
24593435674884.512
 30
0.0
 40
8.0
  1
2092.71'
 50
306.596508
  7
ROMANS
 72
     1
 11
2732604114599.3921
 21
24593435674860.961
 31
0.0
210
0.0
220
0.0
230
1.0
  0
ENDBLK
  8
0
  6
CONTINUOUS
 62
     7
  5
67
  0
BLOCK
  8
0
  6
CONTINUOUS
 62
     7
  5
6A
  2
*D1
 70
     1
 10
0.0
 20
0.0
 30
0.0
  3
*N1
  0
TEXT
  8
0
  6
CONTINUOUS
 62
     7
  5
6B
 10
2732604114974.4985
 20
24593435674570.863
 30
0.0
 40
8.0
  1
S38%%d11'27"E
 50
308.190964
  7
ROMANS
 72
     1
 11
2732604115007.063
 21
24593435674542.406
 31
0.0
210
0.0
220
0.0
230
1.0
 73
     3
  0
TEXT
  8
0
  6
CONTINUOUS
 62
     7
  5
6C
 10
2732604114997.6875
 20
24593435674567.262
 30
0.0
 40
8.0
  1
739.83'
 50
308.190964
  7
ROMANS
 72
     1
 11
2732604115013.3506
 21
24593435674547.352
 31
0.0
210
0.0
220
0.0
230
1.0
  0
ENDBLK
  8
0
  6
CONTINUOUS
 62
     7
  5
6D
  0
ENDSEC
  0
SECTION
  2
ENTITIES
  0
LINE
  8
0
  6
CONTINUOUS
 62
     7
  5
28
 10
2732604116004.4175
 20
24593435674381.531
 30
0.0
 11
2732604116033.1206
 21
24593435675291.086
 31
0.0
  0
LINE
  8
0
  6
CONTINUOUS
 62
     7
  5
29
 10
2732604114751.0923
 20
24593435674930.941
 30
0.0
 11
2732604114763.7227
 21
24593435675331.145
 31
0.0
  0
LINE
  8
0
  6
CONTINUOUS
 62
     7
  5
2A
 10
2732604115391.4824
 20
24593435674175.785
 30
0.0
 11
2732604115772.5234
 21
24593435674163.758
 31
0.0
  0
LINE
  8
0
  6
CONTINUOUS
 62
     7
  5
2B
 10
2732604114995.7515
 20
24593435675548.918
 30
0.0
 11
2732604115815.4194
 21
24593435675523.051
 31
0.0
  0
LINE
  8
0
  6
CONTINUOUS
 62
     7
  5
2C
 10
2732604114783.1733
 20
24593435674833.48
 30
0.0
 11
2732604115240.6016
 21
24593435674252.004
 31
0.0
  0
ARC
  8
0
  6
CONTINUOUS
 62
     7
  5
2D
 10
2732604115779.541
 20
24593435674388.648
 30
0.0
 40
225.00074
 50
268.1925
 51
358.1925
210
0.0
220
0.0
230
1.0
  0
ARC
  8
0
  6
CONTINUOUS
 62
     7
  5
2E
 10
2732604115808.2437
 20
24593435675298.195
 30
0.0
 40
225.00074
 50
358.1925
 51
88.1925
210
0.0
220
0.0
230
1.0
  0
ARC
  8
0
  6
CONTINUOUS
 62
     7
  5
2F
 10
2732604114988.6489
 20
24593435675324.062
 30
0.0
 40
225.00074
 50
88.1925
 51
178.1925
210
0.0
220
0.0
230
1.0
  0
ARC
  8
0
  6
CONTINUOUS
 62
     7
  5
30
 10
2732604114901.0566
 20
24593435674926.219
 30
0.0
 40
150.000493
 50
178.1925
 51
218.1925
210
0.0
220
0.0
230
1.0
  0
ARC
  8
0
  6
CONTINUOUS
 62
     7
  5
31
 10
2732604115397.79
 20
24593435674375.68
 30
0.0
 40
200.000658
 50
218.1925
 51
268.1925
210
0.0
220
0.0
230
1.0
  0
LINE
  8
0
  6
CONTINUOUS
 62
     7
  5
32
 10
2732604115217.9673
 20
24593435674021.234
 30
0.0
 11
2732604116117.4956
 21
24593435673992.844
 31
0.0
  0
LINE
  8
0
  6
CONTINUOUS
 62
     7
  5
33
 10
2732604113970.3467
 20
24593435675701.371
 30
0.0
 11
2732604116169.2227
 21
24593435675631.98
 31
0.0
  0
LINE
  8
0
  6
CONTINUOUS
 62
     7
  5
34
 10
2732604116117.4956
 20
24593435673992.844
 30
0.0
 11
2732604116169.2227
 21
24593435675631.98
 31
0.0
  0
LINE
  8
0
  6
CONTINUOUS
 62
     7
  5
35
 10
2732604113970.3467
 20
24593435675701.371
 30
0.0
 11
2732604115217.9673
 21
24593435674021.234
 31
0.0
  0
LINE
  8
0
  6
DASHED
 62
     3
  5
36
 10
2732604116225.9272
 20
24593435677337.297
 30
0.0
 11
2732604116085.1504
 21
24593435672876.293
 31
0.0
  0
LINE
  8
0
  6
DASHED
 62
     3
  5
37
 10
2732604110948.5625
 20
24593435677503.836
 30
0.0
 11
2732604110807.7847
 21
24593435673042.832
 31
0.0
  0
LINE
  8
0
  6
DASHED
 62
     3
  5
38
 10
2732604111369.7275
 20
24593435677899.102
 30
0.0
 11
2732604115830.5977
 21
24593435677758.328
 31
0.0
  0
TEXT
  8
0
  6
CONTINUOUS
 62
    30
  5
3A
 10
2732604114466.6724
 20
24593435673304.023
 30
0.0
 40
50.0
  1
I.L.S. GUIDE
 50
358.1925
  7
ROMANC
 72
     4
 11
2732604114710.2383
 21
24593435673321.352
 31
0.0
210
0.0
220
0.0
230
1.0
  0
TEXT
  8
0
  6
CONTINUOUS
 62
    30
  5
3B
 10
2732604114599.6724
 20
24593435673224.789
 30
0.0
 40
50.0
  1
PATH
 50
358.1925
  7
ROMANC
 72
     4
 11
2732604114707.8813
 21
24593435673246.387
 31
0.0
210
0.0
220
0.0
230
1.0
  0
TEXT
  8
0
  6
CONTINUOUS
 62
    30
  5
3C
 10
2732604114415.5073
 20
24593435673155.562
 30
0.0
 40
50.0
  1
TRANSMITTER
 50
358.1925
  7
ROMANC
 72
     4
 11
2732604114705.7021
 21
24593435673171.418
 31
0.0
210
0.0
220
0.0
230
1.0
  0
TEXT
  8
0
  6
CONTINUOUS
 62
    30
  5
3D
 10
2732604115315.0513
 20
24593435674905.531
 30
0.0
 40
50.0
  1
C.R.M.W.A.
 50
358.1925
  7
ROMANC
 72
     4
 11
2732604115521.2397
 21
24593435674924.039
 31
0.0
210
0.0
220
0.0
230
1.0
  0
TEXT
  8
0
  6
CONTINUOUS
 62
    30
  5
3E
 10
2732604115287.6973
 20
24593435674831.359
 30
0.0
 40
50.0
  1
RESERVOIR
 50
358.1925
  7
ROMANC
 72
     4
 11
2732604115518.6714
 21
24593435674849.082
 31
0.0
210
0.0
220
0.0
230
1.0
  0
TEXT
  8
0
  6
CONTINUOUS
 62
     7
  5
40
 10
2732604113462.2783
 20
24593435672572.93
 30
0.0
 40
8.0
  1
5280' * 12994.8'
 50
358.1925
  7
ROMANS
210
0.0
220
0.0
230
1.0
  0
TEXT
  8
0
  6
CONTINUOUS
 62
     7
  5
41
 10
2732604110895.2534
 20
24593435675416.918
 30
0.0
 40
8.0
  1
5280'
 50
88.1925
  7
ROMANS
210
0.0
220
0.0
230
1.0
  0
TEXT
  8
0
  6
CONTINUOUS
 62
     7
  5
42
 10
2732604115094.3657
 20
24593435675654.137
 30
0.0
 40
8.0
  1
2199.97'
 50
358.1925
  7
ROMANS
 72
     4
 11
2732604115123.8101
 21
24593435675657.207
 31
0.0
210
0.0
220
0.0
230
1.0
  0
TEXT
  8
0
  6
CONTINUOUS
 62
     7
  5
43
 10
2732604115369.2827
 20
24593435675525.047
 30
0.0
 40
8.0
  1
820.08'
 50
358.1925
  7
ROMANS
 72
     4
 11
2732604115394.729
 21
24593435675528.246
 31
0.0
210
0.0
220
0.0
230
1.0
  0
TEXT
  8
0
  6
CONTINUOUS
 62
     7
  5
44
 10
2732604115556.2944
 20
24593435674172.898
 30
0.0
 40
8.0
  1
381.15'
 50
358.1925
  7
ROMANS
 72
     4
 11
2732604115581.7412
 21
24593435674176.098
 31
0.0
210
0.0
220
0.0
230
1.0
  0
TEXT
  8
0
  6
CONTINUOUS
 62
     7
  5
45
 10
2732604115646.6343
 20
24593435674008.758
 30
0.0
 40
8.0
  1
899.98'
 50
358.1925
  7
ROMANS
 72
     4
 11
2732604115672.0811
 21
24593435674011.957
 31
0.0
210
0.0
220
0.0
230
1.0
  0
TEXT
  8
0
  6
CONTINUOUS
 62
     7
  5
46
 10
2732604114772.1743
 20
24593435675124.078
 30
0.0
 40
8.0
  1
400.4'
 50
88.1925
  7
ROMANS
 72
     4
 11
2732604114768.8491
 21
24593435675145.523
 31
0.0
210
0.0
220
0.0
230
1.0
  0
TEXT
  8
0
  6
CONTINUOUS
 62
     7
  5
47
 10
2732604116015.8706
 20
24593435674822.262
 30
0.0
 40
8.0
  1
909.99'
 50
88.1925
  7
ROMANS
 72
     4
 11
2732604116012.6714
 21
24593435674847.707
 31
0.0
210
0.0
220
0.0
230
1.0
  0
TEXT
  8
0
  6
CONTINUOUS
 62
     7
  5
48
 10
2732604116138.3975
 20
24593435674782.234
 30
0.0
 40
8.0
  1
1639.95'
 50
88.1925
  7
ROMANS
 72
     4
 11
2732604116135.3247
 21
24593435674811.68
 31
0.0
210
0.0
220
0.0
230
1.0
  0
TEXT
  8
0
  6
CONTINUOUS
 62
     7
  5
49
 10
2732604114845.7007
 20
24593435675483.469
 30
0.0
 40
8.0
  1
RD
 50
39.446617
  7
ROMANS
 72
     1
 11
2732604114845.6724
 21
24593435675493.805
 31
0.0
210
0.0
220
0.0
230
1.0
 73
     3
  0
TEXT
  8
0
  6
CONTINUOUS
 62
     7
  5
4A
 10
2732604114854.3726
 20
24593435675490.84
 30
0.0
 40
8.0
  1
=
 50
36.390756
  7
ROMANS
 72
     1
 11
2732604114852.3091
 21
24593435675499.258
 31
0.0
210
0.0
220
0.0
230
1.0
 73
     3
  0
TEXT
  8
0
  6
CONTINUOUS
 62
     7
  5
4B
 10
2732604114860.7627
 20
24593435675495.551
 30
0.0
 40
8.0
  1
2
 50
36.390756
  7
ROMANS
 72
     1
 11
2732604114857.894
 21
24593435675503.375
 31
0.0
210
0.0
220
0.0
230
1.0
 73
     3
  0
TEXT
  8
0
  6
CONTINUOUS
 62
     7
  5
4C
 10
2732604114866.6914
 20
24593435675499.891
 30
0.0
 40
8.0
  1
2
 50
33.334894
  7
ROMANS
 72
     1
 11
2732604114864.2446
 21
24593435675507.855
 31
0.0
210
0.0
220
0.0
230
1.0
 73
     3
  0
TEXT
  8
0
  6
CONTINUOUS
 62
     7
  5
4D
 10
2732604114873.3232
 20
24593435675504.254
 30
0.0
 40
8.0
  1
5
 50
33.334894
  7
ROMANS
 72
     1
 11
2732604114870.8857
 21
24593435675512.227
 31
0.0
210
0.0
220
0.0
230
1.0
 73
     3
  0
TEXT
  8
0
  6
CONTINUOUS
 62
     7
  5
4E
 10
2732604114879.5854
 20
24593435675508.098
 30
0.0
 40
8.0
  1
'
 50
30.279033
  7
ROMANS
 72
     1
 11
2732604114876.7031
 21
24593435675515.676
 31
0.0
210
0.0
220
0.0
230
1.0
 73
     3
  0
TEXT
  8
0
  6
CONTINUOUS
 62
     7
  5
4F
 10
2732604115941.6294
 20
24593435675465.785
 30
0.0
 40
8.0
  1
RD
 50
318.614197
  7
ROMANS
 72
     1
 11
2732604115951.8296
 21
24593435675467.461
 31
0.0
210
0.0
220
0.0
230
1.0
 73
     3
  0
TEXT
  8
0
  6
CONTINUOUS
 62
     7
  5
50
 10
2732604115950.6045
 20
24593435675457.875
 30
0.0
 40
8.0
  1
=
 50
318.614197
  7
ROMANS
 72
     1
 11
2732604115958.394
 21
24593435675461.672
 31
0.0
210
0.0
220
0.0
230
1.0
 73
     3
  0
TEXT
  8
0
  6
CONTINUOUS
 62
     7
  5
51
 10
2732604115956.0137
 20
24593435675452.902
 30
0.0
 40
8.0
  1
2
 50
315.558336
  7
ROMANS
 72
     1
 11
2732604115963.2808
 21
24593435675456.98
 31
0.0
210
0.0
220
0.0
230
1.0
 73
     3
  0
TEXT
  8
0
  6
CONTINUOUS
 62
     7
  5
52
 10
2732604115961.3066
 20
24593435675447.801
 30
0.0
 40
8.0
  1
2
 50
312.502475
  7
ROMANS
 72
     1
 11
2732604115968.7808
 21
24593435675451.488
 31
0.0
210
0.0
220
0.0
230
1.0
 73
     3
  0
TEXT
  8
0
  6
CONTINUOUS
 62
     7
  5
53
 10
2732604115966.6685
 20
24593435675441.949
 30
0.0
 40
8.0
  1
5
 50
312.502475
  7
ROMANS
 72
     1
 11
2732604115974.1499
 21
24593435675445.625
 31
0.0
210
0.0
220
0.0
230
1.0
 73
     3
  0
TEXT
  8
0
  6
CONTINUOUS
 62
     7
  5
54
 10
2732604115971.5264
 20
24593435675436.434
 30
0.0
 40
8.0
  1
'
 50
309.446617
  7
ROMANS
 72
     1
 11
2732604115978.5513
 21
24593435675440.488
 31
0.0
210
0.0
220
0.0
230
1.0
 73
     3
  0
TEXT
  8
0
  6
CONTINUOUS
 62
     7
  5
55
 10
2732604115922.0825
 20
24593435674218.262
 30
0.0
 40
8.0
  1
RD
 50
42.502475
  7
ROMANS
 72
     1
 11
2732604115926.9087
 21
24593435674222.684
 31
0.0
210
0.0
220
0.0
230
1.0
  0
TEXT
  8
0
  6
CONTINUOUS
 62
     7
  5
56
 10
2732604115930.9023
 20
24593435674226.344
 30
0.0
 40
8.0
  1
=
 50
42.502475
  7
ROMANS
 72
     1
 11
2732604115933.3599
 21
24593435674228.594
 31
0.0
210
0.0
220
0.0
230
1.0
  0
TEXT
  8
0
  6
CONTINUOUS
 62
     7
  5
57
 10
2732604115936.4946
 20
24593435674231.742
 30
0.0
 40
8.0
  1
2
 50
45.558336
  7
ROMANS
 72
     1
 11
2732604115938.1279
 21
24593435674233.41
 31
0.0
210
0.0
220
0.0
230
1.0
  0
TEXT
  8
0
  6
CONTINUOUS
 62
     7
  5
58
 10
2732604115941.9507
 20
24593435674237.285
 30
0.0
 40
8.0
  1
2
 50
48.614197
  7
ROMANS
 72
     1
 11
2732604115943.4927
 21
24593435674239.035
 31
0.0
210
0.0
220
0.0
230
1.0
  0
TEXT
  8
0
  6
CONTINUOUS
 62
     7
  5
59
 10
2732604115947.1973
 20
24593435674243.238
 30
0.0
 40
8.0
  1
5
 50
48.614197
  7
ROMANS
 72
     1
 11
2732604115948.7471
 21
24593435674245.0
 31
0.0
210
0.0
220
0.0
230
1.0
  0
TEXT
  8
0
  6
CONTINUOUS
 62
     7
  5
5A
 10
2732604115952.1924
 20
24593435674249.199
 30
0.0
 40
8.0
  1
'
 50
51.670058
  7
ROMANS
 72
     1
 11
2732604115953.019
 21
24593435674250.246
 31
0.0
210
0.0
220
0.0
230
1.0
  0
TEXT
  8
0
  6
CONTINUOUS
 62
     7
  5
5B
 10
2732604115282.7393
 20
24593435674215.754
 30
0.0
 40
8.0
  1
RD
 50
326.019328
  7
ROMANS
 72
     1
 11
2732604115288.1675
 21
24593435674212.094
 31
0.0
210
0.0
220
0.0
230
1.0
  0
TEXT
  8
0
  6
CONTINUOUS
 62
     7
  5
5C
 10
2732604115292.5254
 20
24593435674209.172
 30
0.0
 40
8.0
  1
=
 50
329.260569
  7
ROMANS
 72
     1
 11
2732604115295.3901
 21
24593435674207.469
 31
0.0
210
0.0
220
0.0
230
1.0
  0
TEXT
  8
0
  6
CONTINUOUS
 62
     7
  5
5D
 10
2732604115299.3467
 20
24593435674205.113
 30
0.0
 40
8.0
  1
2
 50
329.260569
  7
ROMANS
 72
     1
 11
2732604115301.3516
 21
24593435674203.922
 31
0.0
210
0.0
220
0.0
230
1.0
  0
TEXT
  8
0
  6
CONTINUOUS
 62
     7
  5
5E
 10
2732604115306.1543
 20
24593435674201.379
 30
0.0
 40
8.0
  1
0
 50
332.501811
  7
ROMANS
 72
     1
 11
2732604115308.5059
 21
24593435674200.156
 31
0.0
210
0.0
220
0.0
230
1.0
  0
TEXT
  8
0
  6
CONTINUOUS
 62
     7
  5
5F
 10
2732604115313.0786
 20
24593435674197.863
 30
0.0
 40
8.0
  1
0
 50
335.743053
  7
ROMANS
 72
     1
 11
2732604115315.4956
 21
24593435674196.773
 31
0.0
210
0.0
220
0.0
230
1.0
  0
TEXT
  8
0
  6
CONTINUOUS
 62
     7
  5
60
 10
2732604115320.3135
 20
24593435674194.602
 30
0.0
 40
8.0
  1
'
 50
335.743053
  7
ROMANS
 72
     1
 11
2732604115321.5288
 21
24593435674194.055
 31
0.0
210
0.0
220
0.0
230
1.0
  0
INSERT
  8
0
  6
CONTINUOUS
 62
     7
  5
68
  2
*D0
 10
2732604113970.3467
 20
24593435675701.371
 30
0.0
 70
     0
 71
     0
  0
INSERT
  8
0
  6
CONTINUOUS
 62
     7
  5
6E
  2
*D1
 10
2732604114783.1733
 20
24593435674833.48
 30
0.0
 70
     0
 71
     0
  0
LINE
  8
0
  6
DASHDOT
 62
     7
  5
6F
 10
2732604116025.2983
 20
24593435672469.555
 30
0.0
 11
2732604116191.8384
 21
24593435677746.93
 31
0.0
  0
LINE
  8
0
  6
DASHDOT
 62
     7
  5
70
 10
2732604115926.3486
 20
24593435672472.68
 30
0.0
 11
2732604116092.8877
 21
24593435677750.051
 31
0.0
  0
TEXT
  8
0
  6
CONTINUOUS
 62
   230
  5
71
 10
2732604115991.3164
 20
24593435672803.742
 30
0.0
 40
8.0
  1
99' CRMWA R.O.W.
 50
88.1925
  7
ROMANS
210
0.0
220
0.0
230
1.0
  0
TEXT
  8
0
  6
CONTINUOUS
 62
   230
  5
72
 10
2732604116053.5923
 20
24593435672866.668
 30
0.0
 40
8.0
  1
47'
 50
358.1925
  7
ROMANS
210
0.0
220
0.0
230
1.0
  0
POLYLINE
  8
1
  6
HIDDEN
 62
   253
  5
74
 66
     1
 10
0.0
 20
0.0
 30
0.0
 70
     1
  0
VERTEX
  8
1
  6
HIDDEN
 62
   253
  5
75
 10
2732604116072.2754
 20
24593435672468.074
 30
0.0
  0
VERTEX
  8
1
  6
HIDDEN
 62
   253
  5
76
 10
2732604110794.9023
 20
24593435672634.613
 30
0.0
  0
VERTEX
  8
1
  6
HIDDEN
 62
   253
  5
77
 10
2732604110961.4424
 20
24593435677911.988
 30
0.0
  0
VERTEX
  8
1
  6
HIDDEN
 62
   253
  5
78
 10
2732604116238.8154
 20
24593435677745.449
 30
0.0
  0
SEQEND
  8
1
  6
HIDDEN
 62
   253
  5
79
  0
TEXT
  8
19
  6
CONTINUOUS
 62
     1
  5
7B
 10
2732604110917.7534
 20
24593435674938.582
 30
0.0
 40
24.0
  1
N MARTIN LUTHER KING, JR BLVD
 50
88.1925
  7
ROMANC
 72
     4
 11
2732604110917.4297
 21
24593435675308.773
 31
0.0
210
0.0
220
0.0
230
1.0
  0
TEXT
  8
19
  6
CONTINUOUS
 62
     1
  5
7C
 10
2732604116066.9097
 20
24593435672646.164
 30
0.0
 40
24.0
  1
N GUAVA AVE
 50
88.1925
  7
ROMANC
 72
     4
 11
2732604116059.7432
 21
24593435672799.531
 31
0.0
210
0.0
220
0.0
230
1.0
  0
TEXT
  8
19
  6
CONTINUOUS
 62
     1
  5
7D
 10
2732604116211.6353
 20
24593435677154.988
 30
0.0
 40
24.0
  1
N GUAVA AVE
 50
88.1925
  7
ROMANC
 72
     4
 11
2732604116204.4692
 21
24593435677308.355
 31
0.0
210
0.0
220
0.0
230
1.0
  0
TEXT
  8
19
  6
CONTINUOUS
 62
     1
  5
7E
 10
2732604111146.6157
 20
24593435677877.371
 30
0.0
 40
24.0
  1
E KUEKA ST
 50
358.1925
  7
ROMANC
 72
     4
 11
2732604111279.772
 21
24593435677885.176
 31
0.0
210
0.0
220
0.0
230
1.0
  0
TEXT
  8
19
  6
CONTINUOUS
 62
     1
  5
7F
 10
2732604113382.2666
 20
24593435677806.066
 30
0.0
 40
24.0
  1
E KUEKA ST
 50
358.1925
  7
ROMANC
 72
     4
 11
2732604113515.4229
 21
24593435677813.871
 31
0.0
210
0.0
220
0.0
230
1.0
  0
TEXT
  8
19
  6
CONTINUOUS
 62
     1
  5
80
 10
2732604115703.8965
 20
24593435677728.566
 30
0.0
 40
24.0
  1
E KUEKA ST
 50
358.1925
  7
ROMANC
 72
     4
 11
2732604115837.0527
 21
24593435677736.367
 31
0.0
210
0.0
220
0.0
230
1.0
  0
TEXT
  8
19
  6
CONTINUOUS
 62
     1
  5
81
 10
2732604110950.3057
 20
24593435672637.746
 30
0.0
 40
24.0
  1
E STONEHILL ST
 50
358.1925
  7
ROMANC
 72
     4
 11
2732604111122.9341
 21
24593435672644.305
 31
0.0
210
0.0
220
0.0
230
1.0
  0
TEXT
  8
19
  6
CONTINUOUS
 62
     1
  5
82
 10
2732604113629.9414
 20
24593435672562.094
 30
0.0
 40
24.0
  1
E STONEHILL ST
 50
358.1925
  7
ROMANC
 72
     4
 11
2732604113802.5703
 21
24593435672568.652
 31
0.0
210
0.0
220
0.0
230
1.0
  0
TEXT
  8
19
  6
CONTINUOUS
 62
     1
  5
83
 10
2732604115477.7715
 20
24593435672494.637
 30
0.0
 40
24.0
  1
E STONEHILL ST
 50
358.1925
  7
ROMANC
 72
     4
 11
2732604115650.4004
 21
24593435672501.195
 31
0.0
210
0.0
220
0.0
230
1.0
  0
TEXT
  8
19
  6
CONTINUOUS
 62
     1
  5
84
 10
2732604110831.1436
 20
24593435672700.242
 30
0.0
 40
24.0
  1
TOWER RD
 50
88.1925
  7
ROMANC
210
0.0
220
0.0
230
1.0
  0
TEXT
  8
19
  6
CONTINUOUS
 62
     1
  5
85
 10
2732604110987.1533
 20
24593435677565.844
 30
0.0
 40
24.0
  1
TOWER RD
 50
88.1925
  7
ROMANC
210
0.0
220
0.0
230
1.0
  0
LINE
  8
6
  6
CONTINUOUS
 62
     7
  5
87
 10
2732604110957.8916
 20
24593435677898.898
 30
0.0
 11
2732604116195.5156
 21
24593435677776.418
 31
0.0
  0
LINE
  8
6
  6
CONTINUOUS
 62
     7
  5
88
 10
2732604116195.5156
 20
24593435677776.418
 30
0.0
 11
2732604116064.4717
 21
24593435672478.922
 31
0.0
  0
TEXT
  8
22
  6
CONTINUOUS
 62
     3
  5
8A
 10
2732604116136.6216
 20
24593435677501.566
 30
0.0
 40
8.0
  1
99' CRMWA R.O.W.
 50
88.1925
  7
ROMANS
210
0.0
220
0.0
230
1.0
  0
TEXT
  8
22
  6
CONTINUOUS
 62
     3
  5
8B
 10
2732604116203.3403
 20
24593435677570.57
 30
0.0
 40
8.0
  1
47'
 50
358.1925
  7
ROMANS
210
0.0
220
0.0
230
1.0
  0
LINE
  8
6
  6
CONTINUOUS
 62
     7
  5
8C
 10
2732604110829.9053
 20
24593435672613.391
 30
0.0
 11
2732604110957.8916
 21
24593435677898.898
 31
0.0
  0
LINE
  8
6
  6
CONTINUOUS
 62
     7
  5
8D
 10
2732604116064.4717
 20
24593435672478.922
 30
0.0
 11
2732604110829.9053
 21
24593435672613.391
 31
0.0
  0
LINE
  8
58
  6
DIVIDE
 62
   216
  5
8F
 10
2732604110749.9253
 20
24593435672655.094
 30
0.0
 11
2732604116059.6836
 21
24593435672487.613
 31
0.0
  0
TEXT
  8
10
  6
CONTINUOUS
 62
   134
  5
91
 10
2732604113171.3784
 20
24593435675075.219
 30
0.0
 40
13.999
  1
UNSUBDIVIDED
 50
358.1925
  7
ROMANS
 11
2732604113171.8198
 21
24593435675089.211
 31
0.0
210
0.0
220
0.0
230
1.0
 73
     3
  0
ENDSEC
  0
EOF
