  0
SECTION
  2
HEADER
  9
$ACADVER
  1
AC1009
  9
$INSBASE
 10
0.0
 20
0.0
 30
0.0
  9
$EXTMIN
 10
905051.881
 20
7269191.218
 30
0.0
  9
$EXTMAX
 10
910657.187
 20
7279905.3
 30
0.0
  9
$LIMMIN
 10
0.0
 20
0.0
  9
$LIMMAX
 10
12.0
 20
9.0
  9
$ORTHOMODE
 70
     0
  9
$REGENMODE
 70
     1
  9
$FILLMODE
 70
     1
  9
$QTEXTMODE
 70
     0
  9
$MIRRTEXT
 70
     1
  9
$DRAGMODE
 70
     2
  9
$LTSCALE
 40
1.0
  9
$OSMODE
 70
     0
  9
$ATTMODE
 70
     1
  9
$TEXTSIZE
 40
0.2
  9
$TRACEWID
 40
0.05
  9
$TEXTSTYLE
  7
STANDARD
  9
$CLAYER
  8
0
  9
$CELTYPE
  6
CONTINUOUS
  9
$CECOLOR
 62
   256
  9
$DIMSCALE
 40
1.0
  9
$DIMASZ
 40
0.18
  9
$DIMEXO
 40
0.0625
  9
$DIMDLI
 40
0.38
  9
$DIMRND
 40
0.0
  9
$DIMDLE
 40
0.0
  9
$DIMEXE
 40
0.18
  9
$DIMTP
 40
0.0
  9
$DIMTM
 40
0.0
  9
$DIMTXT
 40
0.18
  9
$DIMCEN
 40
0.09
  9
$DIMTSZ
 40
0.0
  9
$DIMTOL
 70
     0
  9
$DIMLIM
 70
     0
  9
$DIMTIH
 70
     1
  9
$DIMTOH
 70
     1
  9
$DIMSE1
 70
     0
  9
$DIMSE2
 70
     0
  9
$DIMTAD
 70
     0
  9
$DIMZIN
 70
     0
  9
$DIMBLK
  1

  9
$DIMASO
 70
     1
  9
$DIMSHO
 70
     1
  9
$DIMPOST
  1

  9
$DIMAPOST
  1

  9
$DIMALT
 70
     0
  9
$DIMALTD
 70
     2
  9
$DIMALTF
 40
25.4
  9
$DIMLFAC
 40
1.0
  9
$DIMTOFL
 70
     0
  9
$DIMTVP
 40
0.0
  9
$DIMTIX
 70
     0
  9
$DIMSOXD
 70
     0
  9
$DIMSAH
 70
     0
  9
$DIMBLK1
  1

  9
$DIMBLK2
  1

  9
$DIMSTYLE
  2
STANDARD
  9
$DIMCLRD
 70
     0
  9
$DIMCLRE
 70
     0
  9
$DIMCLRT
 70
     0
  9
$DIMTFAC
 40
1.0
  9
$DIMGAP
 40
0.09
  9
$LUNITS
 70
     2
  9
$LUPREC
 70
     4
  9
$AXISMODE
 70
     0
  9
$AXISUNIT
 10
0.0
 20
0.0
  9
$SKETCHINC
 40
0.1
  9
$FILLETRAD
 40
0.0
  9
$AUNITS
 70
     0
  9
$AUPREC
 70
     0
  9
$MENU
  1
acad
  9
$ELEVATION
 40
0.0
  9
$PELEVATION
 40
0.0
  9
$THICKNESS
 40
0.0
  9
$LIMCHECK
 70
     0
  9
$BLIPMODE
 70
     1
  9
$CHAMFERA
 40
0.0
  9
$CHAMFERB
 40
0.0
  9
$SKPOLY
 70
     0
  9
$TDCREATE
 40
2453013.904108796
  9
$TDUPDATE
 40
2453013.904108796
  9
$TDINDWG
 40
0.0000000000
  9
$TDUSRTIMER
 40
0.0000000000
  9
$USRTIMER
 70
     1
  9
$ANGBASE
 50
0.0
  9
$ANGDIR
 70
     0
  9
$PDMODE
 70
     0
  9
$PDSIZE
 40
0.0
  9
$PLINEWID
 40
0.0
  9
$COORDS
 70
     0
  9
$SPLFRAME
 70
     0
  9
$SPLINETYPE
 70
     6
  9
$SPLINESEGS
 70
    10
  9
$ATTDIA
 70
     0
  9
$ATTREQ
 70
     1
  9
$HANDLING
 70
     1
  9
$HANDSEED
  5
5A4
  9
$SURFTAB1
 70
     6
  9
$SURFTAB2
 70
     6
  9
$SURFTYPE
 70
     6
  9
$SURFU
 70
     6
  9
$SURFV
 70
     6
  9
$UCSNAME
  2

  9
$UCSORG
 10
0.0
 20
0.0
 30
0.0
  9
$UCSXDIR
 10
1.0
 20
0.0
 30
0.0
  9
$UCSYDIR
 10
0.0
 20
1.0
 30
0.0
  9
$PUCSNAME
  2

  9
$PUCSORG
 10
0.0
 20
0.0
 30
0.0
  9
$PUCSXDIR
 10
1.0
 20
0.0
 30
0.0
  9
$PUCSYDIR
 10
0.0
 20
1.0
 30
0.0
  9
$USERI1
 70
     0
  9
$USERI2
 70
     0
  9
$USERI3
 70
     0
  9
$USERI4
 70
     0
  9
$USERI5
 70
     0
  9
$USERR1
 40
0.0
  9
$USERR2
 40
0.0
  9
$USERR3
 40
0.0
  9
$USERR4
 40
0.0
  9
$USERR5
 40
0.0
  9
$WORLDVIEW
 70
     1
  9
$SHADEDGE
 70
     3
  9
$SHADEDIF
 70
    70
  9
$TILEMODE
 70
     1
  9
$MAXACTVP
 70
    16
  9
$PINSBASE
 10
0.0
 20
0.0
 30
0.0
  9
$PLIMCHECK
 70
     0
  9
$PEXTMIN
 10
-1.000000E+20
 20
-1.000000E+20
 30
-1.000000E+20
  9
$PEXTMAX
 10
-1.000000E+20
 20
-1.000000E+20
 30
-1.000000E+20
  9
$PLIMMIN
 10
0.0
 20
0.0
  9
$PLIMMAX
 10
12.0
 20
9.0
  9
$UNITMODE
 70
     0
  9
$VISRETAIN
 70
     0
  9
$PLINEGEN
 70
     1
  9
$PSLTSCALE
 70
     0
  9
$TREEDEPTH
 70
  3020
  9
$DWGCODEPAGE
  3
ansi_1252
  0
ENDSEC
  0
SECTION
  2
TABLES
  0
TABLE
  2
VPORT
 70
     1
  0
VPORT
  2
*ACTIVE
 70
     0
 10
0.0
 20
0.0
 11
1.0
 21
1.0
 12
0.0
 22
0.0
 13
0.0
 23
0.0
 14
0.0
 24
0.0
 15
0.0
 25
0.0
 16
0.0
 26
0.0
 36
1.0
 17
907551.55629
 27
7277006.632845
 37
0.0
 40
5295.076
 41
1.246459
 42
50.0
 43
0.004
 44
0.0
 50
1.701864
 51
0.0
 71
     0
 72
   100
 73
     1
 74
     0
 75
     0
 76
     0
 77
     0
 78
     0
  0
ENDTAB
  0
TABLE
  2
LTYPE
 70
     7
  0
LTYPE
  2
CONTINUOUS
 70
     0
  3
Solid line
 72
    65
 73
     0
 40
0.0
  0
LTYPE
  2
DOT
 70
    64
  3
. . . . . . . . . . . . . . . . . . . . . . . . . . . . . . . . .
 72
    65
 73
     2
 40
0.25
 49
0.0
 49
-0.25
  0
LTYPE
  2
HIDDEN
 70
    64
  3
__ __ __ __ __ __ __ __ __ __ __ __ __ __ __ __ __ __ __ __ __ 
 72
    65
 73
     2
 40
0.375
 49
0.25
 49
-0.125
  0
LTYPE
  2
DASHED
 70
    64
  3
__ __ __ __ __ __ __ __ __ __ __ __ __ __ __ __ __ __ __ __ __
 72
    65
 73
     2
 40
0.75
 49
0.5
 49
-0.25
  0
LTYPE
  2
DASHDOT
 70
    64
  3
__ . __ . __ . __ . __ . __ . __ . __ . __ . __ . __ . __ . _
 72
    65
 73
     4
 40
1.0
 49
0.5
 49
-0.25
 49
0.0
 49
-0.25
  0
LTYPE
  2
DIVIDE
 70
    64
  3
____ . . ____ . . ____ . . ____ . . ____ . . ____ . . ____ . .
 72
    65
 73
     6
 40
1.25
 49
0.5
 49
-0.25
 49
0.0
 49
-0.25
 49
0.0
 49
-0.25
  0
LTYPE
  2
CENTER
 70
    64
  3
____ _ ____ _ ____ _ ____ _ ____ _ ____ _ ____ _ ____ _ ____ _
 72
    65
 73
     4
 40
2.0
 49
1.25
 49
-0.25
 49
0.25
 49
-0.25
  0
ENDTAB
  0
TABLE
  2
LAYER
 70
    28
  0
LAYER
  2
0
 70
     0
 62
     7
  6
CONTINUOUS
  0
LAYER
  2
CONSTRUCTION_CLASS
 70
     1
 62
     7
  6
CONTINUOUS
  0
LAYER
  2
PATTERN_CLASS
 70
     0
 62
     7
  6
CONTINUOUS
  0
LAYER
  2
6
 70
    64
 62
     7
  6
CONTINUOUS
  0
LAYER
  2
7
 70
    64
 62
     7
  6
CONTINUOUS
  0
LAYER
  2
10
 70
    64
 62
     7
  6
CONTINUOUS
  0
LAYER
  2
14
 70
    64
 62
     7
  6
CONTINUOUS
  0
LAYER
  2
19
 70
    64
 62
     7
  6
CONTINUOUS
  0
LAYER
  2
15
 70
    64
 62
     7
  6
CONTINUOUS
  0
LAYER
  2
11
 70
    64
 62
     7
  6
CONTINUOUS
  0
LAYER
  2
21
 70
    64
 62
     7
  6
CONTINUOUS
  0
LAYER
  2
1
 70
    64
 62
     7
  6
CONTINUOUS
  0
LAYER
  2
22
 70
    64
 62
     7
  6
CONTINUOUS
  0
LAYER
  2
13
 70
    64
 62
     7
  6
CONTINUOUS
  0
LAYER
  2
-6
 70
    64
 62
     7
  6
CONTINUOUS
  0
LAYER
  2
-7
 70
    64
 62
     7
  6
CONTINUOUS
  0
LAYER
  2
-27
 70
    64
 62
     7
  6
CONTINUOUS
  0
LAYER
  2
-10
 70
    64
 62
     7
  6
CONTINUOUS
  0
LAYER
  2
-11
 70
    64
 62
     7
  6
CONTINUOUS
  0
LAYER
  2
DEFPOINTS
 70
    64
 62
     7
  6
CONTINUOUS
  0
LAYER
  2
-19
 70
    64
 62
     7
  6
CONTINUOUS
  0
LAYER
  2
-15
 70
    64
 62
     7
  6
CONTINUOUS
  0
LAYER
  2
-1
 70
    64
 62
     7
  6
CONTINUOUS
  0
LAYER
  2
-14
 70
    64
 62
     7
  6
CONTINUOUS
  0
LAYER
  2
-22
 70
    64
 62
     7
  6
CONTINUOUS
  0
LAYER
  2
-21
 70
    64
 62
     7
  6
CONTINUOUS
  0
LAYER
  2
-13
 70
    64
 62
     7
  6
CONTINUOUS
  0
LAYER
  2
-28
 70
    64
 62
     7
  6
CONTINUOUS
  0
ENDTAB
  0
TABLE
  2
STYLE
 70
     4
  0
STYLE
  2
STANDARD
 70
     0
 40
0.0
 41
1.0
 50
0.0
 71
     0
 42
0.0
  3
txt
  4

  0
STYLE
  2
ROMANS
 70
     0
 40
0.2
 41
1.0
 50
0.0
 71
     0
 42
0.2
  3
ROMANS
  4

  0
STYLE
  2
ROMANC
 70
     0
 40
0.2
 41
1.0
 50
0.0
 71
     0
 42
0.2
  3
ROMANC
  4

  0
STYLE
  2
txt
 70
     0
 40
0.2
 41
1.0
 50
0.0
 71
     0
 42
0.2
  3
TXT
  4

  0
ENDTAB
  0
TABLE
  2
VIEW
 70
     0
  0
ENDTAB
  0
TABLE
  2
UCS
 70
     0
  0
ENDTAB
  0
TABLE
  2
APPID
 70
     1
  0
APPID
  2
ACAD
 70
     0
  0
ENDTAB
  0
TABLE
  2
DIMSTYLE
 70
     2
  0
DIMSTYLE
  2
STANDARD
 70
     0
  3

  4

  5

  6

  7

 40
1.0
 41
0.18
 42
0.0625
 43
0.38
 44
0.18
 45
0.0
 46
0.0
 47
0.0
 48
0.0
140
0.18
141
0.09
142
0.0
143
25.4
144
1.0
145
0.0
146
1.0
147
0.09
 71
     0
 72
     0
 73
     1
 74
     1
 75
     0
 76
     0
 77
     0
 78
     0
170
     0
171
     2
172
     0
173
     0
174
     0
175
     0
176
     0
177
     0
178
     0
  0
DIMSTYLE
  2
MSADIM
 70
     0
  3

  4

  5

  6

  7

 40
1.0
 41
8.0
 42
4.0
 43
0.0
 44
4.0
 45
0.0
 46
0.0
 47
0.0
 48
0.0
140
8.0
141
4.0
142
0.0
143
25.4
144
1.0
145
4.0
146
1.0
147
4.0
 71
     0
 72
     0
 73
     1
 74
     1
 75
     1
 76
     1
 77
     0
 78
     2
170
     0
171
     2
172
     0
173
     0
174
     0
175
     0
176
     0
177
     0
178
     0
  0
ENDTAB
  0
ENDSEC
  0
SECTION
  2
BLOCKS
  0
BLOCK
  8
-11
  6
CONTINUOUS
 62
     7
  5
37B
  2
*D0
 70
     1
 10
0.0
 20
0.0
 30
0.0
  3
*N0
  0
TEXT
  8
-11
  6
CONTINUOUS
 62
     7
  5
37C
 10
905253.976
 20
7274174.466
 30
0.0
 40
8.0
  1
S04%%d55'46.42"W
 50
85.070439
  7
ROMANS
 72
     1
 11
905250.720108
 21
7274229.814511
 31
0.0
210
0.0
220
0.0
230
1.0
 73
     3
  0
TEXT
  8
-11
  6
CONTINUOUS
 62
     7
  5
37D
 10
905241.604
 20
7274217.218
 30
0.0
 40
8.0
  1
182'
 50
85.070439
  7
ROMANS
 72
     1
 11
905242.749718
 21
7274230.501682
 31
0.0
210
0.0
220
0.0
230
1.0
  0
ENDBLK
  8
-11
  6
CONTINUOUS
 62
     7
  5
37E
  0
ENDSEC
  0
SECTION
  2
ENTITIES
  0
LINE
  8
6
  6
CONTINUOUS
 62
     7
  5
29
 10
910329.142
 20
7279691.48
 30
0.0
 11
909669.488
 21
7279712.828
 31
0.0
  0
LINE
  8
6
  6
CONTINUOUS
 62
     7
  5
2A
 10
908088.137
 20
7279769.008
 30
0.0
 11
908087.975
 21
7279764.01
 31
0.0
  0
LINE
  8
6
  6
CONTINUOUS
 62
     7
  5
2B
 10
908057.021
 20
7279734.996
 30
0.0
 11
908054.757
 21
7279665.033
 31
0.0
  0
POLYLINE
  8
6
  6
CONTINUOUS
 62
     7
  5
2C
 66
     1
 10
0.0
 20
0.0
 30
0.0
  0
VERTEX
  8
6
  6
CONTINUOUS
 62
     7
  5
2D
 10
908820.191
 20
7279129.995
 30
0.0
  0
VERTEX
  8
6
  6
CONTINUOUS
 62
     7
  5
2E
 10
908032.604
 20
7279155.483
 30
0.0
  0
VERTEX
  8
6
  6
CONTINUOUS
 62
     7
  5
2F
 10
908036.323
 20
7279270.423
 30
0.0
  0
SEQEND
  8
6
  6
CONTINUOUS
 62
     7
  5
30
  0
LINE
  8
6
  6
CONTINUOUS
 62
     7
  5
31
 10
908824.396
 20
7279259.927
 30
0.0
 11
908051.8
 21
7279284.929
 31
0.0
  0
ARC
  8
6
  6
CONTINUOUS
 62
     7
  5
32
 10
908051.315361
 20
7279269.937594
 30
0.0
 40
15.0
 50
88.1464
 51
178.1464
210
0.0
220
0.0
230
1.0
  0
LINE
  8
6
  6
CONTINUOUS
 62
     7
  5
33
 10
909279.853
 20
7279730.44
 30
0.0
 11
909266.592
 21
7279320.655
 31
0.0
  0
ARC
  8
6
  6
CONTINUOUS
 62
     7
  5
34
 10
908087.005338
 20
7279734.026013
 30
0.0
 40
30.0
 50
88.1464
 51
178.1464
210
0.0
220
0.0
230
1.0
  0
ARC
  8
6
  6
CONTINUOUS
 62
     7
  5
35
 10
908054.226481
 20
7279359.8905
 30
0.0
 40
15.0
 50
178.1464
 51
268.1464
210
0.0
220
0.0
230
1.0
  0
LINE
  8
7
  6
CONTINUOUS
 62
     7
  5
37
 10
908724.449
 20
7279263.161
 30
0.0
 11
908720.244
 21
7279133.229
 31
0.0
  0
LINE
  8
7
  6
CONTINUOUS
 62
     7
  5
38
 10
908390.633
 20
7279464.064
 30
0.0
 11
908386.428
 21
7279334.132
 31
0.0
  0
LINE
  8
7
  6
CONTINUOUS
 62
     7
  5
39
 10
908624.5
 20
7279266.396
 30
0.0
 11
908620.295
 21
7279136.464
 31
0.0
  0
LINE
  8
7
  6
CONTINUOUS
 62
     7
  5
3A
 10
908524.553
 20
7279269.631
 30
0.0
 11
908520.348
 21
7279139.699
 31
0.0
  0
LINE
  8
7
  6
CONTINUOUS
 62
     7
  5
3B
 10
908424.605
 20
7279272.865
 30
0.0
 11
908420.4
 21
7279142.933
 31
0.0
  0
LINE
  8
7
  6
CONTINUOUS
 62
     7
  5
3C
 10
908324.658
 20
7279276.1
 30
0.0
 11
908320.453
 21
7279146.168
 31
0.0
  0
LINE
  8
7
  6
CONTINUOUS
 62
     7
  5
3D
 10
908224.71
 20
7279279.334
 30
0.0
 11
908220.505
 21
7279149.402
 31
0.0
  0
LINE
  8
7
  6
CONTINUOUS
 62
     7
  5
3E
 10
908134.757
 20
7279282.245
 30
0.0
 11
908130.552
 21
7279152.313
 31
0.0
  0
LINE
  8
7
  6
CONTINUOUS
 62
     7
  5
3F
 10
908307.676
 20
7279466.748
 30
0.0
 11
908303.471
 21
7279336.816
 31
0.0
  0
LINE
  8
7
  6
CONTINUOUS
 62
     7
  5
40
 10
908224.719
 20
7279469.433
 30
0.0
 11
908220.514
 21
7279339.501
 31
0.0
  0
LINE
  8
7
  6
CONTINUOUS
 62
     7
  5
41
 10
908141.762
 20
7279472.117
 30
0.0
 11
908137.557
 21
7279342.185
 31
0.0
  0
LINE
  8
6
  6
CONTINUOUS
 62
     7
  5
42
 10
905278.472
 20
7275102.048
 30
0.0
 11
907562.813
 21
7275028.356
 31
0.0
  0
LINE
  8
6
  6
CONTINUOUS
 62
     7
  5
43
 10
907562.813
 20
7275028.356
 30
0.0
 11
907549.839
 21
7274626.166
 31
0.0
  0
LINE
  8
7
  6
CONTINUOUS
 62
     7
  5
44
 10
905476.898
 20
7275095.648
 30
0.0
 11
905463.924
 21
7274693.457
 31
0.0
  0
LINE
  8
7
  6
CONTINUOUS
 62
     7
  5
45
 10
905685.49
 20
7275088.919
 30
0.0
 11
905672.516
 21
7274686.728
 31
0.0
  0
LINE
  8
7
  6
CONTINUOUS
 62
     7
  5
46
 10
905894.082
 20
7275082.19
 30
0.0
 11
905881.107
 21
7274679.999
 31
0.0
  0
LINE
  8
7
  6
CONTINUOUS
 62
     7
  5
47
 10
906102.673
 20
7275075.461
 30
0.0
 11
906089.699
 21
7274673.27
 31
0.0
  0
LINE
  8
7
  6
CONTINUOUS
 62
     7
  5
48
 10
906311.264
 20
7275068.732
 30
0.0
 11
906298.29
 21
7274666.541
 31
0.0
  0
LINE
  8
7
  6
CONTINUOUS
 62
     7
  5
49
 10
906519.856
 20
7275062.002
 30
0.0
 11
906506.881
 21
7274659.812
 31
0.0
  0
LINE
  8
7
  6
CONTINUOUS
 62
     7
  5
4A
 10
906728.448
 20
7275055.273
 30
0.0
 11
906715.473
 21
7274653.083
 31
0.0
  0
LINE
  8
7
  6
CONTINUOUS
 62
     7
  5
4B
 10
906937.039
 20
7275048.544
 30
0.0
 11
906924.065
 21
7274646.353
 31
0.0
  0
LINE
  8
7
  6
CONTINUOUS
 62
     7
  5
4C
 10
907145.63
 20
7275041.814
 30
0.0
 11
907132.655
 21
7274639.624
 31
0.0
  0
LINE
  8
7
  6
CONTINUOUS
 62
     7
  5
4D
 10
907354.222
 20
7275035.086
 30
0.0
 11
907341.247
 21
7274632.895
 31
0.0
  0
LINE
  8
6
  6
CONTINUOUS
 62
     7
  5
4E
 10
908942.044
 20
7274581.254
 30
0.0
 11
908637.743
 21
7274591.07
 31
0.0
  0
LINE
  8
6
  6
CONTINUOUS
 62
     7
  5
4F
 10
907863.146
 20
7274616.059
 30
0.0
 11
907589.818
 21
7274624.876
 31
0.0
  0
TEXT
  8
10
  6
CONTINUOUS
 62
   134
  5
52
 10
907401.77
 20
7274819.863
 30
0.0
 40
13.999
  1
TRACT 1
 50
358.1523
  7
ROMANS
 11
907402.221368
 21
7274833.854721
 31
0.0
210
0.0
220
0.0
230
1.0
 73
     3
  0
TEXT
  8
10
  6
CONTINUOUS
 62
   134
  5
53
 10
907195.465
 20
7274826.518
 30
0.0
 40
13.999
  1
TRACT 2
 50
358.1523
  7
ROMANS
 11
907195.916368
 21
7274840.509721
 31
0.0
210
0.0
220
0.0
230
1.0
 73
     3
  0
TEXT
  8
10
  6
CONTINUOUS
 62
   134
  5
54
 10
906978.579
 20
7274833.515
 30
0.0
 40
13.999
  1
TRACT 3
 50
358.1523
  7
ROMANS
 11
906979.030368
 21
7274847.506721
 31
0.0
210
0.0
220
0.0
230
1.0
 73
     3
  0
TEXT
  8
10
  6
CONTINUOUS
 62
   134
  5
55
 10
906785.499
 20
7274839.744
 30
0.0
 40
13.999
  1
TRACT 4
 50
358.1523
  7
ROMANS
 11
906785.950368
 21
7274853.735721
 31
0.0
210
0.0
220
0.0
230
1.0
 73
     3
  0
TEXT
  8
10
  6
CONTINUOUS
 62
   134
  5
56
 10
906568.614
 20
7274846.74
 30
0.0
 40
13.999
  1
TRACT 5
 50
358.1523
  7
ROMANS
 11
906569.065368
 21
7274860.731721
 31
0.0
210
0.0
220
0.0
230
1.0
 73
     3
  0
TEXT
  8
10
  6
CONTINUOUS
 62
   134
  5
57
 10
906359.663
 20
7274853.481
 30
0.0
 40
13.999
  1
TRACT 6
 50
358.1523
  7
ROMANS
 11
906360.114368
 21
7274867.472721
 31
0.0
210
0.0
220
0.0
230
1.0
 73
     3
  0
TEXT
  8
10
  6
CONTINUOUS
 62
   134
  5
58
 10
906161.294
 20
7274859.88
 30
0.0
 40
13.999
  1
TRACT 7
 50
358.1523
  7
ROMANS
 11
906161.745368
 21
7274873.871721
 31
0.0
210
0.0
220
0.0
230
1.0
 73
     3
  0
TEXT
  8
10
  6
CONTINUOUS
 62
   134
  5
59
 10
905944.409
 20
7274866.877
 30
0.0
 40
13.999
  1
TRACT 8
 50
358.1523
  7
ROMANS
 11
905944.860368
 21
7274880.868721
 31
0.0
210
0.0
220
0.0
230
1.0
 73
     3
  0
TEXT
  8
10
  6
CONTINUOUS
 62
   134
  5
5A
 10
905746.038
 20
7274873.276
 30
0.0
 40
13.999
  1
TRACT 9
 50
358.1523
  7
ROMANS
 11
905746.489368
 21
7274887.267721
 31
0.0
210
0.0
220
0.0
230
1.0
 73
     3
  0
TEXT
  8
10
  6
CONTINUOUS
 62
   134
  5
5B
 10
905529.155
 20
7274880.272
 30
0.0
 40
13.999
  1
TRACT10
 50
358.1523
  7
ROMANS
 11
905529.606368
 21
7274894.263721
 31
0.0
210
0.0
220
0.0
230
1.0
 73
     3
  0
TEXT
  8
10
  6
CONTINUOUS
 62
   134
  5
5C
 10
905328.139
 20
7274886.757
 30
0.0
 40
13.999
  1
TRACT11
 50
358.1523
  7
ROMANS
 11
905328.590368
 21
7274900.748721
 31
0.0
210
0.0
220
0.0
230
1.0
 73
     3
  0
TEXT
  8
10
  6
CONTINUOUS
 62
   134
  5
5D
 10
909252.594
 20
7274648.805
 30
0.0
 40
13.999
  1
A
 50
358.1523
  7
ROMANS
 11
909253.045368
 21
7274662.796721
 31
0.0
210
0.0
220
0.0
230
1.0
 73
     3
  0
LINE
  8
7
  6
CONTINUOUS
 62
     7
  5
5E
 10
908002.828
 20
7275069.191
 30
0.0
 11
908009.316
 21
7275270.285
 31
0.0
  0
LINE
  8
7
  6
CONTINUOUS
 62
     7
  5
5F
 10
908001.216
 20
7275019.217
 30
0.0
 11
907994.69
 21
7274816.922
 31
0.0
  0
LINE
  8
7
  6
CONTINUOUS
 62
     7
  5
60
 10
907994.045
 20
7274796.932
 30
0.0
 11
907988.08
 21
7274612.029
 31
0.0
  0
LINE
  8
7
  6
CONTINUOUS
 62
     7
  5
61
 10
908102.777
 20
7275065.966
 30
0.0
 11
908109.264
 21
7275267.062
 31
0.0
  0
LINE
  8
7
  6
CONTINUOUS
 62
     7
  5
62
 10
908202.725
 20
7275062.742
 30
0.0
 11
908209.212
 21
7275263.837
 31
0.0
  0
LINE
  8
7
  6
CONTINUOUS
 62
     7
  5
63
 10
908302.673
 20
7275059.518
 30
0.0
 11
908309.159
 21
7275260.613
 31
0.0
  0
LINE
  8
7
  6
CONTINUOUS
 62
     7
  5
64
 10
908402.62
 20
7275056.294
 30
0.0
 11
908409.109
 21
7275257.389
 31
0.0
  0
LINE
  8
7
  6
CONTINUOUS
 62
     7
  5
65
 10
908502.569
 20
7275053.069
 30
0.0
 11
908509.056
 21
7275254.164
 31
0.0
  0
LINE
  8
7
  6
CONTINUOUS
 62
     7
  5
66
 10
908101.165
 20
7275015.993
 30
0.0
 11
908094.638
 21
7274813.698
 31
0.0
  0
LINE
  8
7
  6
CONTINUOUS
 62
     7
  5
67
 10
908201.113
 20
7275012.768
 30
0.0
 11
908194.587
 21
7274810.473
 31
0.0
  0
LINE
  8
7
  6
CONTINUOUS
 62
     7
  5
68
 10
908301.06
 20
7275009.543
 30
0.0
 11
908294.534
 21
7274807.25
 31
0.0
  0
LINE
  8
7
  6
CONTINUOUS
 62
     7
  5
69
 10
908401.009
 20
7275006.32
 30
0.0
 11
908394.482
 21
7274804.025
 31
0.0
  0
LINE
  8
7
  6
CONTINUOUS
 62
     7
  5
6A
 10
908500.956
 20
7275003.095
 30
0.0
 11
908494.43
 21
7274800.801
 31
0.0
  0
LINE
  8
7
  6
CONTINUOUS
 62
     7
  5
6B
 10
908093.995
 20
7274793.707
 30
0.0
 11
908088.03
 21
7274608.805
 31
0.0
  0
LINE
  8
7
  6
CONTINUOUS
 62
     7
  5
6C
 10
908193.942
 20
7274790.483
 30
0.0
 11
908187.977
 21
7274605.581
 31
0.0
  0
LINE
  8
7
  6
CONTINUOUS
 62
     7
  5
6D
 10
908293.889
 20
7274787.259
 30
0.0
 11
908287.925
 21
7274602.355
 31
0.0
  0
LINE
  8
7
  6
CONTINUOUS
 62
     7
  5
6E
 10
908393.838
 20
7274784.035
 30
0.0
 11
908387.873
 21
7274599.131
 31
0.0
  0
LINE
  8
7
  6
CONTINUOUS
 62
     7
  5
6F
 10
908493.785
 20
7274780.81
 30
0.0
 11
908487.821
 21
7274595.907
 31
0.0
  0
LINE
  8
7
  6
CONTINUOUS
 62
     7
  5
70
 10
908756.897
 20
7275044.865
 30
0.0
 11
908763.384
 21
7275245.96
 31
0.0
  0
LINE
  8
7
  6
CONTINUOUS
 62
     7
  5
71
 10
908755.285
 20
7274994.891
 30
0.0
 11
908748.759
 21
7274792.596
 31
0.0
  0
LINE
  8
7
  6
CONTINUOUS
 62
     7
  5
72
 10
908748.114
 20
7274772.606
 30
0.0
 11
908742.149
 21
7274587.703
 31
0.0
  0
LINE
  8
7
  6
CONTINUOUS
 62
     7
  5
73
 10
908856.845
 20
7275041.641
 30
0.0
 11
908863.331
 21
7275242.736
 31
0.0
  0
LINE
  8
7
  6
CONTINUOUS
 62
     7
  5
74
 10
908956.792
 20
7275038.417
 30
0.0
 11
908963.281
 21
7275239.512
 31
0.0
  0
LINE
  8
7
  6
CONTINUOUS
 62
     7
  5
75
 10
908855.232
 20
7274991.667
 30
0.0
 11
908848.706
 21
7274789.372
 31
0.0
  0
LINE
  8
7
  6
CONTINUOUS
 62
     7
  5
76
 10
908848.061
 20
7274769.382
 30
0.0
 11
908842.097
 21
7274584.478
 31
0.0
  0
LINE
  8
7
  6
CONTINUOUS
 62
     7
  5
77
 10
908948.009
 20
7274766.158
 30
0.0
 11
908941.561
 21
7274566.262
 31
0.0
  0
LINE
  8
7
  6
CONTINUOUS
 62
     7
  5
78
 10
909165.394
 20
7275031.686
 30
0.0
 11
909171.881
 21
7275232.782
 31
0.0
  0
TEXT
  8
10
  6
CONTINUOUS
 62
   134
  5
79
 10
907936.87
 20
7275150.552
 30
0.0
 40
13.999
  1
 1
 50
358.1523
  7
ROMANS
 11
907937.321368
 21
7275164.543721
 31
0.0
210
0.0
220
0.0
230
1.0
 73
     3
  0
TEXT
  8
10
  6
CONTINUOUS
 62
   134
  5
7A
 10
907921.926
 20
7274687.323
 30
0.0
 40
13.999
  1
 1
 50
358.1523
  7
ROMANS
 11
907922.377368
 21
7274701.314721
 31
0.0
210
0.0
220
0.0
230
1.0
 73
     3
  0
TEXT
  8
10
  6
CONTINUOUS
 62
   134
  5
7B
 10
908675.733
 20
7274663.006
 30
0.0
 40
13.999
  1
 1
 50
358.1523
  7
ROMANS
 11
908676.184368
 21
7274676.997721
 31
0.0
210
0.0
220
0.0
230
1.0
 73
     3
  0
TEXT
  8
10
  6
CONTINUOUS
 62
   134
  5
7C
 10
908690.591
 20
7275123.589
 30
0.0
 40
13.999
  1
 1
 50
358.1523
  7
ROMANS
 11
908691.042368
 21
7275137.580721
 31
0.0
210
0.0
220
0.0
230
1.0
 73
     3
  0
TEXT
  8
10
  6
CONTINUOUS
 62
   134
  5
7D
 10
908793.743
 20
7275120.26
 30
0.0
 40
13.999
  1
 2
 50
358.1523
  7
ROMANS
 11
908794.194368
 21
7275134.251721
 31
0.0
210
0.0
220
0.0
230
1.0
 73
     3
  0
TEXT
  8
10
  6
CONTINUOUS
 62
   134
  5
7E
 10
908888.961
 20
7275117.189
 30
0.0
 40
13.999
  1
 3
 50
358.1523
  7
ROMANS
 11
908889.412368
 21
7275131.180721
 31
0.0
210
0.0
220
0.0
230
1.0
 73
     3
  0
TEXT
  8
10
  6
CONTINUOUS
 62
   134
  5
7F
 10
909052.947
 20
7275111.899
 30
0.0
 40
13.999
  1
 4
 50
358.1523
  7
ROMANS
 11
909053.398368
 21
7275125.890721
 31
0.0
210
0.0
220
0.0
230
1.0
 73
     3
  0
TEXT
  8
10
  6
CONTINUOUS
 62
   134
  5
80
 10
909240.737
 20
7275105.841
 30
0.0
 40
13.999
  1
 5
 50
358.1523
  7
ROMANS
 11
909241.188368
 21
7275119.832721
 31
0.0
210
0.0
220
0.0
230
1.0
 73
     3
  0
TEXT
  8
10
  6
CONTINUOUS
 62
   134
  5
81
 10
908439.322
 20
7275131.695
 30
0.0
 40
13.999
  1
 6
 50
358.1523
  7
ROMANS
 11
908439.773368
 21
7275145.686721
 31
0.0
210
0.0
220
0.0
230
1.0
 73
     3
  0
TEXT
  8
10
  6
CONTINUOUS
 62
   134
  5
82
 10
908542.474
 20
7275128.366
 30
0.0
 40
13.999
  1
 7
 50
358.1523
  7
ROMANS
 11
908542.925368
 21
7275142.357721
 31
0.0
210
0.0
220
0.0
230
1.0
 73
     3
  0
TEXT
  8
10
  6
CONTINUOUS
 62
   134
  5
83
 10
908534.448
 20
7274879.546
 30
0.0
 40
13.999
  1
 8
 50
358.1523
  7
ROMANS
 11
908534.899368
 21
7274893.537721
 31
0.0
210
0.0
220
0.0
230
1.0
 73
     3
  0
TEXT
  8
10
  6
CONTINUOUS
 62
   134
  5
84
 10
908431.295
 20
7274882.874
 30
0.0
 40
13.999
  1
 9
 50
358.1523
  7
ROMANS
 11
908431.746368
 21
7274896.865721
 31
0.0
210
0.0
220
0.0
230
1.0
 73
     3
  0
TEXT
  8
10
  6
CONTINUOUS
 62
   134
  5
85
 10
908330.788
 20
7274886.117
 30
0.0
 40
13.999
  1
10
 50
358.1523
  7
ROMANS
 11
908331.239368
 21
7274900.108721
 31
0.0
210
0.0
220
0.0
230
1.0
 73
     3
  0
TEXT
  8
10
  6
CONTINUOUS
 62
   134
  5
86
 10
908232.925
 20
7274889.273
 30
0.0
 40
13.999
  1
11
 50
358.1523
  7
ROMANS
 11
908233.376368
 21
7274903.264721
 31
0.0
210
0.0
220
0.0
230
1.0
 73
     3
  0
TEXT
  8
10
  6
CONTINUOUS
 62
   134
  5
87
 10
908137.706
 20
7274892.345
 30
0.0
 40
13.999
  1
12
 50
358.1523
  7
ROMANS
 11
908138.157368
 21
7274906.336721
 31
0.0
210
0.0
220
0.0
230
1.0
 73
     3
  0
TEXT
  8
10
  6
CONTINUOUS
 62
   134
  5
88
 10
908039.845
 20
7274895.503
 30
0.0
 40
13.999
  1
13
 50
358.1523
  7
ROMANS
 11
908040.296368
 21
7274909.494721
 31
0.0
210
0.0
220
0.0
230
1.0
 73
     3
  0
TEXT
  8
10
  6
CONTINUOUS
 62
   134
  5
89
 10
907936.692
 20
7274898.829
 30
0.0
 40
13.999
  1
14
 50
358.1523
  7
ROMANS
 11
907937.143368
 21
7274912.820721
 31
0.0
210
0.0
220
0.0
230
1.0
 73
     3
  0
TEXT
  8
10
  6
CONTINUOUS
 62
   134
  5
8A
 10
908030.369
 20
7274683.826
 30
0.0
 40
13.999
  1
 2
 50
358.1523
  7
ROMANS
 11
908030.820368
 21
7274697.817721
 31
0.0
210
0.0
220
0.0
230
1.0
 73
     3
  0
TEXT
  8
10
  6
CONTINUOUS
 62
   134
  5
8B
 10
908128.232
 20
7274680.668
 30
0.0
 40
13.999
  1
 3
 50
358.1523
  7
ROMANS
 11
908128.683368
 21
7274694.659721
 31
0.0
210
0.0
220
0.0
230
1.0
 73
     3
  0
TEXT
  8
10
  6
CONTINUOUS
 62
   134
  5
8C
 10
908228.738
 20
7274677.426
 30
0.0
 40
13.999
  1
 4
 50
358.1523
  7
ROMANS
 11
908229.189368
 21
7274691.417721
 31
0.0
210
0.0
220
0.0
230
1.0
 73
     3
  0
TEXT
  8
10
  6
CONTINUOUS
 62
   134
  5
8D
 10
908323.957
 20
7274674.354
 30
0.0
 40
13.999
  1
 5
 50
358.1523
  7
ROMANS
 11
908324.408368
 21
7274688.345721
 31
0.0
210
0.0
220
0.0
230
1.0
 73
     3
  0
TEXT
  8
10
  6
CONTINUOUS
 62
   134
  5
8E
 10
908429.753
 20
7274670.941
 30
0.0
 40
13.999
  1
 6
 50
358.1523
  7
ROMANS
 11
908430.204368
 21
7274684.932721
 31
0.0
210
0.0
220
0.0
230
1.0
 73
     3
  0
TEXT
  8
10
  6
CONTINUOUS
 62
   134
  5
8F
 10
908524.972
 20
7274667.87
 30
0.0
 40
13.999
  1
 7
 50
358.1523
  7
ROMANS
 11
908525.423368
 21
7274681.861721
 31
0.0
210
0.0
220
0.0
230
1.0
 73
     3
  0
TEXT
  8
10
  6
CONTINUOUS
 62
   134
  5
90
 10
908781.53
 20
7274659.593
 30
0.0
 40
13.999
  1
 2
 50
358.1523
  7
ROMANS
 11
908781.981368
 21
7274673.584721
 31
0.0
210
0.0
220
0.0
230
1.0
 73
     3
  0
TEXT
  8
10
  6
CONTINUOUS
 62
   134
  5
91
 10
908879.393
 20
7274656.436
 30
0.0
 40
13.999
  1
 3
 50
358.1523
  7
ROMANS
 11
908879.844368
 21
7274670.427721
 31
0.0
210
0.0
220
0.0
230
1.0
 73
     3
  0
TEXT
  8
10
  6
CONTINUOUS
 62
   134
  5
92
 10
908886.225
 20
7274868.199
 30
0.0
 40
13.999
  1
 4
 50
358.1523
  7
ROMANS
 11
908886.676368
 21
7274882.190721
 31
0.0
210
0.0
220
0.0
230
1.0
 73
     3
  0
TEXT
  8
10
  6
CONTINUOUS
 62
   134
  5
93
 10
908785.717
 20
7274871.441
 30
0.0
 40
13.999
  1
 5
 50
358.1523
  7
ROMANS
 11
908786.168368
 21
7274885.432721
 31
0.0
210
0.0
220
0.0
230
1.0
 73
     3
  0
TEXT
  8
10
  6
CONTINUOUS
 62
   134
  5
94
 10
908690.499
 20
7274874.513
 30
0.0
 40
13.999
  1
 6
 50
358.1523
  7
ROMANS
 11
908690.950368
 21
7274888.504721
 31
0.0
210
0.0
220
0.0
230
1.0
 73
     3
  0
TEXT
  8
10
  6
CONTINUOUS
 62
   134
  5
95
 10
908040.022
 20
7275147.225
 30
0.0
 40
13.999
  1
 2
 50
358.1523
  7
ROMANS
 11
908040.473368
 21
7275161.216721
 31
0.0
210
0.0
220
0.0
230
1.0
 73
     3
  0
TEXT
  8
10
  6
CONTINUOUS
 62
   134
  5
96
 10
908137.883
 20
7275144.068
 30
0.0
 40
13.999
  1
 3
 50
358.1523
  7
ROMANS
 11
908138.334368
 21
7275158.059721
 31
0.0
210
0.0
220
0.0
230
1.0
 73
     3
  0
TEXT
  8
10
  6
CONTINUOUS
 62
   134
  5
97
 10
908238.392
 20
7275140.825
 30
0.0
 40
13.999
  1
 4
 50
358.1523
  7
ROMANS
 11
908238.843368
 21
7275154.816721
 31
0.0
210
0.0
220
0.0
230
1.0
 73
     3
  0
TEXT
  8
10
  6
CONTINUOUS
 62
   134
  5
98
 10
908338.9
 20
7275137.583
 30
0.0
 40
13.999
  1
 5
 50
358.1523
  7
ROMANS
 11
908339.351368
 21
7275151.574721
 31
0.0
210
0.0
220
0.0
230
1.0
 73
     3
  0
TEXT
  8
10
  6
CONTINUOUS
 62
   134
  5
99
 10
908068.945
 20
7279212.405
 30
0.0
 40
13.999
  1
 1
 50
358.1464
  7
ROMANS
 11
908069.397809
 21
7279226.396675
 31
0.0
210
0.0
220
0.0
230
1.0
 73
     3
  0
TEXT
  8
10
  6
CONTINUOUS
 62
   134
  5
9A
 10
908161.782
 20
7279209.4
 30
0.0
 40
13.999
  1
 2
 50
358.1464
  7
ROMANS
 11
908162.234809
 21
7279223.391675
 31
0.0
210
0.0
220
0.0
230
1.0
 73
     3
  0
TEXT
  8
10
  6
CONTINUOUS
 62
   134
  5
9B
 10
908254.618
 20
7279206.396
 30
0.0
 40
13.999
  1
 3
 50
358.1464
  7
ROMANS
 11
908255.070809
 21
7279220.387675
 31
0.0
210
0.0
220
0.0
230
1.0
 73
     3
  0
TEXT
  8
10
  6
CONTINUOUS
 62
   134
  5
9C
 10
908349.964
 20
7279203.309
 30
0.0
 40
13.999
  1
 4
 50
358.1464
  7
ROMANS
 11
908350.416809
 21
7279217.300675
 31
0.0
210
0.0
220
0.0
230
1.0
 73
     3
  0
TEXT
  8
10
  6
CONTINUOUS
 62
   134
  5
9D
 10
908460.366
 20
7279199.737
 30
0.0
 40
13.999
  1
 5
 50
358.1464
  7
ROMANS
 11
908460.818809
 21
7279213.728675
 31
0.0
210
0.0
220
0.0
230
1.0
 73
     3
  0
TEXT
  8
10
  6
CONTINUOUS
 62
   134
  5
9E
 10
908555.712
 20
7279196.651
 30
0.0
 40
13.999
  1
 6
 50
358.1464
  7
ROMANS
 11
908556.164809
 21
7279210.642675
 31
0.0
210
0.0
220
0.0
230
1.0
 73
     3
  0
TEXT
  8
10
  6
CONTINUOUS
 62
   134
  5
9F
 10
908651.058
 20
7279193.566
 30
0.0
 40
13.999
  1
 7
 50
358.1464
  7
ROMANS
 11
908651.510809
 21
7279207.557675
 31
0.0
210
0.0
220
0.0
230
1.0
 73
     3
  0
TEXT
  8
10
  6
CONTINUOUS
 62
   134
  5
A0
 10
908753.931
 20
7279190.236
 30
0.0
 40
13.999
  1
 8
 50
358.1464
  7
ROMANS
 11
908754.383809
 21
7279204.227675
 31
0.0
210
0.0
220
0.0
230
1.0
 73
     3
  0
TEXT
  8
10
  6
CONTINUOUS
 62
   134
  5
A1
 10
908413.931
 20
7279394.797
 30
0.0
 40
13.999
  1
 9
 50
358.1464
  7
ROMANS
 11
908414.383809
 21
7279408.788675
 31
0.0
210
0.0
220
0.0
230
1.0
 73
     3
  0
TEXT
  8
10
  6
CONTINUOUS
 62
   134
  5
A2
 10
908333.64
 20
7279397.395
 30
0.0
 40
13.999
  1
10
 50
358.1464
  7
ROMANS
 11
908334.092809
 21
7279411.386675
 31
0.0
210
0.0
220
0.0
230
1.0
 73
     3
  0
TEXT
  8
10
  6
CONTINUOUS
 62
   134
  5
A3
 10
908253.349
 20
7279399.993
 30
0.0
 40
13.999
  1
11
 50
358.1464
  7
ROMANS
 11
908253.801809
 21
7279413.984675
 31
0.0
210
0.0
220
0.0
230
1.0
 73
     3
  0
TEXT
  8
10
  6
CONTINUOUS
 62
   134
  5
A4
 10
908170.549
 20
7279402.674
 30
0.0
 40
13.999
  1
12
 50
358.1464
  7
ROMANS
 11
908171.001809
 21
7279416.665675
 31
0.0
210
0.0
220
0.0
230
1.0
 73
     3
  0
TEXT
  8
10
  6
CONTINUOUS
 62
   134
  5
A5
 10
908075.202
 20
7279405.759
 30
0.0
 40
13.999
  1
13
 50
358.1464
  7
ROMANS
 11
908075.654809
 21
7279419.750675
 31
0.0
210
0.0
220
0.0
230
1.0
 73
     3
  0
TEXT
  8
10
  6
CONTINUOUS
 62
   134
  5
A6
 10
909494.066
 20
7279397.546
 30
0.0
 40
13.999
  1
1
 50
358.1464
  7
ROMANS
 11
909494.518809
 21
7279411.537675
 31
0.0
210
0.0
220
0.0
230
1.0
 73
     3
  0
TEXT
  8
10
  6
CONTINUOUS
 62
   134
  5
A7
 10
909981.067
 20
7279311.4
 30
0.0
 40
13.999
  1
1
 50
358.1464
  7
ROMANS
 11
909981.519809
 21
7279325.391675
 31
0.0
210
0.0
220
0.0
230
1.0
 73
     3
  0
TEXT
  8
10
  6
CONTINUOUS
 62
   134
  5
A8
 10
909696.735
 20
7278752.502
 30
0.0
 40
13.999
  1
1
 50
358.1464
  7
ROMANS
 11
909697.187809
 21
7278766.493675
 31
0.0
210
0.0
220
0.0
230
1.0
 73
     3
  0
ARC
  8
6
  6
CONTINUOUS
 62
     7
  5
A9
 10
909248.688493
 20
7279231.187349
 30
0.0
 40
15.0
 50
358.1464
 51
88.1464
210
0.0
220
0.0
230
1.0
  0
ARC
  8
6
  6
CONTINUOUS
 62
     7
  5
AA
 10
909251.599613
 20
7279321.140256
 30
0.0
 40
15.0
 50
268.1464
 51
358.1464
210
0.0
220
0.0
230
1.0
  0
LINE
  8
6
  6
CONTINUOUS
 62
     7
  5
AB
 10
908088.137
 20
7279769.008
 30
0.0
 11
909279.853
 21
7279730.44
 31
0.0
  0
LINE
  8
6
  6
CONTINUOUS
 62
     7
  5
AC
 10
908652.491
 20
7275048.233
 30
0.0
 11
908658.978
 21
7275249.328
 31
0.0
  0
LINE
  8
6
  6
CONTINUOUS
 62
     7
  5
AD
 10
910618.153
 20
7279687.13
 30
0.0
 11
910478.266
 21
7275011.826
 31
0.0
  0
LINE
  8
6
  6
CONTINUOUS
 62
     7
  5
AE
 10
910329.304
 20
7279696.478
 30
0.0
 11
910618.153
 21
7279687.13
 31
0.0
  0
LINE
  8
7
  6
CONTINUOUS
 62
     7
  5
AF
 10
909649.11
 20
7279083.158
 30
0.0
 11
909669.488
 21
7279712.828
 31
0.0
  0
LINE
  8
6
  6
CONTINUOUS
 62
     7
  5
B0
 10
909249.174
 20
7279246.18
 30
0.0
 11
908824.396
 21
7279259.927
 31
0.0
  0
LINE
  8
6
  6
CONTINUOUS
 62
     7
  5
B1
 10
908819.544
 20
7279110.005
 30
0.0
 11
908820.191
 21
7279129.995
 31
0.0
  0
LINE
  8
7
  6
CONTINUOUS
 62
     7
  5
B2
 10
908820.191
 20
7279129.995
 30
0.0
 11
908824.396
 21
7279259.927
 31
0.0
  0
LINE
  8
6
  6
CONTINUOUS
 62
     7
  5
B3
 10
909319.283
 20
7279093.832
 30
0.0
 11
909339.661
 21
7279723.502
 31
0.0
  0
LINE
  8
6
  6
CONTINUOUS
 62
     7
  5
B4
 10
909339.661
 20
7279723.502
 30
0.0
 11
909669.488
 21
7279712.828
 31
0.0
  0
LINE
  8
6
  6
CONTINUOUS
 62
     7
  5
B5
 10
909319.283
 20
7279093.832
 30
0.0
 11
909259.314
 21
7279095.773
 31
0.0
  0
LINE
  8
6
  6
CONTINUOUS
 62
     7
  5
B6
 10
909259.314
 20
7279095.773
 30
0.0
 11
909263.681
 21
7279230.702
 31
0.0
  0
LINE
  8
6
  6
CONTINUOUS
 62
     7
  5
B7
 10
909359.25
 20
7274567.796
 30
0.0
 11
909151.655
 21
7274574.492
 31
0.0
  0
LINE
  8
6
  6
CONTINUOUS
 62
     7
  5
B8
 10
909151.655
 20
7274574.492
 30
0.0
 11
909151.172
 21
7274559.5
 31
0.0
  0
LINE
  8
6
  6
CONTINUOUS
 62
     7
  5
B9
 10
909151.172
 20
7274559.5
 30
0.0
 11
908941.561
 21
7274566.262
 31
0.0
  0
LINE
  8
6
  6
CONTINUOUS
 62
     7
  5
BA
 10
909365.214
 20
7274752.699
 30
0.0
 11
909157.62
 21
7274759.396
 31
0.0
  0
LINE
  8
6
  6
CONTINUOUS
 62
     7
  5
BB
 10
909365.475
 20
7274760.764
 30
0.0
 11
909157.881
 21
7274767.462
 31
0.0
  0
LINE
  8
6
  6
CONTINUOUS
 62
     7
  5
BC
 10
909157.62
 20
7274759.396
 30
0.0
 11
909157.881
 21
7274767.462
 31
0.0
  0
LINE
  8
7
  6
CONTINUOUS
 62
     7
  5
BD
 10
909157.62
 20
7274759.396
 30
0.0
 11
909151.655
 21
7274574.492
 31
0.0
  0
LINE
  8
6
  6
CONTINUOUS
 62
     7
  5
BE
 10
905265.497
 20
7274699.858
 30
0.0
 11
905278.472
 21
7275102.048
 31
0.0
  0
LINE
  8
6
  6
CONTINUOUS
 62
     7
  5
BF
 10
905279.761
 20
7275142.028
 30
0.0
 11
905436.155
 21
7279854.828
 31
0.0
  0
LINE
  8
6
  6
CONTINUOUS
 62
     7
  5
C0
 10
907549.839
 20
7274626.166
 30
0.0
 11
905265.497
 21
7274699.858
 31
0.0
  0
LINE
  8
6
  6
CONTINUOUS
 62
     7
  5
C1
 10
907589.818
 20
7274624.876
 30
0.0
 11
907604.082
 21
7275067.047
 31
0.0
  0
LINE
  8
6
  6
CONTINUOUS
 62
     7
  5
C2
 10
907604.082
 20
7275067.047
 30
0.0
 11
905279.761
 21
7275142.028
 31
0.0
  0
LINE
  8
6
  6
CONTINUOUS
 62
     7
  5
C3
 10
907894.098
 20
7274800.158
 30
0.0
 11
907888.133
 21
7274615.253
 31
0.0
  0
LINE
  8
6
  6
CONTINUOUS
 62
     7
  5
C4
 10
908587.769
 20
7274592.682
 30
0.0
 11
908593.734
 21
7274777.587
 31
0.0
  0
LINE
  8
6
  6
CONTINUOUS
 62
     7
  5
C5
 10
907901.268
 20
7275022.441
 30
0.0
 11
907894.742
 21
7274820.147
 31
0.0
  0
LINE
  8
6
  6
CONTINUOUS
 62
     7
  5
C6
 10
908594.379
 20
7274797.577
 30
0.0
 11
908600.905
 21
7274999.871
 31
0.0
  0
LINE
  8
6
  6
CONTINUOUS
 62
     7
  5
C7
 10
907902.881
 20
7275072.414
 30
0.0
 11
907909.368
 21
7275273.51
 31
0.0
  0
LINE
  8
6
  6
CONTINUOUS
 62
     7
  5
C8
 10
908609.003
 20
7275250.94
 30
0.0
 11
908602.517
 21
7275049.845
 31
0.0
  0
LINE
  8
6
  6
CONTINUOUS
 62
     7
  5
C9
 10
908643.708
 20
7274775.974
 30
0.0
 11
908637.743
 21
7274591.07
 31
0.0
  0
LINE
  8
6
  6
CONTINUOUS
 62
     7
  5
CA
 10
908644.353
 20
7274795.965
 30
0.0
 11
908650.878
 21
7274998.259
 31
0.0
  0
LINE
  8
6
  6
CONTINUOUS
 62
     7
  5
CB
 10
908587.769
 20
7274592.682
 30
0.0
 11
907888.133
 21
7274615.253
 31
0.0
  0
LINE
  8
6
  6
CONTINUOUS
 62
     7
  5
CC
 10
907863.146
 20
7274616.059
 30
0.0
 11
907885.026
 21
7275294.307
 31
0.0
  0
LINE
  8
6
  6
CONTINUOUS
 62
     7
  5
CD
 10
908609.003
 20
7275250.94
 30
0.0
 11
907909.368
 21
7275273.51
 31
0.0
  0
LINE
  8
6
  6
CONTINUOUS
 62
     7
  5
CE
 10
909373.996
 20
7275024.958
 30
0.0
 11
908652.491
 21
7275048.233
 31
0.0
  0
LINE
  8
6
  6
CONTINUOUS
 62
     7
  5
CF
 10
908602.517
 20
7275049.845
 30
0.0
 11
907902.881
 21
7275072.414
 31
0.0
  0
LINE
  8
6
  6
CONTINUOUS
 62
     7
  5
D0
 10
909372.383
 20
7274974.984
 30
0.0
 11
908650.878
 21
7274998.259
 31
0.0
  0
LINE
  8
6
  6
CONTINUOUS
 62
     7
  5
D1
 10
908600.905
 20
7274999.871
 30
0.0
 11
907901.268
 21
7275022.441
 31
0.0
  0
LINE
  8
6
  6
CONTINUOUS
 62
     7
  5
D2
 10
908948.654
 20
7274786.147
 30
0.0
 11
908644.353
 21
7274795.965
 31
0.0
  0
LINE
  8
6
  6
CONTINUOUS
 62
     7
  5
D3
 10
908594.379
 20
7274797.577
 30
0.0
 11
907894.742
 21
7274820.147
 31
0.0
  0
LINE
  8
6
  6
CONTINUOUS
 62
     7
  5
D4
 10
908948.009
 20
7274766.158
 30
0.0
 11
908643.708
 21
7274775.974
 31
0.0
  0
LINE
  8
6
  6
CONTINUOUS
 62
     7
  5
D5
 10
908593.734
 20
7274777.587
 30
0.0
 11
907894.098
 21
7274800.158
 31
0.0
  0
LINE
  8
7
  6
CONTINUOUS
 62
     7
  5
D6
 10
908948.654
 20
7274786.147
 30
0.0
 11
908955.18
 21
7274988.442
 31
0.0
  0
LINE
  8
6
  6
CONTINUOUS
 62
     7
  5
D7
 10
909380.483
 20
7275226.053
 30
0.0
 11
908658.978
 21
7275249.328
 31
0.0
  0
LINE
  8
6
  6
CONTINUOUS
 62
     7
  5
D8
 10
908819.544
 20
7279110.005
 30
0.0
 11
907999.973
 21
7279136.528
 31
0.0
  0
LINE
  8
6
  6
CONTINUOUS
 62
     7
  5
D9
 10
907999.973
 20
7279136.528
 30
0.0
 11
908022.13
 21
7279821.17
 31
0.0
  0
LINE
  8
7
  6
CONTINUOUS
 62
     7
  5
DA
 10
909319.283
 20
7279093.832
 30
0.0
 11
909649.11
 21
7279083.158
 31
0.0
  0
LINE
  8
6
  6
CONTINUOUS
 62
     7
  5
DB
 10
909251.115
 20
7279306.148
 30
0.0
 11
908053.741
 21
7279344.898
 31
0.0
  0
LINE
  8
6
  6
CONTINUOUS
 62
     7
  5
DC
 10
908473.588
 20
7279461.379
 30
0.0
 11
908474.235
 21
7279481.368
 31
0.0
  0
LINE
  8
6
  6
CONTINUOUS
 62
     7
  5
DD
 10
908474.235
 20
7279481.368
 30
0.0
 11
908043.601
 21
7279495.305
 31
0.0
  0
LINE
  8
6
  6
CONTINUOUS
 62
     7
  5
DE
 10
908043.601
 20
7279495.305
 30
0.0
 11
908044.248
 21
7279515.295
 31
0.0
  0
LINE
  8
6
  6
CONTINUOUS
 62
     7
  5
DF
 10
908044.248
 20
7279515.295
 30
0.0
 11
908054.757
 21
7279665.033
 31
0.0
  0
LINE
  8
6
  6
CONTINUOUS
 62
     7
  5
E0
 10
908039.235
 20
7279360.375
 30
0.0
 11
908042.954
 21
7279475.315
 31
0.0
  0
LINE
  8
6
  6
CONTINUOUS
 62
     7
  5
E1
 10
908042.954
 20
7279475.315
 30
0.0
 11
908473.588
 21
7279461.379
 31
0.0
  0
LINE
  8
7
  6
CONTINUOUS
 62
     7
  5
E2
 10
908473.588
 20
7279461.379
 30
0.0
 11
908469.383
 21
7279331.447
 31
0.0
  0
LINE
  8
7
  6
CONTINUOUS
 62
     7
  5
E3
 10
910288.225
 20
7278427.142
 30
0.0
 11
910329.142
 21
7279691.48
 31
0.0
  0
LINE
  8
6
  6
CONTINUOUS
 62
     7
  5
E4
 10
910329.142
 20
7279691.48
 30
0.0
 11
910329.304
 21
7279696.478
 31
0.0
  0
LINE
  8
7
  6
CONTINUOUS
 62
     7
  5
E5
 10
909298.743
 20
7278459.164
 30
0.0
 11
909319.283
 21
7279093.832
 31
0.0
  0
LINE
  8
7
  6
CONTINUOUS
 62
     7
  5
E6
 10
909298.743
 20
7278459.164
 30
0.0
 11
910288.225
 21
7278427.142
 31
0.0
  0
LINE
  8
6
  6
CONTINUOUS
 62
     7
  5
E7
 10
908948.009
 20
7274766.158
 30
0.0
 11
908948.654
 21
7274786.147
 31
0.0
  0
TEXT
  8
10
  6
CONTINUOUS
 62
   134
  5
E8
 10
909047.095
 20
7274861.196
 30
0.0
 40
13.999
  1
UNSUBDIVIDED
 50
358.1523
  7
ROMANS
 11
909047.546368
 21
7274875.187721
 31
0.0
210
0.0
220
0.0
230
1.0
 73
     3
  0
TEXT
  8
10
  6
CONTINUOUS
 62
   134
  5
E9
 10
908744.94
 20
7279555.294
 30
0.0
 40
13.999
  1
UNSUBDIVIDED
 50
358.1464
  7
ROMANS
 11
908745.392809
 21
7279569.285675
 31
0.0
210
0.0
220
0.0
230
1.0
 73
     3
  0
TEXT
  8
10
  6
CONTINUOUS
 62
   134
  5
EA
 10
906531.846
 20
7279454.97
 30
0.0
 40
13.999
  1
UNSUBDIVIDED
 50
358.1464
  7
ROMANS
 11
906532.298809
 21
7279468.961675
 31
0.0
210
0.0
220
0.0
230
1.0
 73
     3
  0
TEXT
  8
10
  6
CONTINUOUS
 62
   134
  5
EB
 10
909898.774
 20
7275505.826
 30
0.0
 40
13.999
  1
UNSUBDIVIDED
 50
358.1523
  7
ROMANS
 11
909899.225368
 21
7275519.817721
 31
0.0
210
0.0
220
0.0
230
1.0
 73
     3
  0
TEXT
  8
10
  6
CONTINUOUS
 62
   134
  5
EC
 10
906173.22
 20
7275609.188
 30
0.0
 40
13.999
  1
UNSUBDIVIDED
 50
358.1523
  7
ROMANS
 11
906173.671368
 21
7275623.179721
 31
0.0
210
0.0
220
0.0
230
1.0
 73
     3
  0
TEXT
  8
10
  6
CONTINUOUS
 62
   134
  5
ED
 10
909748.564
 20
7277942.551
 30
0.0
 40
13.999
  1
UNSUBDIVIDED
 50
358.1464
  7
ROMANS
 11
909749.016809
 21
7277956.542675
 31
0.0
210
0.0
220
0.0
230
1.0
 73
     3
  0
LINE
  8
14
  6
CONTINUOUS
 62
     7
  5
EF
 10
909649.11
 20
7279083.158
 30
0.0
 11
909319.283
 21
7279093.832
 31
0.0
  0
LINE
  8
14
  6
CONTINUOUS
 62
     7
  5
F0
 10
909319.283
 20
7279093.832
 30
0.0
 11
909298.743
 21
7278459.164
 31
0.0
  0
LINE
  8
14
  6
CONTINUOUS
 62
     7
  5
F1
 10
909298.743
 20
7278459.164
 30
0.0
 11
910288.225
 21
7278427.142
 31
0.0
  0
LINE
  8
14
  6
CONTINUOUS
 62
     7
  5
F2
 10
910288.225
 20
7278427.142
 30
0.0
 11
910329.142
 21
7279691.48
 31
0.0
  0
LINE
  8
14
  6
CONTINUOUS
 62
     7
  5
F3
 10
910329.142
 20
7279691.48
 30
0.0
 11
909669.488
 21
7279712.828
 31
0.0
  0
LINE
  8
14
  6
CONTINUOUS
 62
     7
  5
F4
 10
909669.488
 20
7279712.828
 30
0.0
 11
909649.11
 21
7279083.158
 31
0.0
  0
LINE
  8
14
  6
CONTINUOUS
 62
     7
  5
F5
 10
908474.235
 20
7279481.368
 30
0.0
 11
908469.383
 21
7279331.447
 31
0.0
  0
LINE
  8
14
  6
CONTINUOUS
 62
     7
  5
F6
 10
908819.544
 20
7279110.005
 30
0.0
 11
908824.396
 21
7279259.927
 31
0.0
  0
LINE
  8
6
  6
CONTINUOUS
 62
     7
  5
F7
 10
909381.128
 20
7275246.043
 30
0.0
 11
907885.026
 21
7275294.307
 31
0.0
  0
TEXT
  8
10
  6
CONTINUOUS
 62
   134
  5
F8
 10
907815.341
 20
7277312.007
 30
0.0
 40
13.999
  1
UNSUBDIVIDED
 50
358.1464
  7
ROMANS
 11
907815.793809
 21
7277325.998675
 31
0.0
210
0.0
220
0.0
230
1.0
 73
     3
  0
TEXT
  8
19
  6
CONTINUOUS
 62
     1
  5
FB
 10
905258.358
 20
7274761.655
 30
0.0
 40
24.0
  1
ALCOVE  AVE
 50
88.1523
  7
ROMANC
 72
     4
 11
905250.970357
 21
7274904.824638
 31
0.0
210
0.0
220
0.0
230
1.0
  0
TEXT
  8
19
  6
CONTINUOUS
 62
     1
  5
FC
 10
905309.039
 20
7277000.313
 30
0.0
 40
24.0
  1
ALCOVE  AVE
 50
88.1464
  7
ROMANC
 72
     4
 11
905301.6661
 21
7277143.483398
 31
0.0
210
0.0
220
0.0
230
1.0
  0
TEXT
  8
19
  6
CONTINUOUS
 62
     1
  5
FD
 10
905385.907
 20
7279390.132
 30
0.0
 40
24.0
  1
ALCOVE  AVE
 50
88.1464
  7
ROMANC
 72
     4
 11
905378.5341
 21
7279533.302398
 31
0.0
210
0.0
220
0.0
230
1.0
  0
TEXT
  8
19
  6
CONTINUOUS
 62
     1
  5
FE
 10
910633.613
 20
7279241.983
 30
0.0
 40
24.0
  1
UPLAND  AVE
 50
88.1464
  7
ROMANC
 72
     4
 11
910626.423468
 21
7279390.819431
 31
0.0
210
0.0
220
0.0
230
1.0
  0
TEXT
  8
19
  6
CONTINUOUS
 62
     1
  5
FF
 10
910545.959
 20
7276859.366
 30
0.0
 40
24.0
  1
UPLAND  AVE
 50
88.1464
  7
ROMANC
 72
     4
 11
910538.769468
 21
7277008.202431
 31
0.0
210
0.0
220
0.0
230
1.0
  0
TEXT
  8
19
  6
CONTINUOUS
 62
     1
  5
100
 10
910493.47
 20
7274521.892
 30
0.0
 40
24.0
  1
UPLAND  AVE
 50
88.1523
  7
ROMANC
 72
     4
 11
910486.265142
 21
7274670.72769
 31
0.0
210
0.0
220
0.0
230
1.0
  0
TEXT
  8
19
  6
CONTINUOUS
 62
     1
  5
101
 10
909309.575
 20
7279379.155
 30
0.0
 40
24.0
  1
VALENCIA  AVE
 50
88.1464
  7
ROMANC
 72
     4
 11
909303.045581
 21
7279548.388753
 31
0.0
210
0.0
220
0.0
230
1.0
  0
TEXT
  8
19
  6
CONTINUOUS
 62
     1
  5
102
 10
908029.137
 20
7279160.717
 30
0.0
 40
24.0
  1
WAUSAU  AVE
 50
88.1464
  7
ROMANC
 72
     4
 11
908022.17363
 21
7279316.541773
 31
0.0
210
0.0
220
0.0
230
1.0
  0
TEXT
  8
19
  6
CONTINUOUS
 62
     1
  5
103
 10
908073.841
 20
7279302.176
 30
0.0
 40
24.0
  1
5TH.   ST
 50
358.1464
  7
ROMANC
 72
     4
 11
908158.559
 21
7279311.440578
 31
0.0
210
0.0
220
0.0
230
1.0
  0
TEXT
  8
15
  6
CONTINUOUS
 62
    30
  5
105
 10
909420.192
 20
7278889.71
 30
0.0
 40
50.0
  1
TOWN & COUNTRY
 50
28.1464
  7
ROMANC
 72
     4
 11
909754.132879
 21
7279096.718376
 31
0.0
210
0.0
220
0.0
230
1.0
  0
TEXT
  8
15
  6
CONTINUOUS
 62
    30
  5
106
 10
909555.196
 20
7278657.177
 30
0.0
 40
50.0
  1
MOBILE ESTATES
 50
28.1464
  7
ROMANC
 72
     4
 11
909863.277057
 21
7278850.350593
 31
0.0
210
0.0
220
0.0
230
1.0
  0
TEXT
  8
15
  6
CONTINUOUS
 62
    30
  5
107
 10
909309.433
 20
7279425.211
 30
0.0
 40
50.0
  1
HIDEAWAY
 50
28.1464
  7
ROMANC
 72
     4
 11
909491.681091
 21
7279551.065033
 31
0.0
210
0.0
220
0.0
230
1.0
  0
TEXT
  8
15
  6
CONTINUOUS
 62
    30
  5
108
 10
909364.856
 20
7279190.717
 30
0.0
 40
50.0
  1
APARTMENTS
 50
28.1464
  7
ROMANC
 72
     4
 11
909595.876059
 21
7279342.663619
 31
0.0
210
0.0
220
0.0
230
1.0
  0
TEXT
  8
15
  6
CONTINUOUS
 62
    30
  5
109
 10
908198.579
 20
7279384.111
 30
0.0
 40
50.0
  1
HIDEAWAY
 50
28.1464
  7
ROMANC
 72
     4
 11
908380.827091
 21
7279509.965033
 31
0.0
210
0.0
220
0.0
230
1.0
  0
TEXT
  8
15
  6
CONTINUOUS
 62
    30
  5
10A
 10
908576.32
 20
7279192.967
 30
0.0
 40
50.0
  1
ESTATES
 50
28.1464
  7
ROMANC
 72
     4
 11
908720.731525
 21
7279298.578794
 31
0.0
210
0.0
220
0.0
230
1.0
  0
TEXT
  8
15
  6
CONTINUOUS
 62
    30
  5
10B
 10
905457.205
 20
7274741.488
 30
0.0
 40
50.0
  1
W.W.  FURGESON
 50
28.1523
  7
ROMANC
 72
     4
 11
905743.571138
 21
7274923.08379
 31
0.0
210
0.0
220
0.0
230
1.0
  0
TEXT
  8
15
  6
CONTINUOUS
 62
    30
  5
10C
 10
906724.954
 20
7274663.821
 30
0.0
 40
50.0
  1
W.W.  FURGESON
 50
28.1523
  7
ROMANC
 72
     4
 11
907011.320138
 21
7274845.41679
 31
0.0
210
0.0
220
0.0
230
1.0
  0
TEXT
  8
15
  6
CONTINUOUS
 62
    30
  5
10D
 10
908053.483
 20
7274651.633
 30
0.0
 40
50.0
  1
BROWN CREST
 50
28.1523
  7
ROMANC
 72
     4
 11
908309.651031
 21
7274817.069061
 31
0.0
210
0.0
220
0.0
230
1.0
  0
TEXT
  8
15
  6
CONTINUOUS
 62
    30
  5
10E
 10
909188.108
 20
7274673.443
 30
0.0
 40
20.0
  1
BLACK
 50
28.1523
  7
ROMANC
 72
     4
 11
909230.110932
 21
7274707.261543
 31
0.0
210
0.0
220
0.0
230
1.0
  0
TEXT
  8
15
  6
CONTINUOUS
 62
    30
  5
10F
 10
909200.812
 20
7274584.917
 30
0.0
 40
20.0
  1
HILL
 50
28.1523
  7
ROMANC
 72
     4
 11
909228.582586
 21
7274611.119475
 31
0.0
210
0.0
220
0.0
230
1.0
  0
TEXT
  8
19
  6
CONTINUOUS
 62
     1
  5
110
 10
907890.439
 20
7274782.863
 30
0.0
 40
24.0
  1
VIOLA  PL
 50
88.1523
  7
ROMANC
 72
     4
 11
907882.064339
 21
7274895.436554
 31
0.0
210
0.0
220
0.0
230
1.0
  0
TEXT
  8
19
  6
CONTINUOUS
 62
     1
  5
111
 10
907583.584
 20
7274673.572
 30
0.0
 40
24.0
  1
WAUSAU  AVE
 50
88.1523
  7
ROMANC
 72
     4
 11
907576.604584
 21
7274829.396055
 31
0.0
210
0.0
220
0.0
230
1.0
  0
TEXT
  8
11
  6
CONTINUOUS
 62
     7
  5
113
 10
909238.045
 20
7274772.659
 30
0.0
 40
8.0
  1
208.70'
 50
358.1523
  7
ROMANS
210
0.0
220
0.0
230
1.0
  0
TEXT
  8
11
  6
CONTINUOUS
 62
     7
  5
114
 10
909236.472
 20
7274579.69
 30
0.0
 40
8.0
  1
208.70'
 50
358.1523
  7
ROMANS
210
0.0
220
0.0
230
1.0
  0
TEXT
  8
11
  6
CONTINUOUS
 62
     7
  5
115
 10
909366.0
 20
7274906.909
 30
0.0
 40
8.0
  1
185'
 50
88.1523
  7
ROMANS
210
0.0
220
0.0
230
1.0
  0
TEXT
  8
11
  6
CONTINUOUS
 62
     7
  5
116
 10
909345.227
 20
7274993.757
 30
0.0
 40
8.0
  1
50'
 50
88.1523
  7
ROMANS
210
0.0
220
0.0
230
1.0
  0
TEXT
  8
11
  6
CONTINUOUS
 62
     7
  5
117
 10
908684.08
 20
7275014.309
 30
0.0
 40
8.0
  1
50'
 50
88.1523
  7
ROMANS
210
0.0
220
0.0
230
1.0
  0
TEXT
  8
11
  6
CONTINUOUS
 62
     7
  5
118
 10
909371.478
 20
7274518.903
 30
0.0
 40
8.0
  1
50'
 50
88.1523
  7
ROMANS
210
0.0
220
0.0
230
1.0
  0
TEXT
  8
11
  6
CONTINUOUS
 62
     7
  5
119
 10
909168.116
 20
7274530.61
 30
0.0
 40
8.0
  1
65'
 50
88.1523
  7
ROMANS
210
0.0
220
0.0
230
1.0
  0
TEXT
  8
11
  6
CONTINUOUS
 62
     7
  5
11A
 10
908927.401
 20
7274539.696
 30
0.0
 40
8.0
  1
65'
 50
88.1523
  7
ROMANS
210
0.0
220
0.0
230
1.0
  0
TEXT
  8
11
  6
CONTINUOUS
 62
     7
  5
11B
 10
907918.807
 20
7274572.816
 30
0.0
 40
8.0
  1
65'
 50
88.1523
  7
ROMANS
210
0.0
220
0.0
230
1.0
  0
TEXT
  8
11
  6
CONTINUOUS
 62
     7
  5
11C
 10
907531.764
 20
7274582.816
 30
0.0
 40
8.0
  1
65'
 50
88.1523
  7
ROMANS
210
0.0
220
0.0
230
1.0
  0
TEXT
  8
11
  6
CONTINUOUS
 62
     7
  5
11D
 10
905290.082
 20
7274657.98
 30
0.0
 40
8.0
  1
65'
 50
88.1523
  7
ROMANS
210
0.0
220
0.0
230
1.0
  0
TEXT
  8
11
  6
CONTINUOUS
 62
     7
  5
11E
 10
905308.66
 20
7275111.071
 30
0.0
 40
8.0
  1
40'
 50
88.1523
  7
ROMANS
210
0.0
220
0.0
230
1.0
  0
TEXT
  8
11
  6
CONTINUOUS
 62
     7
  5
11F
 10
907549.476
 20
7275038.783
 30
0.0
 40
8.0
  1
40'
 50
88.1523
  7
ROMANS
210
0.0
220
0.0
230
1.0
  0
TEXT
  8
11
  6
CONTINUOUS
 62
     7
  5
120
 10
909394.535
 20
7275223.925
 30
0.0
 40
8.0
  1
7.5'
 50
88.1523
  7
ROMANS
210
0.0
220
0.0
230
1.0
  0
TEXT
  8
11
  6
CONTINUOUS
 62
     7
  5
121
 10
908676.454
 20
7275254.071
 30
0.0
 40
8.0
  1
7.5'
 50
88.1523
  7
ROMANS
210
0.0
220
0.0
230
1.0
  0
TEXT
  8
11
  6
CONTINUOUS
 62
     7
  5
122
 10
908606.4
 20
7275254.78
 30
0.0
 40
8.0
  1
7.5'
 50
88.1523
  7
ROMANS
210
0.0
220
0.0
230
1.0
  0
TEXT
  8
11
  6
CONTINUOUS
 62
     7
  5
123
 10
907924.35
 20
7275275.231
 30
0.0
 40
8.0
  1
7.5'
 50
88.1523
  7
ROMANS
210
0.0
220
0.0
230
1.0
  0
TEXT
  8
11
  6
CONTINUOUS
 62
     7
  5
124
 10
909370.876
 20
7275101.493
 30
0.0
 40
8.0
  1
201.20'
 50
88.1523
  7
ROMANS
210
0.0
220
0.0
230
1.0
  0
TEXT
  8
11
  6
CONTINUOUS
 62
     7
  5
125
 10
908667.083
 20
7275117.217
 30
0.0
 40
8.0
  1
201.20'
 50
88.1523
  7
ROMANS
210
0.0
220
0.0
230
1.0
  0
TEXT
  8
11
  6
CONTINUOUS
 62
     7
  5
126
 10
908600.761
 20
7275119.356
 30
0.0
 40
8.0
  1
201.20'
 50
88.1523
  7
ROMANS
210
0.0
220
0.0
230
1.0
  0
TEXT
  8
11
  6
CONTINUOUS
 62
     7
  5
127
 10
907918.085
 20
7275149.135
 30
0.0
 40
8.0
  1
201.20'
 50
88.1523
  7
ROMANS
210
0.0
220
0.0
230
1.0
  0
TEXT
  8
11
  6
CONTINUOUS
 62
     7
  5
128
 10
908659.352
 20
7274873.992
 30
0.0
 40
8.0
  1
202.42'
 50
88.1523
  7
ROMANS
210
0.0
220
0.0
230
1.0
  0
TEXT
  8
11
  6
CONTINUOUS
 62
     7
  5
129
 10
908945.79
 20
7274845.363
 30
0.0
 40
8.0
  1
202.42'
 50
88.1523
  7
ROMANS
210
0.0
220
0.0
230
1.0
  0
TEXT
  8
11
  6
CONTINUOUS
 62
     7
  5
12A
 10
908938.701
 20
7274649.637
 30
0.0
 40
8.0
  1
185'
 50
88.1523
  7
ROMANS
210
0.0
220
0.0
230
1.0
  0
TEXT
  8
11
  6
CONTINUOUS
 62
     7
  5
12B
 10
908652.245
 20
7274658.878
 30
0.0
 40
8.0
  1
185'
 50
88.1523
  7
ROMANS
210
0.0
220
0.0
230
1.0
  0
TEXT
  8
11
  6
CONTINUOUS
 62
     7
  5
12C
 10
909167.51
 20
7274652.338
 30
0.0
 40
8.0
  1
185'
 50
88.1523
  7
ROMANS
210
0.0
220
0.0
230
1.0
  0
TEXT
  8
11
  6
CONTINUOUS
 62
     7
  5
12D
 10
909357.586
 20
7274643.104
 30
0.0
 40
8.0
  1
185'
 50
88.1523
  7
ROMANS
210
0.0
220
0.0
230
1.0
  0
TEXT
  8
11
  6
CONTINUOUS
 62
     7
  5
12E
 10
909356.744
 20
7274550.67
 30
0.0
 40
8.0
  1
15'
 50
88.1523
  7
ROMANS
210
0.0
220
0.0
230
1.0
  0
TEXT
  8
11
  6
CONTINUOUS
 62
     7
  5
12F
 10
909127.432
 20
7274760.412
 30
0.0
 40
8.0
  1
8.7'
 50
358.1523
  7
ROMANS
210
0.0
220
0.0
230
1.0
  0
TEXT
  8
11
  6
CONTINUOUS
 62
     7
  5
130
 10
909251.562
 20
7275034.7
 30
0.0
 40
8.0
  1
208.71'
 50
358.1523
  7
ROMANS
210
0.0
220
0.0
230
1.0
  0
TEXT
  8
11
  6
CONTINUOUS
 62
     7
  5
131
 10
909050.599
 20
7275040.407
 30
0.0
 40
8.0
  1
208.71'
 50
358.1523
  7
ROMANS
210
0.0
220
0.0
230
1.0
  0
TEXT
  8
11
  6
CONTINUOUS
 62
     7
  5
132
 10
908899.956
 20
7275046.043
 30
0.0
 40
8.0
  1
100'
 50
358.1523
  7
ROMANS
210
0.0
220
0.0
230
1.0
  0
TEXT
  8
11
  6
CONTINUOUS
 62
     7
  5
133
 10
908795.737
 20
7275048.628
 30
0.0
 40
8.0
  1
100'
 50
358.1523
  7
ROMANS
210
0.0
220
0.0
230
1.0
  0
TEXT
  8
11
  6
CONTINUOUS
 62
     7
  5
134
 10
908793.461
 20
7274978.047
 30
0.0
 40
8.0
  1
100'
 50
358.1523
  7
ROMANS
210
0.0
220
0.0
230
1.0
  0
TEXT
  8
11
  6
CONTINUOUS
 62
     7
  5
135
 10
908891.061
 20
7274974.898
 30
0.0
 40
8.0
  1
100'
 50
358.1523
  7
ROMANS
210
0.0
220
0.0
230
1.0
  0
TEXT
  8
11
  6
CONTINUOUS
 62
     7
  5
136
 10
908880.967
 20
7274589.957
 30
0.0
 40
8.0
  1
100'
 50
358.1523
  7
ROMANS
210
0.0
220
0.0
230
1.0
  0
TEXT
  8
11
  6
CONTINUOUS
 62
     7
  5
137
 10
908780.296
 20
7274593.981
 30
0.0
 40
8.0
  1
100'
 50
358.1523
  7
ROMANS
210
0.0
220
0.0
230
1.0
  0
TEXT
  8
11
  6
CONTINUOUS
 62
     7
  5
138
 10
908661.938
 20
7274595.472
 30
0.0
 40
8.0
  1
104.46'
 50
358.1523
  7
ROMANS
210
0.0
220
0.0
230
1.0
  0
TEXT
  8
11
  6
CONTINUOUS
 62
     7
  5
139
 10
908679.825
 20
7274981.711
 30
0.0
 40
8.0
  1
104.46'
 50
358.1523
  7
ROMANS
210
0.0
220
0.0
230
1.0
  0
TEXT
  8
11
  6
CONTINUOUS
 62
     7
  5
13A
 10
908679.799
 20
7275052.977
 30
0.0
 40
8.0
  1
104.46'
 50
358.1523
  7
ROMANS
210
0.0
220
0.0
230
1.0
  0
TEXT
  8
11
  6
CONTINUOUS
 62
     7
  5
13B
 10
908921.917
 20
7274771.193
 30
0.0
 40
8.0
  1
15'
 50
358.1523
  7
ROMANS
210
0.0
220
0.0
230
1.0
  0
TEXT
  8
11
  6
CONTINUOUS
 62
     7
  5
13C
 10
908651.427
 20
7274781.472
 30
0.0
 40
8.0
  1
15'
 50
358.1523
  7
ROMANS
210
0.0
220
0.0
230
1.0
  0
TEXT
  8
11
  6
CONTINUOUS
 62
     7
  5
13D
 10
908571.629
 20
7274782.494
 30
0.0
 40
8.0
  1
15'
 50
358.1523
  7
ROMANS
210
0.0
220
0.0
230
1.0
  0
TEXT
  8
11
  6
CONTINUOUS
 62
     7
  5
13E
 10
907899.662
 20
7274807.274
 30
0.0
 40
8.0
  1
15'
 50
358.1523
  7
ROMANS
210
0.0
220
0.0
230
1.0
  0
TEXT
  8
11
  6
CONTINUOUS
 62
     7
  5
13F
 10
909140.215
 20
7274967.66
 30
0.0
 40
8.0
  1
417.42'
 50
358.1523
  7
ROMANS
210
0.0
220
0.0
230
1.0
  0
TEXT
  8
11
  6
CONTINUOUS
 62
     7
  5
140
 10
907940.018
 20
7275076.962
 30
0.0
 40
8.0
  1
100'
 50
358.1523
  7
ROMANS
210
0.0
220
0.0
230
1.0
  0
TEXT
  8
11
  6
CONTINUOUS
 62
     7
  5
141
 10
908041.684
 20
7275074.458
 30
0.0
 40
8.0
  1
100'
 50
358.1523
  7
ROMANS
210
0.0
220
0.0
230
1.0
  0
TEXT
  8
11
  6
CONTINUOUS
 62
     7
  5
142
 10
908135.642
 20
7275071.428
 30
0.0
 40
8.0
  1
100'
 50
358.1523
  7
ROMANS
210
0.0
220
0.0
230
1.0
  0
TEXT
  8
11
  6
CONTINUOUS
 62
     7
  5
143
 10
908240.652
 20
7275068.04
 30
0.0
 40
8.0
  1
100'
 50
358.1523
  7
ROMANS
210
0.0
220
0.0
230
1.0
  0
TEXT
  8
11
  6
CONTINUOUS
 62
     7
  5
144
 10
908340.135
 20
7275064.83
 30
0.0
 40
8.0
  1
100'
 50
358.1523
  7
ROMANS
210
0.0
220
0.0
230
1.0
  0
TEXT
  8
11
  6
CONTINUOUS
 62
     7
  5
145
 10
908438.238
 20
7275061.666
 30
0.0
 40
8.0
  1
100'
 50
358.1523
  7
ROMANS
210
0.0
220
0.0
230
1.0
  0
TEXT
  8
11
  6
CONTINUOUS
 62
     7
  5
146
 10
908545.274
 20
7275057.437
 30
0.0
 40
8.0
  1
100'
 50
358.1523
  7
ROMANS
210
0.0
220
0.0
230
1.0
  0
TEXT
  8
11
  6
CONTINUOUS
 62
     7
  5
147
 10
908540.653
 20
7274986.321
 30
0.0
 40
8.0
  1
100'
 50
358.1523
  7
ROMANS
210
0.0
220
0.0
230
1.0
  0
TEXT
  8
11
  6
CONTINUOUS
 62
     7
  5
148
 10
908433.951
 20
7274990.539
 30
0.0
 40
8.0
  1
100'
 50
358.1523
  7
ROMANS
210
0.0
220
0.0
230
1.0
  0
TEXT
  8
11
  6
CONTINUOUS
 62
     7
  5
149
 10
908337.232
 20
7274993.66
 30
0.0
 40
8.0
  1
100'
 50
358.1523
  7
ROMANS
210
0.0
220
0.0
230
1.0
  0
TEXT
  8
11
  6
CONTINUOUS
 62
     7
  5
14A
 10
908237.749
 20
7274996.869
 30
0.0
 40
8.0
  1
100'
 50
358.1523
  7
ROMANS
210
0.0
220
0.0
230
1.0
  0
TEXT
  8
11
  6
CONTINUOUS
 62
     7
  5
14B
 10
908134.12
 20
7275000.211
 30
0.0
 40
8.0
  1
100'
 50
358.1523
  7
ROMANS
210
0.0
220
0.0
230
1.0
  0
TEXT
  8
11
  6
CONTINUOUS
 62
     7
  5
14C
 10
908036.623
 20
7275003.357
 30
0.0
 40
8.0
  1
100'
 50
358.1523
  7
ROMANS
210
0.0
220
0.0
230
1.0
  0
TEXT
  8
11
  6
CONTINUOUS
 62
     7
  5
14D
 10
907941.014
 20
7275006.442
 30
0.0
 40
8.0
  1
100'
 50
358.1523
  7
ROMANS
210
0.0
220
0.0
230
1.0
  0
TEXT
  8
11
  6
CONTINUOUS
 62
     7
  5
14E
 10
907905.742
 20
7274634.118
 30
0.0
 40
8.0
  1
100'
 50
358.1523
  7
ROMANS
210
0.0
220
0.0
230
1.0
  0
TEXT
  8
11
  6
CONTINUOUS
 62
     7
  5
14F
 10
908009.37
 20
7274630.774
 30
0.0
 40
8.0
  1
100'
 50
358.1523
  7
ROMANS
210
0.0
220
0.0
230
1.0
  0
TEXT
  8
11
  6
CONTINUOUS
 62
     7
  5
150
 10
908122.397
 20
7274614.719
 30
0.0
 40
8.0
  1
100'
 50
358.1523
  7
ROMANS
210
0.0
220
0.0
230
1.0
  0
TEXT
  8
11
  6
CONTINUOUS
 62
     7
  5
151
 10
908220.498
 20
7274611.554
 30
0.0
 40
8.0
  1
100'
 50
358.1523
  7
ROMANS
210
0.0
220
0.0
230
1.0
  0
TEXT
  8
11
  6
CONTINUOUS
 62
     7
  5
152
 10
908318.6
 20
7274608.39
 30
0.0
 40
8.0
  1
100'
 50
358.1523
  7
ROMANS
210
0.0
220
0.0
230
1.0
  0
TEXT
  8
11
  6
CONTINUOUS
 62
     7
  5
153
 10
908422.228
 20
7274605.047
 30
0.0
 40
8.0
  1
100'
 50
358.1523
  7
ROMANS
210
0.0
220
0.0
230
1.0
  0
TEXT
  8
11
  6
CONTINUOUS
 62
     7
  5
154
 10
908521.713
 20
7274601.838
 30
0.0
 40
8.0
  1
100'
 50
358.1523
  7
ROMANS
210
0.0
220
0.0
230
1.0
  0
TEXT
  8
11
  6
CONTINUOUS
 62
     7
  5
155
 10
908605.504
 20
7274600.735
 30
0.0
 40
8.0
  1
50'
 50
358.1523
  7
ROMANS
210
0.0
220
0.0
230
1.0
  0
TEXT
  8
11
  6
CONTINUOUS
 62
     7
  5
156
 10
908617.05
 20
7274982.701
 30
0.0
 40
8.0
  1
50'
 50
358.1523
  7
ROMANS
210
0.0
220
0.0
230
1.0
  0
TEXT
  8
11
  6
CONTINUOUS
 62
     7
  5
157
 10
908619.522
 20
7275059.303
 30
0.0
 40
8.0
  1
50'
 50
358.1523
  7
ROMANS
210
0.0
220
0.0
230
1.0
  0
TEXT
  8
11
  6
CONTINUOUS
 62
     7
  5
158
 10
908625.89
 20
7275232.689
 30
0.0
 40
8.0
  1
50'
 50
358.1523
  7
ROMANS
210
0.0
220
0.0
230
1.0
  0
TEXT
  8
11
  6
CONTINUOUS
 62
     7
  5
159
 10
907887.926
 20
7275257.711
 30
0.0
 40
8.0
  1
25'
 50
358.1523
  7
ROMANS
210
0.0
220
0.0
230
1.0
  0
TEXT
  8
11
  6
CONTINUOUS
 62
     7
  5
15A
 10
907882.08
 20
7275076.543
 30
0.0
 40
8.0
  1
25'
 50
358.1523
  7
ROMANS
210
0.0
220
0.0
230
1.0
  0
TEXT
  8
11
  6
CONTINUOUS
 62
     7
  5
15B
 10
907879.855
 20
7275007.591
 30
0.0
 40
8.0
  1
25'
 50
358.1523
  7
ROMANS
210
0.0
220
0.0
230
1.0
  0
TEXT
  8
11
  6
CONTINUOUS
 62
     7
  5
15C
 10
907867.504
 20
7274624.709
 30
0.0
 40
8.0
  1
25'
 50
358.1523
  7
ROMANS
210
0.0
220
0.0
230
1.0
  0
TEXT
  8
11
  6
CONTINUOUS
 62
     7
  5
15D
 10
907561.242
 20
7274635.965
 30
0.0
 40
8.0
  1
40'
 50
358.1523
  7
ROMANS
210
0.0
220
0.0
230
1.0
  0
TEXT
  8
11
  6
CONTINUOUS
 62
     7
  5
15E
 10
907572.413
 20
7275011.654
 30
0.0
 40
8.0
  1
40'
 50
358.1523
  7
ROMANS
210
0.0
220
0.0
230
1.0
  0
TEXT
  8
11
  6
CONTINUOUS
 62
     7
  5
15F
 10
907911.083
 20
7274905.052
 30
0.0
 40
8.0
  1
202.42'
 50
88.1523
  7
ROMANS
210
0.0
220
0.0
230
1.0
  0
TEXT
  8
11
  6
CONTINUOUS
 62
     7
  5
160
 10
908593.159
 20
7274872.967
 30
0.0
 40
8.0
  1
202.42'
 50
88.1523
  7
ROMANS
210
0.0
220
0.0
230
1.0
  0
TEXT
  8
11
  6
CONTINUOUS
 62
     7
  5
161
 10
908565.415
 20
7274685.889
 30
0.0
 40
8.0
  1
185'
 50
88.1523
  7
ROMANS
210
0.0
220
0.0
230
1.0
  0
TEXT
  8
11
  6
CONTINUOUS
 62
     7
  5
162
 10
907904.394
 20
7274692.478
 30
0.0
 40
8.0
  1
185'
 50
88.1523
  7
ROMANS
210
0.0
220
0.0
230
1.0
  0
TEXT
  8
11
  6
CONTINUOUS
 62
     7
  5
163
 10
910563.496
 20
7277599.611
 30
0.0
 40
8.0
  1
40'
 50
358.1464
  7
ROMANS
210
0.0
220
0.0
230
1.0
  0
TEXT
  8
11
  6
CONTINUOUS
 62
     7
  5
164
 10
910539.724
 20
7276901.027
 30
0.0
 40
8.0
  1
40'
 50
358.1464
  7
ROMANS
210
0.0
220
0.0
230
1.0
  0
TEXT
  8
11
  6
CONTINUOUS
 62
     7
  5
165
 10
910629.821
 20
7279671.558
 30
0.0
 40
8.0
  1
40'
 50
358.1464
  7
ROMANS
210
0.0
220
0.0
230
1.0
  0
TEXT
  8
11
  6
CONTINUOUS
 62
     7
  5
166
 10
905403.827
 20
7279836.821
 30
0.0
 40
8.0
  1
40'
 50
358.1464
  7
ROMANS
210
0.0
220
0.0
230
1.0
  0
TEXT
  8
11
  6
CONTINUOUS
 62
     7
  5
167
 10
905351.773
 20
7278567.368
 30
0.0
 40
8.0
  1
40'
 50
358.1464
  7
ROMANS
210
0.0
220
0.0
230
1.0
  0
TEXT
  8
11
  6
CONTINUOUS
 62
     7
  5
168
 10
905277.857
 20
7276249.4
 30
0.0
 40
8.0
  1
40'
 50
358.1464
  7
ROMANS
210
0.0
220
0.0
230
1.0
  0
TEXT
  8
11
  6
CONTINUOUS
 62
     7
  5
169
 10
905253.54
 20
7275149.034
 30
0.0
 40
8.0
  1
40'
 50
358.1523
  7
ROMANS
210
0.0
220
0.0
230
1.0
  0
TEXT
  8
11
  6
CONTINUOUS
 62
     7
  5
16A
 10
905249.341
 20
7275077.747
 30
0.0
 40
8.0
  1
40'
 50
358.1523
  7
ROMANS
210
0.0
220
0.0
230
1.0
  0
TEXT
  8
11
  6
CONTINUOUS
 62
     7
  5
16B
 10
905240.637
 20
7274719.68
 30
0.0
 40
8.0
  1
40'
 50
358.1523
  7
ROMANS
210
0.0
220
0.0
230
1.0
  0
TEXT
  8
11
  6
CONTINUOUS
 62
     7
  5
16C
 10
905330.743
 20
7274705.73
 30
0.0
 40
8.0
  1
201.30'
 50
358.1523
  7
ROMANS
210
0.0
220
0.0
230
1.0
  0
TEXT
  8
11
  6
CONTINUOUS
 62
     7
  5
16D
 10
905548.607
 20
7274699.314
 30
0.0
 40
8.0
  1
280.70'
 50
358.1523
  7
ROMANS
210
0.0
220
0.0
230
1.0
  0
TEXT
  8
11
  6
CONTINUOUS
 62
     7
  5
16E
 10
905756.094
 20
7274690.72
 30
0.0
 40
8.0
  1
280.70'
 50
358.1523
  7
ROMANS
210
0.0
220
0.0
230
1.0
  0
TEXT
  8
11
  6
CONTINUOUS
 62
     7
  5
16F
 10
905979.455
 20
7274684.465
 30
0.0
 40
8.0
  1
280.70'
 50
358.1523
  7
ROMANS
210
0.0
220
0.0
230
1.0
  0
TEXT
  8
11
  6
CONTINUOUS
 62
     7
  5
170
 10
906168.713
 20
7274678.36
 30
0.0
 40
8.0
  1
280.70'
 50
358.1523
  7
ROMANS
210
0.0
220
0.0
230
1.0
  0
TEXT
  8
11
  6
CONTINUOUS
 62
     7
  5
171
 10
906391.101
 20
7274669.287
 30
0.0
 40
8.0
  1
280.70'
 50
358.1523
  7
ROMANS
210
0.0
220
0.0
230
1.0
  0
TEXT
  8
11
  6
CONTINUOUS
 62
     7
  5
172
 10
906590.075
 20
7274663.817
 30
0.0
 40
8.0
  1
280.70'
 50
358.1523
  7
ROMANS
210
0.0
220
0.0
230
1.0
  0
TEXT
  8
11
  6
CONTINUOUS
 62
     7
  5
173
 10
906811.705
 20
7274658.566
 30
0.0
 40
8.0
  1
280.70'
 50
358.1523
  7
ROMANS
210
0.0
220
0.0
230
1.0
  0
TEXT
  8
11
  6
CONTINUOUS
 62
     7
  5
174
 10
907010.046
 20
7274650.27
 30
0.0
 40
8.0
  1
280.70'
 50
358.1523
  7
ROMANS
210
0.0
220
0.0
230
1.0
  0
TEXT
  8
11
  6
CONTINUOUS
 62
     7
  5
175
 10
907225.759
 20
7274642.36
 30
0.0
 40
8.0
  1
280.70'
 50
358.1523
  7
ROMANS
210
0.0
220
0.0
230
1.0
  0
TEXT
  8
11
  6
CONTINUOUS
 62
     7
  5
176
 10
907436.626
 20
7274635.557
 30
0.0
 40
8.0
  1
280.70'
 50
358.1523
  7
ROMANS
210
0.0
220
0.0
230
1.0
  0
TEXT
  8
11
  6
CONTINUOUS
 62
     7
  5
177
 10
905285.206
 20
7274884.509
 30
0.0
 40
8.0
  1
402.4'
 50
88.1523
  7
ROMANS
210
0.0
220
0.0
230
1.0
  0
TEXT
  8
11
  6
CONTINUOUS
 62
     7
  5
178
 10
907552.583
 20
7274799.02
 30
0.0
 40
8.0
  1
402.4'
 50
88.1523
  7
ROMANS
210
0.0
220
0.0
230
1.0
  0
TEXT
  8
11
  6
CONTINUOUS
 62
     7
  5
179
 10
910473.292
 20
7279672.009
 30
0.0
 40
8.0
  1
289'
 50
358.1464
  7
ROMANS
210
0.0
220
0.0
230
1.0
  0
TEXT
  8
11
  6
CONTINUOUS
 62
     7
  5
17A
 10
909946.93
 20
7279688.125
 30
0.0
 40
8.0
  1
646.39'
 50
358.1464
  7
ROMANS
210
0.0
220
0.0
230
1.0
  0
TEXT
  8
11
  6
CONTINUOUS
 62
     7
  5
17B
 10
909481.436
 20
7279702.415
 30
0.0
 40
8.0
  1
330'
 50
358.1464
  7
ROMANS
210
0.0
220
0.0
230
1.0
  0
TEXT
  8
11
  6
CONTINUOUS
 62
     7
  5
17C
 10
909471.898
 20
7279072.313
 30
0.0
 40
8.0
  1
330'
 50
358.1464
  7
ROMANS
210
0.0
220
0.0
230
1.0
  0
TEXT
  8
11
  6
CONTINUOUS
 62
     7
  5
17D
 10
909784.304
 20
7278450.412
 30
0.0
 40
8.0
  1
990'
 50
358.1464
  7
ROMANS
210
0.0
220
0.0
230
1.0
  0
TEXT
  8
11
  6
CONTINUOUS
 62
     7
  5
17E
 10
909307.648
 20
7278772.84
 30
0.0
 40
8.0
  1
635'
 50
88.1464
  7
ROMANS
210
0.0
220
0.0
230
1.0
  0
TEXT
  8
11
  6
CONTINUOUS
 62
     7
  5
17F
 10
910300.707
 20
7279019.382
 30
0.0
 40
8.0
  1
1265'
 50
88.1464
  7
ROMANS
210
0.0
220
0.0
230
1.0
  0
TEXT
  8
11
  6
CONTINUOUS
 62
     7
  5
180
 10
910311.627
 20
7279711.611
 30
0.0
 40
8.0
  1
55'
 50
88.1464
  7
ROMANS
210
0.0
220
0.0
230
1.0
  0
TEXT
  8
11
  6
CONTINUOUS
 62
     7
  5
181
 10
909365.934
 20
7279739.889
 30
0.0
 40
8.0
  1
55'
 50
88.1464
  7
ROMANS
210
0.0
220
0.0
230
1.0
  0
TEXT
  8
11
  6
CONTINUOUS
 62
     7
  5
182
 10
909675.1
 20
7279391.707
 30
0.0
 40
8.0
  1
630'
 50
88.1464
  7
ROMANS
210
0.0
220
0.0
230
1.0
  0
TEXT
  8
11
  6
CONTINUOUS
 62
     7
  5
183
 10
909342.799
 20
7279408.665
 30
0.0
 40
8.0
  1
630'
 50
88.1464
  7
ROMANS
210
0.0
220
0.0
230
1.0
  0
TEXT
  8
11
  6
CONTINUOUS
 62
     7
  5
184
 10
909302.721
 20
7279712.179
 30
0.0
 40
8.0
  1
60'
 50
358.1464
  7
ROMANS
210
0.0
220
0.0
230
1.0
  0
TEXT
  8
11
  6
CONTINUOUS
 62
     7
  5
185
 10
909290.142
 20
7279323.549
 30
0.0
 40
8.0
  1
60'
 50
358.1464
  7
ROMANS
210
0.0
220
0.0
230
1.0
  0
TEXT
  8
11
  6
CONTINUOUS
 62
     7
  5
186
 10
909285.868
 20
7279215.364
 30
0.0
 40
8.0
  1
60'
 50
358.1464
  7
ROMANS
210
0.0
220
0.0
230
1.0
  0
TEXT
  8
11
  6
CONTINUOUS
 62
     7
  5
187
 10
909285.375
 20
7279104.34
 30
0.0
 40
8.0
  1
60'
 50
358.1464
  7
ROMANS
210
0.0
220
0.0
230
1.0
  0
TEXT
  8
11
  6
CONTINUOUS
 62
     7
  5
188
 10
909005.986
 20
7279236.445
 30
0.0
 40
8.0
  1
425'
 50
358.1464
  7
ROMANS
210
0.0
220
0.0
230
1.0
  0
TEXT
  8
11
  6
CONTINUOUS
 62
     7
  5
189
 10
908769.503
 20
7279247.038
 30
0.0
 40
8.0
  1
100'
 50
358.1464
  7
ROMANS
210
0.0
220
0.0
230
1.0
  0
TEXT
  8
11
  6
CONTINUOUS
 62
     7
  5
18A
 10
908664.866
 20
7279250.423
 30
0.0
 40
8.0
  1
100'
 50
358.1464
  7
ROMANS
210
0.0
220
0.0
230
1.0
  0
TEXT
  8
11
  6
CONTINUOUS
 62
     7
  5
18B
 10
908563.717
 20
7279253.697
 30
0.0
 40
8.0
  1
100'
 50
358.1464
  7
ROMANS
210
0.0
220
0.0
230
1.0
  0
TEXT
  8
11
  6
CONTINUOUS
 62
     7
  5
18C
 10
908466.343
 20
7279256.849
 30
0.0
 40
8.0
  1
100'
 50
358.1464
  7
ROMANS
210
0.0
220
0.0
230
1.0
  0
TEXT
  8
11
  6
CONTINUOUS
 62
     7
  5
18D
 10
908368.682
 20
7279260.009
 30
0.0
 40
8.0
  1
100'
 50
358.1464
  7
ROMANS
210
0.0
220
0.0
230
1.0
  0
TEXT
  8
11
  6
CONTINUOUS
 62
     7
  5
18E
 10
908269.858
 20
7279263.207
 30
0.0
 40
8.0
  1
100'
 50
358.1464
  7
ROMANS
210
0.0
220
0.0
230
1.0
  0
TEXT
  8
11
  6
CONTINUOUS
 62
     7
  5
18F
 10
908172.197
 20
7279266.368
 30
0.0
 40
8.0
  1
100'
 50
358.1464
  7
ROMANS
210
0.0
220
0.0
230
1.0
  0
TEXT
  8
11
  6
CONTINUOUS
 62
     7
  5
190
 10
908072.211
 20
7279269.59
 30
0.0
 40
8.0
  1
83.55'
 50
358.1464
  7
ROMANS
210
0.0
220
0.0
230
1.0
  0
TEXT
  8
11
  6
CONTINUOUS
 62
     7
  5
191
 10
908065.546
 20
7279159.533
 30
0.0
 40
8.0
  1
98.05'
 50
358.1464
  7
ROMANS
210
0.0
220
0.0
230
1.0
  0
TEXT
  8
11
  6
CONTINUOUS
 62
     7
  5
192
 10
908074.861
 20
7279459.362
 30
0.0
 40
8.0
  1
98.81'
 50
358.1464
  7
ROMANS
210
0.0
220
0.0
230
1.0
  0
TEXT
  8
11
  6
CONTINUOUS
 62
     7
  5
193
 10
908073.218
 20
7279348.754
 30
0.0
 40
8.0
  1
83.55'
 50
358.1464
  7
ROMANS
210
0.0
220
0.0
230
1.0
  0
TEXT
  8
11
  6
CONTINUOUS
 62
     7
  5
194
 10
908175.133
 20
7279345.065
 30
0.0
 40
8.0
  1
83'
 50
358.1464
  7
ROMANS
210
0.0
220
0.0
230
1.0
  0
TEXT
  8
11
  6
CONTINUOUS
 62
     7
  5
195
 10
908263.493
 20
7279342.205
 30
0.0
 40
8.0
  1
83'
 50
358.1464
  7
ROMANS
210
0.0
220
0.0
230
1.0
  0
TEXT
  8
11
  6
CONTINUOUS
 62
     7
  5
196
 10
908340.227
 20
7279339.722
 30
0.0
 40
8.0
  1
83'
 50
358.1464
  7
ROMANS
210
0.0
220
0.0
230
1.0
  0
TEXT
  8
11
  6
CONTINUOUS
 62
     7
  5
197
 10
908429.749
 20
7279336.825
 30
0.0
 40
8.0
  1
83'
 50
358.1464
  7
ROMANS
210
0.0
220
0.0
230
1.0
  0
TEXT
  8
11
  6
CONTINUOUS
 62
     7
  5
198
 10
908023.027
 20
7279727.771
 30
0.0
 40
8.0
  1
37.66'
 50
358.1464
  7
ROMANS
210
0.0
220
0.0
230
1.0
  0
TEXT
  8
11
  6
CONTINUOUS
 62
     7
  5
199
 10
908019.901
 20
7279631.197
 30
0.0
 40
8.0
  1
37.50'
 50
358.1464
  7
ROMANS
210
0.0
220
0.0
230
1.0
  0
TEXT
  8
11
  6
CONTINUOUS
 62
     7
  5
19A
 10
908021.309
 20
7279494.873
 30
0.0
 40
8.0
  1
32'
 50
358.1464
  7
ROMANS
210
0.0
220
0.0
230
1.0
  0
TEXT
  8
11
  6
CONTINUOUS
 62
     7
  5
19B
 10
908019.954
 20
7279452.985
 30
0.0
 40
8.0
  1
32'
 50
358.1464
  7
ROMANS
210
0.0
220
0.0
230
1.0
  0
TEXT
  8
11
  6
CONTINUOUS
 62
     7
  5
19C
 10
908010.426
 20
7279158.607
 30
0.0
 40
8.0
  1
32'
 50
358.1464
  7
ROMANS
210
0.0
220
0.0
230
1.0
  0
TEXT
  8
11
  6
CONTINUOUS
 62
     7
  5
19D
 10
908013.402
 20
7279250.526
 30
0.0
 40
8.0
  1
32'
 50
358.1464
  7
ROMANS
210
0.0
220
0.0
230
1.0
  0
TEXT
  8
11
  6
CONTINUOUS
 62
     7
  5
19E
 10
908017.242
 20
7279369.21
 30
0.0
 40
8.0
  1
32'
 50
358.1464
  7
ROMANS
210
0.0
220
0.0
230
1.0
  0
TEXT
  8
11
  6
CONTINUOUS
 62
     7
  5
19F
 10
908814.067
 20
7279109.154
 30
0.0
 40
8.0
  1
20'
 50
88.1464
  7
ROMANS
210
0.0
220
0.0
230
1.0
  0
TEXT
  8
11
  6
CONTINUOUS
 62
     7
  5
1A0
 10
908050.338
 20
7279136.973
 30
0.0
 40
8.0
  1
20'
 50
88.1464
  7
ROMANS
210
0.0
220
0.0
230
1.0
  0
TEXT
  8
11
  6
CONTINUOUS
 62
     7
  5
1A1
 10
908074.899
 20
7279476.677
 30
0.0
 40
8.0
  1
20'
 50
88.1464
  7
ROMANS
210
0.0
220
0.0
230
1.0
  0
TEXT
  8
11
  6
CONTINUOUS
 62
     7
  5
1A2
 10
908462.759
 20
7279462.574
 30
0.0
 40
8.0
  1
20'
 50
88.1464
  7
ROMANS
210
0.0
220
0.0
230
1.0
  0
TEXT
  8
11
  6
CONTINUOUS
 62
     7
  5
1A3
 10
908466.929
 20
7279387.116
 30
0.0
 40
8.0
  1
130'
 50
88.1464
  7
ROMANS
210
0.0
220
0.0
230
1.0
  0
TEXT
  8
11
  6
CONTINUOUS
 62
     7
  5
1A4
 10
908135.44
 20
7279393.577
 30
0.0
 40
8.0
  1
130'
 50
88.1464
  7
ROMANS
210
0.0
220
0.0
230
1.0
  0
TEXT
  8
11
  6
CONTINUOUS
 62
     7
  5
1A5
 10
908130.113
 20
7279205.051
 30
0.0
 40
8.0
  1
130'
 50
88.1464
  7
ROMANS
210
0.0
220
0.0
230
1.0
  0
TEXT
  8
11
  6
CONTINUOUS
 62
     7
  5
1A6
 10
908817.431
 20
7279176.989
 30
0.0
 40
8.0
  1
130'
 50
88.1464
  7
ROMANS
210
0.0
220
0.0
230
1.0
  0
TEXT
  8
11
  6
CONTINUOUS
 62
     7
  5
1A7
 10
908046.249
 20
7279191.076
 30
0.0
 40
8.0
  1
114.97'
 50
88.1464
  7
ROMANS
210
0.0
220
0.0
230
1.0
  0
TEXT
  8
11
  6
CONTINUOUS
 62
     7
  5
1A8
 10
908052.539
 20
7279385.39
 30
0.0
 40
8.0
  1
115.03'
 50
88.1464
  7
ROMANS
210
0.0
220
0.0
230
1.0
  0
TEXT
  8
11
  6
CONTINUOUS
 62
     7
  5
1A9
 10
908076.531
 20
7279299.585
 30
0.0
 40
8.0
  1
60'
 50
88.1464
  7
ROMANS
210
0.0
220
0.0
230
1.0
  0
TEXT
  8
11
  6
CONTINUOUS
 62
     7
  5
1AA
 10
908728.104
 20
7279284.703
 30
0.0
 40
8.0
  1
60'
 50
88.1464
  7
ROMANS
210
0.0
220
0.0
230
1.0
  0
TEXT
  8
11
  6
CONTINUOUS
 62
     7
  5
1AB
 10
909236.699
 20
7279267.63
 30
0.0
 40
8.0
  1
60'
 50
88.1464
  7
ROMANS
210
0.0
220
0.0
230
1.0
  0
TEXT
  8
11
  6
CONTINUOUS
 62
     7
  5
1AC
 10
909255.551
 20
7279155.205
 30
0.0
 40
8.0
  1
135'
 50
88.1464
  7
ROMANS
210
0.0
220
0.0
230
1.0
  0
TEXT
  8
11
  6
CONTINUOUS
 62
     7
  5
1AD
 10
909267.66
 20
7279505.437
 30
0.0
 40
8.0
  1
460'
 50
88.1464
  7
ROMANS
210
0.0
220
0.0
230
1.0
  0
TEXT
  8
11
  6
CONTINUOUS
 62
     7
  5
1AE
 10
908098.007
 20
7279782.42
 30
0.0
 40
8.0
  1
50'
 50
88.1464
  7
ROMANS
210
0.0
220
0.0
230
1.0
  0
TEXT
  8
11
  6
CONTINUOUS
 62
     7
  5
1AF
 10
908092.478
 20
7279754.258
 30
0.0
 40
8.0
  1
5'
 50
358.1464
  7
ROMANS
210
0.0
220
0.0
230
1.0
  0
TEXT
  8
11
  6
CONTINUOUS
 62
     7
  5
1B0
 10
908069.364
 20
7279737.776
 30
0.0
 40
8.0
  1
R=30'
 50
358.1464
  7
ROMANS
210
0.0
220
0.0
230
1.0
  0
TEXT
  8
11
  6
CONTINUOUS
 62
     7
  5
1B1
 10
908057.406
 20
7279499.332
 30
0.0
 40
8.0
  1
20'
 50
88.1464
  7
ROMANS
210
0.0
220
0.0
230
1.0
  0
TEXT
  8
11
  6
CONTINUOUS
 62
     7
  5
1B2
 10
908069.85
 20
7279687.066
 30
0.0
 40
8.0
  1
70'
 50
88.1464
  7
ROMANS
210
0.0
220
0.0
230
1.0
  0
TEXT
  8
11
  6
CONTINUOUS
 62
     7
  5
1B3
 10
908063.607
 20
7279566.017
 30
0.0
 40
8.0
  1
150.10'
 50
88.1464
  7
ROMANS
210
0.0
220
0.0
230
1.0
  0
TEXT
  8
19
  6
CONTINUOUS
 62
     1
  5
1B4
 10
907942.033
 20
7275033.747
 30
0.0
 40
24.0
  1
18TH   ST
 50
358.1523
  7
ROMANC
 72
     4
 11
908057.534031
 21
7275042.027222
 31
0.0
210
0.0
220
0.0
230
1.0
  0
TEXT
  8
19
  6
CONTINUOUS
 62
     1
  5
1B5
 10
909093.514
 20
7275000.202
 30
0.0
 40
24.0
  1
18TH   ST
 50
358.1523
  7
ROMANC
 72
     4
 11
909209.015031
 21
7275008.482222
 31
0.0
210
0.0
220
0.0
230
1.0
  0
POLYLINE
  8
21
  6
DASHDOT
 62
     7
  5
1B7
 66
     1
 10
0.0
 20
0.0
 30
0.0
  0
VERTEX
  8
21
  6
DASHDOT
 62
     7
  5
1B8
 10
908474.235
 20
7279481.368
 30
0.0
  0
VERTEX
  8
21
  6
DASHDOT
 62
     7
  5
1B9
 10
908484.23
 20
7279481.045
 30
0.0
  0
VERTEX
  8
21
  6
DASHDOT
 62
     7
  5
1BA
 10
908479.378
 20
7279331.124
 30
0.0
  0
SEQEND
  8
21
  6
DASHDOT
 62
     7
  5
1BB
  0
LINE
  8
21
  6
DASHDOT
 62
     7
  5
1BC
 10
908434.601
 20
7279272.542
 30
0.0
 11
908430.396
 21
7279142.61
 31
0.0
  0
LINE
  8
21
  6
DASHDOT
 62
     7
  5
1BD
 10
908622.501
 20
7279266.46
 30
0.0
 11
908618.296
 21
7279136.528
 31
0.0
  0
LINE
  8
21
  6
DASHDOT
 62
     7
  5
1BE
 10
910314.151
 20
7279691.965
 30
0.0
 11
910273.232
 21
7278427.627
 31
0.0
  0
LINE
  8
21
  6
DASHDOT
 62
     7
  5
1BF
 10
910303.217
 20
7278426.657
 30
0.0
 11
910344.134
 21
7279690.995
 31
0.0
  0
POLYLINE
  8
1
  6
HIDDEN
 62
   253
  5
1C1
 66
     1
 10
0.0
 20
0.0
 30
0.0
 70
     1
  0
VERTEX
  8
1
  6
HIDDEN
 62
   253
  5
1C2
 10
910657.187
 20
7279748.899
 30
0.0
  0
VERTEX
  8
1
  6
HIDDEN
 62
   253
  5
1C3
 10
905393.263
 20
7279905.3
 30
0.0
  0
VERTEX
  8
1
  6
HIDDEN
 62
   253
  5
1C4
 10
905223.215
 20
7274656.914
 30
0.0
  0
VERTEX
  8
1
  6
HIDDEN
 62
   253
  5
1C5
 10
910488.273
 20
7274496.731
 30
0.0
  0
SEQEND
  8
1
  6
HIDDEN
 62
   253
  5
1C6
  0
TEXT
  8
10
  6
CONTINUOUS
 62
   134
  5
1C7
 10
908263.742
 20
7275186.643
 30
0.0
 40
24.0
  1
3
 50
358.1523
  7
ROMANC
210
0.0
220
0.0
230
1.0
  0
TEXT
  8
10
  6
CONTINUOUS
 62
   134
  5
1C8
 10
908970.493
 20
7275169.105
 30
0.0
 40
24.0
  1
4
 50
358.1523
  7
ROMANC
210
0.0
220
0.0
230
1.0
  0
TEXT
  8
10
  6
CONTINUOUS
 62
   134
  5
1C9
 10
908232.463
 20
7274787.661
 30
0.0
 40
24.0
  1
2
 50
358.1523
  7
ROMANC
210
0.0
220
0.0
230
1.0
  0
TEXT
  8
10
  6
CONTINUOUS
 62
   134
  5
1CA
 10
908802.458
 20
7274769.274
 30
0.0
 40
24.0
  1
1
 50
358.1523
  7
ROMANC
210
0.0
220
0.0
230
1.0
  0
POLYLINE
  8
21
  6
DASHDOT
 62
     7
  5
1CB
 66
     1
 10
0.0
 20
0.0
 30
0.0
  0
VERTEX
  8
21
  6
DASHDOT
 62
     7
  5
1CC
 10
910574.356
 20
7277097.191
 30
0.0
  0
VERTEX
  8
21
  6
DASHDOT
 62
     7
  5
1CD
 10
910202.051
 20
7277109.24
 30
0.0
  0
VERTEX
  8
21
  6
DASHDOT
 62
     7
  5
1CE
 10
910201.081
 20
7277079.256
 30
0.0
  0
VERTEX
  8
21
  6
DASHDOT
 62
     7
  5
1CF
 10
910573.386
 20
7277067.207
 30
0.0
  0
VERTEX
  8
21
  6
DASHDOT
 62
     7
  5
1D0
 10
910574.356
 20
7277097.191
 30
0.0
  0
SEQEND
  8
21
  6
DASHDOT
 62
     7
  5
1D1
  0
POLYLINE
  8
21
  6
DASHDOT
 62
     7
  5
1D2
 66
     1
 10
0.0
 20
0.0
 30
0.0
  0
VERTEX
  8
21
  6
DASHDOT
 62
     7
  5
1D3
 10
910301.999
 20
7277106.005
 30
0.0
  0
VERTEX
  8
21
  6
DASHDOT
 62
     7
  5
1D4
 10
907935.738
 20
7277182.584
 30
0.0
  0
VERTEX
  8
21
  6
DASHDOT
 62
     7
  5
1D5
 10
907936.709
 20
7277212.568
 30
0.0
  0
VERTEX
  8
21
  6
DASHDOT
 62
     7
  5
1D6
 10
910302.969
 20
7277135.99
 30
0.0
  0
VERTEX
  8
21
  6
DASHDOT
 62
     7
  5
1D7
 10
910301.999
 20
7277106.005
 30
0.0
  0
SEQEND
  8
21
  6
DASHDOT
 62
     7
  5
1D8
  0
TEXT
  8
22
  6
CONTINUOUS
 62
     3
  5
1DA
 10
908934.866
 20
7277171.606
 30
0.0
 40
6.0
  1
2367.5'
 50
358.1464
  7
ROMANS
 72
     4
 11
908953.953095
 21
7277173.98986
 31
0.0
210
0.0
220
0.0
230
1.0
  0
TEXT
  8
22
  6
CONTINUOUS
 62
     3
  5
1DB
 10
907421.15
 20
7277220.582
 30
0.0
 40
6.0
  1
1093.2'
 50
358.1464
  7
ROMANS
 72
     4
 11
907440.237095
 21
7277222.96586
 31
0.0
210
0.0
220
0.0
230
1.0
  0
POLYLINE
  8
21
  6
DASHDOT
 62
     7
  5
1DC
 66
     1
 10
0.0
 20
0.0
 30
0.0
  0
VERTEX
  8
21
  6
DASHDOT
 62
     7
  5
1DD
 10
906843.11
 20
7277217.944
 30
0.0
  0
VERTEX
  8
21
  6
DASHDOT
 62
     7
  5
1DE
 10
907935.738
 20
7277182.584
 30
0.0
  0
VERTEX
  8
21
  6
DASHDOT
 62
     7
  5
1DF
 10
907936.385
 20
7277202.573
 30
0.0
  0
VERTEX
  8
21
  6
DASHDOT
 62
     7
  5
1E0
 10
906843.756
 20
7277237.933
 30
0.0
  0
VERTEX
  8
21
  6
DASHDOT
 62
     7
  5
1E1
 10
906843.11
 20
7277217.944
 30
0.0
  0
SEQEND
  8
21
  6
DASHDOT
 62
     7
  5
1E2
  0
TEXT
  8
22
  6
CONTINUOUS
 62
     3
  5
1E3
 10
906738.269
 20
7277242.428
 30
0.0
 40
6.0
  1
168.25'
 50
358.1464
  7
ROMANS
 72
     4
 11
906757.356095
 21
7277244.81186
 31
0.0
210
0.0
220
0.0
230
1.0
  0
TEXT
  8
22
  6
CONTINUOUS
 62
     3
  5
1E4
 10
906684.258
 20
7277227.113
 30
0.0
 40
6.0
  1
20'
 50
88.1464
  7
ROMANS
 72
     4
 11
906681.48599
 21
7277234.206375
 31
0.0
210
0.0
220
0.0
230
1.0
  0
POLYLINE
  8
21
  6
DASHDOT
 62
     7
  5
1E5
 66
     1
 10
0.0
 20
0.0
 30
0.0
  0
VERTEX
  8
21
  6
DASHDOT
 62
     7
  5
1E6
 10
906675.915
 20
7277243.366
 30
0.0
  0
VERTEX
  8
21
  6
DASHDOT
 62
     7
  5
1E7
 10
906844.076
 20
7277237.923
 30
0.0
  0
VERTEX
  8
21
  6
DASHDOT
 62
     7
  5
1E8
 10
906843.429
 20
7277217.934
 30
0.0
  0
VERTEX
  8
21
  6
DASHDOT
 62
     7
  5
1E9
 10
906675.268
 20
7277223.376
 30
0.0
  0
VERTEX
  8
21
  6
DASHDOT
 62
     7
  5
1EA
 10
906675.915
 20
7277243.366
 30
0.0
  0
SEQEND
  8
21
  6
DASHDOT
 62
     7
  5
1EB
  0
TEXT
  8
22
  6
CONTINUOUS
 62
     3
  5
1EC
 10
906740.703
 20
7277212.979
 30
0.0
 40
6.0
  1
20' UUE
 50
358.1464
  7
ROMANS
 72
     4
 11
906760.664638
 21
7277215.334558
 31
0.0
210
0.0
220
0.0
230
1.0
  0
TEXT
  8
22
  6
CONTINUOUS
 62
     3
  5
1ED
 10
906570.107
 20
7277247.87
 30
0.0
 40
6.0
  1
168.25'
 50
358.1464
  7
ROMANS
 72
     4
 11
906589.194095
 21
7277250.25386
 31
0.0
210
0.0
220
0.0
230
1.0
  0
TEXT
  8
22
  6
CONTINUOUS
 62
     3
  5
1EE
 10
906516.097
 20
7277232.555
 30
0.0
 40
6.0
  1
20'
 50
88.1464
  7
ROMANS
 72
     4
 11
906513.32499
 21
7277239.648375
 31
0.0
210
0.0
220
0.0
230
1.0
  0
POLYLINE
  8
21
  6
DASHDOT
 62
     7
  5
1EF
 66
     1
 10
0.0
 20
0.0
 30
0.0
  0
VERTEX
  8
21
  6
DASHDOT
 62
     7
  5
1F0
 10
906507.753
 20
7277248.808
 30
0.0
  0
VERTEX
  8
21
  6
DASHDOT
 62
     7
  5
1F1
 10
906675.915
 20
7277243.366
 30
0.0
  0
VERTEX
  8
21
  6
DASHDOT
 62
     7
  5
1F2
 10
906675.268
 20
7277223.376
 30
0.0
  0
VERTEX
  8
21
  6
DASHDOT
 62
     7
  5
1F3
 10
906507.106
 20
7277228.819
 30
0.0
  0
VERTEX
  8
21
  6
DASHDOT
 62
     7
  5
1F4
 10
906507.753
 20
7277248.808
 30
0.0
  0
SEQEND
  8
21
  6
DASHDOT
 62
     7
  5
1F5
  0
TEXT
  8
22
  6
CONTINUOUS
 62
     3
  5
1F6
 10
906572.542
 20
7277218.421
 30
0.0
 40
6.0
  1
20' UUE
 50
358.1464
  7
ROMANS
 72
     4
 11
906592.503638
 21
7277220.776558
 31
0.0
210
0.0
220
0.0
230
1.0
  0
TEXT
  8
22
  6
CONTINUOUS
 62
     3
  5
1F7
 10
906401.945
 20
7277253.313
 30
0.0
 40
6.0
  1
168.25'
 50
358.1464
  7
ROMANS
 72
     4
 11
906421.032095
 21
7277255.69686
 31
0.0
210
0.0
220
0.0
230
1.0
  0
TEXT
  8
22
  6
CONTINUOUS
 62
     3
  5
1F8
 10
906347.934
 20
7277237.998
 30
0.0
 40
6.0
  1
20'
 50
88.1464
  7
ROMANS
 72
     4
 11
906345.16199
 21
7277245.091375
 31
0.0
210
0.0
220
0.0
230
1.0
  0
POLYLINE
  8
21
  6
DASHDOT
 62
     7
  5
1F9
 66
     1
 10
0.0
 20
0.0
 30
0.0
  0
VERTEX
  8
21
  6
DASHDOT
 62
     7
  5
1FA
 10
906339.591
 20
7277254.25
 30
0.0
  0
VERTEX
  8
21
  6
DASHDOT
 62
     7
  5
1FB
 10
906507.753
 20
7277248.808
 30
0.0
  0
VERTEX
  8
21
  6
DASHDOT
 62
     7
  5
1FC
 10
906507.106
 20
7277228.819
 30
0.0
  0
VERTEX
  8
21
  6
DASHDOT
 62
     7
  5
1FD
 10
906338.944
 20
7277234.261
 30
0.0
  0
VERTEX
  8
21
  6
DASHDOT
 62
     7
  5
1FE
 10
906339.591
 20
7277254.25
 30
0.0
  0
SEQEND
  8
21
  6
DASHDOT
 62
     7
  5
1FF
  0
TEXT
  8
22
  6
CONTINUOUS
 62
     3
  5
200
 10
906404.38
 20
7277223.863
 30
0.0
 40
6.0
  1
20' UUE
 50
358.1464
  7
ROMANS
 72
     4
 11
906424.341638
 21
7277226.218558
 31
0.0
210
0.0
220
0.0
230
1.0
  0
TEXT
  8
22
  6
CONTINUOUS
 62
     3
  5
201
 10
906233.783
 20
7277258.755
 30
0.0
 40
6.0
  1
168.25'
 50
358.1464
  7
ROMANS
 72
     4
 11
906252.870095
 21
7277261.13886
 31
0.0
210
0.0
220
0.0
230
1.0
  0
TEXT
  8
22
  6
CONTINUOUS
 62
     3
  5
202
 10
906179.772
 20
7277243.44
 30
0.0
 40
6.0
  1
20'
 50
88.1464
  7
ROMANS
 72
     4
 11
906176.99999
 21
7277250.533375
 31
0.0
210
0.0
220
0.0
230
1.0
  0
POLYLINE
  8
21
  6
DASHDOT
 62
     7
  5
203
 66
     1
 10
0.0
 20
0.0
 30
0.0
  0
VERTEX
  8
21
  6
DASHDOT
 62
     7
  5
204
 10
906171.429
 20
7277259.692
 30
0.0
  0
VERTEX
  8
21
  6
DASHDOT
 62
     7
  5
205
 10
906339.591
 20
7277254.25
 30
0.0
  0
VERTEX
  8
21
  6
DASHDOT
 62
     7
  5
206
 10
906338.944
 20
7277234.261
 30
0.0
  0
VERTEX
  8
21
  6
DASHDOT
 62
     7
  5
207
 10
906170.782
 20
7277239.703
 30
0.0
  0
VERTEX
  8
21
  6
DASHDOT
 62
     7
  5
208
 10
906171.429
 20
7277259.692
 30
0.0
  0
SEQEND
  8
21
  6
DASHDOT
 62
     7
  5
209
  0
TEXT
  8
22
  6
CONTINUOUS
 62
     3
  5
20A
 10
906236.218
 20
7277229.306
 30
0.0
 40
6.0
  1
20' UUE
 50
358.1464
  7
ROMANS
 72
     4
 11
906256.179638
 21
7277231.661558
 31
0.0
210
0.0
220
0.0
230
1.0
  0
TEXT
  8
22
  6
CONTINUOUS
 62
     3
  5
20B
 10
906065.621
 20
7277264.197
 30
0.0
 40
6.0
  1
168.25'
 50
358.1464
  7
ROMANS
 72
     4
 11
906084.708095
 21
7277266.58086
 31
0.0
210
0.0
220
0.0
230
1.0
  0
TEXT
  8
22
  6
CONTINUOUS
 62
     3
  5
20C
 10
906011.611
 20
7277248.882
 30
0.0
 40
6.0
  1
20'
 50
88.1464
  7
ROMANS
 72
     4
 11
906008.83899
 21
7277255.975375
 31
0.0
210
0.0
220
0.0
230
1.0
  0
POLYLINE
  8
21
  6
DASHDOT
 62
     7
  5
20D
 66
     1
 10
0.0
 20
0.0
 30
0.0
  0
VERTEX
  8
21
  6
DASHDOT
 62
     7
  5
20E
 10
906003.266
 20
7277265.135
 30
0.0
  0
VERTEX
  8
21
  6
DASHDOT
 62
     7
  5
20F
 10
906171.429
 20
7277259.692
 30
0.0
  0
VERTEX
  8
21
  6
DASHDOT
 62
     7
  5
210
 10
906170.782
 20
7277239.703
 30
0.0
  0
VERTEX
  8
21
  6
DASHDOT
 62
     7
  5
211
 10
906002.619
 20
7277245.145
 30
0.0
  0
VERTEX
  8
21
  6
DASHDOT
 62
     7
  5
212
 10
906003.266
 20
7277265.135
 30
0.0
  0
SEQEND
  8
21
  6
DASHDOT
 62
     7
  5
213
  0
TEXT
  8
22
  6
CONTINUOUS
 62
     3
  5
214
 10
906068.056
 20
7277234.748
 30
0.0
 40
6.0
  1
20' UUE
 50
358.1464
  7
ROMANS
 72
     4
 11
906088.017638
 21
7277237.103558
 31
0.0
210
0.0
220
0.0
230
1.0
  0
POLYLINE
  8
21
  6
DASHDOT
 62
     7
  5
215
 66
     1
 10
0.0
 20
0.0
 30
0.0
 70
     1
  0
VERTEX
  8
21
  6
DASHDOT
 62
     7
  5
216
 10
905297.119
 20
7277267.977
 30
0.0
  0
VERTEX
  8
21
  6
DASHDOT
 62
     7
  5
217
 10
906002.619
 20
7277245.145
 30
0.0
  0
VERTEX
  8
21
  6
DASHDOT
 62
     7
  5
218
 10
906003.266
 20
7277265.135
 30
0.0
  0
VERTEX
  8
21
  6
DASHDOT
 62
     7
  5
219
 10
905297.766
 20
7277287.966
 30
0.0
  0
SEQEND
  8
21
  6
DASHDOT
 62
     7
  5
21A
  0
TEXT
  8
22
  6
CONTINUOUS
 62
     3
  5
21B
 10
908480.333
 20
7279374.913
 30
0.0
 40
8.0
  1
10'  UUE
 50
88.1464
  7
ROMANS
210
0.0
220
0.0
230
1.0
  0
TEXT
  8
22
  6
CONTINUOUS
 62
     3
  5
21C
 10
908430.291
 20
7279171.029
 30
0.0
 40
8.0
  1
10'  UUE
 50
88.1464
  7
ROMANS
210
0.0
220
0.0
230
1.0
  0
TEXT
  8
22
  6
CONTINUOUS
 62
     3
  5
21D
 10
908616.189
 20
7279172.8
 30
0.0
 40
8.0
  1
2' USE
 50
88.1464
  7
ROMANS
210
0.0
220
0.0
230
1.0
  0
TEXT
  8
22
  6
CONTINUOUS
 62
     3
  5
21E
 10
910314.869
 20
7278880.893
 30
0.0
 40
8.0
  1
30'  ROAD ESMT.  VOL. 828  PG.57
 50
88.1464
  7
ROMANS
210
0.0
220
0.0
230
1.0
  0
TEXT
  8
19
  6
CONTINUOUS
 62
     1
  5
21F
 10
910066.634
 20
7279714.172
 30
0.0
 40
24.0
  1
4TH ST
 50
358.1464
  7
ROMANC
 72
     4
 11
910143.608054
 21
7279723.687193
 31
0.0
210
0.0
220
0.0
230
1.0
  0
TEXT
  8
19
  6
CONTINUOUS
 62
     1
  5
220
 10
908094.61
 20
7279790.299
 30
0.0
 40
24.0
  1
4TH ST
 50
358.1464
  7
ROMANC
 72
     4
 11
908171.584054
 21
7279799.814193
 31
0.0
210
0.0
220
0.0
230
1.0
  0
TEXT
  8
19
  6
CONTINUOUS
 62
     1
  5
221
 10
906209.645
 20
7274635.617
 30
0.0
 40
24.0
  1
19TH  ST   STATE  HIGHWAY  114
 50
358.1523
  7
ROMANC
 72
     4
 11
906596.264993
 21
7274635.151024
 31
0.0
210
0.0
220
0.0
230
1.0
  0
TEXT
  8
19
  6
CONTINUOUS
 62
     1
  5
222
 10
908129.307
 20
7274567.305
 30
0.0
 40
24.0
  1
19TH  ST   STATE  HIGHWAY  114
 50
358.1523
  7
ROMANC
 72
     4
 11
908515.926993
 21
7274566.839024
 31
0.0
210
0.0
220
0.0
230
1.0
  0
TEXT
  8
19
  6
CONTINUOUS
 62
     1
  5
223
 10
905346.188
 20
7275107.334
 30
0.0
 40
24.0
  1
18TH  ST
 50
358.1523
  7
ROMANC
 72
     4
 11
905446.390989
 21
7275116.107731
 31
0.0
210
0.0
220
0.0
230
1.0
  0
TEXT
  8
19
  6
CONTINUOUS
 62
     1
  5
224
 10
907325.333
 20
7275043.488
 30
0.0
 40
24.0
  1
18TH  ST
 50
358.1523
  7
ROMANC
 72
     4
 11
907425.535989
 21
7275052.261731
 31
0.0
210
0.0
220
0.0
230
1.0
  0
TEXT
  8
19
  6
CONTINUOUS
 62
     1
  5
225
 10
908622.596
 20
7274616.766
 30
0.0
 40
24.0
  1
VIOLA  AVE
 50
88.1523
  7
ROMANC
 72
     4
 11
908614.714848
 21
7274744.637596
 31
0.0
210
0.0
220
0.0
230
1.0
  0
LINE
  8
6
  6
CONTINUOUS
 62
     7
  5
226
 10
909380.483
 20
7275226.053
 30
0.0
 11
909381.128
 21
7275246.043
 31
0.0
  0
LINE
  8
6
  6
CONTINUOUS
 62
     7
  5
227
 10
909380.483
 20
7275226.054
 30
0.0
 11
909797.685
 21
7275212.566
 31
0.0
  0
LINE
  8
6
  6
CONTINUOUS
 62
     7
  5
228
 10
909797.685
 20
7275212.566
 30
0.0
 11
910323.65
 21
7275197.757
 31
0.0
  0
LINE
  8
7
  6
CONTINUOUS
 62
     7
  5
229
 10
909671.916
 20
7274547.48
 30
0.0
 11
909692.747
 21
7275215.958
 31
0.0
  0
LINE
  8
7
  6
CONTINUOUS
 62
     7
  5
22A
 10
909374.824
 20
7275050.615
 30
0.0
 11
909687.268
 21
7275040.144
 31
0.0
  0
LINE
  8
6
  6
CONTINUOUS
 62
     7
  5
22B
 10
909488.637
 20
7274553.239
 30
0.0
 11
909504.577
 21
7275046.266
 31
0.0
  0
LINE
  8
6
  6
CONTINUOUS
 62
     7
  5
22C
 10
909776.865
 20
7274544.182
 30
0.0
 11
910249.472
 21
7274531.045
 31
0.0
  0
LINE
  8
7
  6
CONTINUOUS
 62
     7
  5
22D
 10
910249.472
 20
7274531.045
 30
0.0
 11
910253.677
 21
7274665.98
 31
0.0
  0
LINE
  8
6
  6
CONTINUOUS
 62
     7
  5
22E
 10
909373.996
 20
7275024.958
 30
0.0
 11
909372.383
 21
7274974.984
 31
0.0
  0
LINE
  8
7
  6
CONTINUOUS
 62
     7
  5
22F
 10
909365.214
 20
7274752.699
 30
0.0
 11
909358.922
 21
7274557.653
 31
0.0
  0
LINE
  8
7
  6
CONTINUOUS
 62
     7
  5
230
 10
909365.475
 20
7274760.764
 30
0.0
 11
909365.214
 21
7274752.699
 31
0.0
  0
LINE
  8
7
  6
CONTINUOUS
 62
     7
  5
231
 10
909372.383
 20
7274974.984
 30
0.0
 11
909365.475
 21
7274760.764
 31
0.0
  0
LINE
  8
7
  6
CONTINUOUS
 62
     7
  5
232
 10
909373.996
 20
7275024.958
 30
0.0
 11
909380.483
 21
7275226.053
 31
0.0
  0
LINE
  8
6
  6
CONTINUOUS
 62
     7
  5
233
 10
909776.865
 20
7274544.182
 30
0.0
 11
909468.647
 21
7274553.868
 31
0.0
  0
LINE
  8
6
  6
CONTINUOUS
 62
     7
  5
234
 10
909468.647
 20
7274553.868
 30
0.0
 11
909358.922
 21
7274557.653
 31
0.0
  0
LINE
  8
7
  6
CONTINUOUS
 62
     7
  5
235
 10
909781.07
 20
7274679.117
 30
0.0
 11
909776.865
 21
7274544.182
 31
0.0
  0
LINE
  8
7
  6
CONTINUOUS
 62
     7
  5
236
 10
910253.678
 20
7274665.98
 30
0.0
 11
909781.07
 21
7274679.117
 31
0.0
  0
LINE
  8
7
  6
CONTINUOUS
 62
     7
  5
237
 10
910255.932
 20
7274740.966
 30
0.0
 11
910253.678
 21
7274665.98
 31
0.0
  0
LINE
  8
7
  6
CONTINUOUS
 62
     7
  5
238
 10
910443.77
 20
7274735.745
 30
0.0
 11
910255.932
 21
7274740.966
 31
0.0
  0
LINE
  8
6
  6
CONTINUOUS
 62
     7
  5
239
 10
910460.679
 20
7274978.472
 30
0.0
 11
910444.995
 21
7274778.837
 31
0.0
  0
LINE
  8
6
  6
CONTINUOUS
 62
     7
  5
23A
 10
910444.995
 20
7274778.837
 30
0.0
 11
910443.77
 21
7274735.745
 31
0.0
  0
LINE
  8
6
  6
CONTINUOUS
 62
     7
  5
23B
 10
910461.694
 20
7275014.188
 30
0.0
 11
910460.679
 21
7274978.472
 31
0.0
  0
LINE
  8
7
  6
CONTINUOUS
 62
     7
  5
23C
 10
910065.902
 20
7274671.199
 30
0.0
 11
910061.696
 21
7274536.264
 31
0.0
  0
LINE
  8
6
  6
CONTINUOUS
 62
     7
  5
23D
 10
910317.386
 20
7275019.024
 30
0.0
 11
910478.32
 21
7275013.631
 31
0.0
  0
LINE
  8
6
  6
CONTINUOUS
 62
     7
  5
23E
 10
910323.757
 20
7275200.832
 30
0.0
 11
910317.386
 21
7275019.024
 31
0.0
  0
LINE
  8
6
  6
CONTINUOUS
 62
     7
  5
23F
 10
910481.858
 20
7275195.533
 30
0.0
 11
910323.757
 21
7275200.832
 31
0.0
  0
LINE
  8
6
  6
CONTINUOUS
 62
     7
  5
240
 10
909797.927
 20
7275220.062
 30
0.0
 11
910482.006
 21
7275200.801
 31
0.0
  0
LINE
  8
6
  6
CONTINUOUS
 62
     7
  5
241
 10
909380.725
 20
7275233.55
 30
0.0
 11
909797.927
 21
7275220.062
 31
0.0
  0
LINE
  8
6
  6
CONTINUOUS
 62
     7
  5
242
 10
910482.006
 20
7275200.801
 30
0.0
 11
910481.858
 21
7275195.533
 31
0.0
  0
LINE
  8
6
  6
CONTINUOUS
 62
     7
  5
243
 10
910443.77
 20
7274735.745
 30
0.0
 11
910438.714
 21
7274555.788
 31
0.0
  0
ARC
  8
6
  6
CONTINUOUS
 62
     7
  5
244
 10
910408.726083
 20
7274556.630083
 30
0.0
 40
30.0
 50
268.407861
 51
358.390747
210
0.0
220
0.0
230
1.0
  0
LINE
  8
6
  6
CONTINUOUS
 62
     7
  5
245
 10
910407.893
 20
7274526.642
 30
0.0
 11
910249.472
 21
7274531.045
 31
0.0
  0
TEXT
  8
11
  6
CONTINUOUS
 62
     7
  5
247
 10
909510.165
 20
7275210.856
 30
0.0
 40
8.0
  1
312.42'
 50
358.148292
  7
txt
 72
     1
 11
909532.836792
 21
7275218.127208
 31
0.0
210
0.0
220
0.0
230
1.0
 73
     3
  0
TEXT
  8
11
  6
CONTINUOUS
 62
     7
  5
248
 10
909387.997
 20
7275117.816
 30
0.0
 40
8.0
  1
175.53'
 50
88.152328
  7
txt
 72
     1
 11
909380.7191
 21
7275140.329362
 31
0.0
210
0.0
220
0.0
230
1.0
 73
     3
  0
TEXT
  8
11
  6
CONTINUOUS
 62
     7
  5
249
 10
909686.584
 20
7275114.509
 30
0.0
 40
8.0
  1
175.9'
 50
88.215136
  7
txt
 72
     1
 11
909687.14707
 21
7275132.578229
 31
0.0
210
0.0
220
0.0
230
1.0
  0
TEXT
  8
11
  6
CONTINUOUS
 62
     7
  5
24A
 10
909692.754
 20
7275204.953
 30
0.0
 40
8.0
  1
15'
 50
358.148292
  7
txt
 72
     1
 11
909701.22821
 21
7275212.683211
 31
0.0
210
0.0
220
0.0
230
1.0
 73
     3
  0
TEXT
  8
11
  6
CONTINUOUS
 62
     7
  5
24B
 10
909585.73
 20
7275032.54
 30
0.0
 40
8.0
  1
182.8'
 50
358.080553
  7
txt
 72
     1
 11
909604.223723
 21
7275039.924707
 31
0.0
210
0.0
220
0.0
230
1.0
 73
     3
  0
TEXT
  8
11
  6
CONTINUOUS
 62
     7
  5
24C
 10
909417.465
 20
7275038.18
 30
0.0
 40
8.0
  1
129.82'
 50
358.080553
  7
txt
 72
     1
 11
909439.766585
 21
7275045.437094
 31
0.0
210
0.0
220
0.0
230
1.0
 73
     3
  0
TEXT
  8
11
  6
CONTINUOUS
 62
     7
  5
24D
 10
909493.045
 20
7274782.403
 30
0.0
 40
8.0
  1
493.28'
 50
88.148222
  7
txt
 72
     1
 11
909493.809323
 21
7274806.043648
 31
0.0
210
0.0
220
0.0
230
1.0
  0
TEXT
  8
11
  6
CONTINUOUS
 62
     7
  5
24E
 10
909405.522
 20
7274559.048
 30
0.0
 40
8.0
  1
129.79'
 50
358.024347
  7
txt
 72
     1
 11
909427.396989
 21
7274558.293415
 31
0.0
210
0.0
220
0.0
230
1.0
  0
TEXT
  8
11
  6
CONTINUOUS
 62
     7
  5
24F
 10
909566.385
 20
7274553.798
 30
0.0
 40
8.0
  1
183.37'
 50
358.200025
  7
txt
 72
     1
 11
909588.641013
 21
7274553.098586
 31
0.0
210
0.0
220
0.0
230
1.0
  0
TEXT
  8
11
  6
CONTINUOUS
 62
     7
  5
250
 10
909676.515
 20
7274791.383
 30
0.0
 40
8.0
  1
668.8'
 50
88.215136
  7
txt
 72
     1
 11
909677.115322
 21
7274810.647649
 31
0.0
210
0.0
220
0.0
230
1.0
  0
TEXT
  8
11
  6
CONTINUOUS
 62
     7
  5
251
 10
909775.625
 20
7274600.705
 30
0.0
 40
8.0
  1
135'
 50
88.215061
  7
txt
 72
     1
 11
909776.005629
 21
7274612.919071
 31
0.0
210
0.0
220
0.0
230
1.0
  0
TEXT
  8
11
  6
CONTINUOUS
 62
     7
  5
252
 10
909895.115
 20
7274664.943
 30
0.0
 40
8.0
  1
284.94'
 50
358.407769
  7
txt
 72
     1
 11
909919.170083
 21
7274672.277435
 31
0.0
210
0.0
220
0.0
230
1.0
 73
     3
  0
TEXT
  8
11
  6
CONTINUOUS
 62
     7
  5
253
 10
910060.706
 20
7274600.794
 30
0.0
 40
8.0
  1
135'
 50
88.214636
  7
txt
 72
     1
 11
910061.086719
 21
7274613.008068
 31
0.0
210
0.0
220
0.0
230
1.0
  0
TEXT
  8
11
  6
CONTINUOUS
 62
     7
  5
254
 10
910136.835
 20
7274658.224
 30
0.0
 40
8.0
  1
187.85'
 50
358.407769
  7
txt
 72
     1
 11
910159.315691
 21
7274665.602198
 31
0.0
210
0.0
220
0.0
230
1.0
 73
     3
  0
TEXT
  8
11
  6
CONTINUOUS
 62
     7
  5
255
 10
910251.215
 20
7274683.862
 30
0.0
 40
8.0
  1
75.02'
 50
88.278267
  7
txt
 72
     1
 11
910251.805482
 21
7274703.506127
 31
0.0
210
0.0
220
0.0
230
1.0
  0
TEXT
  8
11
  6
CONTINUOUS
 62
     7
  5
256
 10
910248.971
 20
7274592.878
 30
0.0
 40
8.0
  1
135'
 50
88.214636
  7
txt
 72
     1
 11
910249.351719
 21
7274605.092068
 31
0.0
210
0.0
220
0.0
230
1.0
  0
TEXT
  8
11
  6
CONTINUOUS
 62
     7
  5
257
 10
910136.378
 20
7274537.19
 30
0.0
 40
8.0
  1
187.94'
 50
358.407767
  7
txt
 72
     1
 11
910158.635403
 21
7274536.571314
 31
0.0
210
0.0
220
0.0
230
1.0
  0
TEXT
  8
11
  6
CONTINUOUS
 62
     7
  5
258
 10
910330.227
 20
7274531.802
 30
0.0
 40
8.0
  1
158.27'
 50
358.407986
  7
txt
 72
     1
 11
910352.485405
 21
7274531.183371
 31
0.0
210
0.0
220
0.0
230
1.0
  0
TEXT
  8
11
  6
CONTINUOUS
 62
     7
  5
259
 10
910437.521
 20
7274620.161
 30
0.0
 40
8.0
  1
180.04'
 50
88.390664
  7
txt
 72
     1
 11
910438.149026
 21
7274642.514179
 31
0.0
210
0.0
220
0.0
230
1.0
  0
TEXT
  8
11
  6
CONTINUOUS
 62
     7
  5
25A
 10
910332.989
 20
7274727.82
 30
0.0
 40
8.0
  1
187.91'
 50
358.407861
  7
txt
 72
     1
 11
910353.8633
 21
7274735.242884
 31
0.0
210
0.0
220
0.0
230
1.0
 73
     3
  0
TEXT
  8
10
  6
CONTINUOUS
 62
   134
  5
25B
 10
910289.76
 20
7274640.378
 30
0.0
 40
13.999
  1
 TRACT F
 50
358.1523
  7
ROMANS
 11
910290.211368
 21
7274654.369721
 31
0.0
210
0.0
220
0.0
230
1.0
 73
     3
  0
TEXT
  8
10
  6
CONTINUOUS
 62
   134
  5
25C
 10
910114.131
 20
7274592.883
 30
0.0
 40
13.999
  1
 TRACT D
 50
358.1523
  7
ROMANS
 11
910114.582368
 21
7274606.874721
 31
0.0
210
0.0
220
0.0
230
1.0
 73
     3
  0
TEXT
  8
10
  6
CONTINUOUS
 62
   134
  5
25D
 10
909819.835
 20
7274600.8
 30
0.0
 40
13.999
  1
 NOT SUBDIVIDED
 50
358.1523
  7
ROMANS
 11
909820.286368
 21
7274614.791721
 31
0.0
210
0.0
220
0.0
230
1.0
 73
     3
  0
TEXT
  8
10
  6
CONTINUOUS
 62
   134
  5
25E
 10
910371.598
 20
7275122.801
 30
0.0
 40
13.999
  1
 NOT 
 50
358.1523
  7
ROMANS
 72
     4
 11
910404.470717
 21
7275128.74418
 31
0.0
210
0.0
220
0.0
230
1.0
  0
TEXT
  8
10
  6
CONTINUOUS
 62
   134
  5
25F
 10
910336.153
 20
7275102.935
 30
0.0
 40
13.999
  1
SUBDIVIDED
 50
358.1523
  7
ROMANS
 72
     4
 11
910403.79363
 21
7275107.75658
 31
0.0
210
0.0
220
0.0
230
1.0
  0
TEXT
  8
10
  6
CONTINUOUS
 62
   134
  5
260
 10
909981.224
 20
7274893.692
 30
0.0
 40
13.999
  1
 TRACT C-1
 50
358.1523
  7
ROMANS
 11
909981.675368
 21
7274907.683721
 31
0.0
210
0.0
220
0.0
230
1.0
 73
     3
  0
TEXT
  8
10
  6
CONTINUOUS
 62
   134
  5
261
 10
909509.717
 20
7275121.673
 30
0.0
 40
13.999
  1
 TRACT E
 50
358.1523
  7
ROMANS
 11
909510.168368
 21
7275135.664721
 31
0.0
210
0.0
220
0.0
230
1.0
 73
     3
  0
TEXT
  8
10
  6
CONTINUOUS
 62
   134
  5
262
 10
909353.076
 20
7274808.199
 30
0.0
 40
13.999
  1
 TRACT A-1
 50
358.1523
  7
ROMANS
 11
909353.527368
 21
7274822.190721
 31
0.0
210
0.0
220
0.0
230
1.0
 73
     3
  0
TEXT
  8
10
  6
CONTINUOUS
 62
   134
  5
263
 10
909535.033
 20
7274801.865
 30
0.0
 40
13.999
  1
 TRACT B
 50
358.1523
  7
ROMANS
 11
909535.484368
 21
7274815.856721
 31
0.0
210
0.0
220
0.0
230
1.0
 73
     3
  0
POLYLINE
  8
21
  6
DASHDOT
 62
     7
  5
264
 66
     1
 10
0.0
 20
0.0
 30
0.0
 70
     1
  0
VERTEX
  8
21
  6
DASHDOT
 62
     7
  5
265
 10
909687.423
 20
7275045.141
 30
0.0
  0
VERTEX
  8
21
  6
DASHDOT
 62
     7
  5
266
 10
909374.985
 20
7275055.612
 30
0.0
  0
VERTEX
  8
21
  6
DASHDOT
 62
     7
  5
267
 10
909374.179
 20
7275030.625
 30
0.0
  0
VERTEX
  8
21
  6
DASHDOT
 62
     7
  5
268
 10
909483.941
 20
7275026.946
 30
0.0
  0
VERTEX
  8
21
  6
DASHDOT
 62
     7
  5
269
 10
909493.612
 20
7275016.617
 30
0.0
  0
VERTEX
  8
21
  6
DASHDOT
 62
     7
  5
26A
 10
909478.642
 20
7274553.554
 30
0.0
  0
VERTEX
  8
21
  6
DASHDOT
 62
     7
  5
26B
 10
909503.629
 20
7274552.769
 30
0.0
  0
VERTEX
  8
21
  6
DASHDOT
 62
     7
  5
26C
 10
909518.598
 20
7275015.779
 30
0.0
  0
VERTEX
  8
21
  6
DASHDOT
 62
     7
  5
26D
 10
909528.916
 20
7275025.439
 30
0.0
  0
VERTEX
  8
21
  6
DASHDOT
 62
     7
  5
26E
 10
909686.646
 20
7275020.154
 30
0.0
  0
VERTEX
  8
21
  6
DASHDOT
 62
     7
  5
26F
 10
909687.423
 20
7275045.141
 30
0.0
  0
SEQEND
  8
21
  6
DASHDOT
 62
     7
  5
270
  0
TEXT
  8
22
  6
CONTINUOUS
 62
     3
  5
271
 10
909503.839
 20
7274744.922
 30
0.0
 40
6.0
  1
25' UTILITY AND PUBLIC ACCESS ESMT
 50
88.148286
  7
txt
 72
     1
 11
909506.894377
 21
7274839.428623
 31
0.0
210
0.0
220
0.0
230
1.0
  0
TEXT
  8
22
  6
CONTINUOUS
 62
     3
  5
272
 10
909419.061
 20
7275055.929
 30
0.0
 40
6.0
  1
25' UTILITY AND PUBLIC ACCESS ESMT
 50
358.080517
  7
txt
 72
     1
 11
909513.563943
 21
7275052.761843
 31
0.0
210
0.0
220
0.0
230
1.0
  0
POLYLINE
  8
21
  6
DASHDOT
 62
     7
  5
273
 66
     1
 10
0.0
 20
0.0
 30
0.0
 70
     1
  0
VERTEX
  8
21
  6
DASHDOT
 62
     7
  5
274
 10
909380.483
 20
7275226.053
 30
0.0
  0
VERTEX
  8
21
  6
DASHDOT
 62
     7
  5
275
 10
909400.473
 20
7275225.408
 30
0.0
  0
VERTEX
  8
21
  6
DASHDOT
 62
     7
  5
276
 10
909392.374
 20
7274974.339
 30
0.0
  0
VERTEX
  8
21
  6
DASHDOT
 62
     7
  5
277
 10
909372.383
 20
7274974.984
 30
0.0
  0
SEQEND
  8
21
  6
DASHDOT
 62
     7
  5
278
  0
TEXT
  8
22
  6
CONTINUOUS
 62
     3
  5
279
 10
909388.825
 20
7275073.325
 30
0.0
 40
6.0
  1
20' UUE
 50
88.152389
  7
txt
 72
     1
 11
909389.350469
 21
7275089.614527
 31
0.0
210
0.0
220
0.0
230
1.0
  0
SOLID
  8
21
  6
DASHDOT
 62
     7
  5
27A
 10
909707.739
 20
7275215.474
 30
0.0
 11
909686.909
 21
7274547.009
 31
0.0
 12
909747.719
 22
7275214.182
 32
0.0
 13
909726.889
 23
7274545.753
 33
0.0
  0
TEXT
  8
22
  6
CONTINUOUS
 62
     3
  5
27B
 10
909727.736
 20
7275049.404
 30
0.0
 40
6.0
  1
40' DRE
 50
88.215092
  7
txt
 72
     1
 11
909728.248065
 21
7275065.836023
 31
0.0
210
0.0
220
0.0
230
1.0
  0
TEXT
  8
22
  6
CONTINUOUS
 62
     3
  5
27C
 10
909715.078
 20
7274754.928
 30
0.0
 40
6.0
  1
40' DRE
 50
88.215092
  7
txt
 72
     1
 11
909715.590065
 21
7274771.360023
 31
0.0
210
0.0
220
0.0
230
1.0
  0
TEXT
  8
22
  6
CONTINUOUS
 62
     3
  5
27D
 10
910267.007
 20
7274623.693
 30
0.0
 40
6.0
  1
20' UUE
 50
88.152389
  7
txt
 72
     1
 11
910267.532469
 21
7274639.982527
 31
0.0
210
0.0
220
0.0
230
1.0
  0
POLYLINE
  8
21
  6
DASHDOT
 62
     7
  5
27E
 66
     1
 10
0.0
 20
0.0
 30
0.0
 70
     1
  0
VERTEX
  8
21
  6
DASHDOT
 62
     7
  5
27F
 10
910255.932
 20
7274740.966
 30
0.0
  0
VERTEX
  8
21
  6
DASHDOT
 62
     7
  5
280
 10
910276.006
 20
7274740.408
 30
0.0
  0
VERTEX
  8
21
  6
DASHDOT
 62
     7
  5
281
 10
910269.462
 20
7274530.422
 30
0.0
  0
VERTEX
  8
21
  6
DASHDOT
 62
     7
  5
282
 10
910249.472
 20
7274531.045
 30
0.0
  0
SEQEND
  8
21
  6
DASHDOT
 62
     7
  5
283
  0
TEXT
  8
15
  6
CONTINUOUS
 62
    30
  5
284
 10
909936.881
 20
7274925.95
 30
0.0
 40
20.0
  1
CARAVAN 
 50
28.1523
  7
ROMANC
 72
     4
 11
910011.024416
 21
7274976.967684
 31
0.0
210
0.0
220
0.0
230
1.0
  0
TEXT
  8
15
  6
CONTINUOUS
 62
    30
  5
285
 10
909961.171
 20
7274904.923
 30
0.0
 40
20.0
  1
ADDITION
 50
28.1523
  7
ROMANC
 72
     4
 11
910025.179314
 21
7274950.517149
 31
0.0
210
0.0
220
0.0
230
1.0
  0
TEXT
  8
15
  6
CONTINUOUS
 62
    30
  5
286
 10
909440.036
 20
7274957.614
 30
0.0
 40
20.0
  1
CARAVAN 
 50
28.1523
  7
ROMANC
 72
     4
 11
909514.179416
 21
7275008.631684
 31
0.0
210
0.0
220
0.0
230
1.0
  0
TEXT
  8
15
  6
CONTINUOUS
 62
    30
  5
287
 10
909464.326
 20
7274936.587
 30
0.0
 40
20.0
  1
ADDITION
 50
28.1523
  7
ROMANC
 72
     4
 11
909528.334314
 21
7274982.181149
 31
0.0
210
0.0
220
0.0
230
1.0
  0
TEXT
  8
15
  6
CONTINUOUS
 62
    30
  5
288
 10
910180.557
 20
7274580.811
 30
0.0
 40
20.0
  1
CARAVAN 
 50
28.1523
  7
ROMANC
 72
     4
 11
910254.700416
 21
7274631.828684
 31
0.0
210
0.0
220
0.0
230
1.0
  0
TEXT
  8
15
  6
CONTINUOUS
 62
    30
  5
289
 10
910204.847
 20
7274559.784
 30
0.0
 40
20.0
  1
ADDITION
 50
28.1523
  7
ROMANC
 72
     4
 11
910268.855314
 21
7274605.378149
 31
0.0
210
0.0
220
0.0
230
1.0
  0
POLYLINE
  8
21
  6
DASHDOT
 62
     7
  5
28A
 66
     1
 10
0.0
 20
0.0
 30
0.0
  0
VERTEX
  8
21
  6
DASHDOT
 62
     7
  5
28B
 10
905297.766
 20
7277287.966
 30
0.0
  0
VERTEX
  8
21
  6
DASHDOT
 62
     7
  5
28C
 10
905300.03
 20
7277357.929
 30
0.0
  0
VERTEX
  8
21
  6
DASHDOT
 62
     7
  5
28D
 10
906005.531
 20
7277335.098
 30
0.0
  0
VERTEX
  8
21
  6
DASHDOT
 62
     7
  5
28E
 10
906003.266
 20
7277265.135
 30
0.0
  0
VERTEX
  8
21
  6
DASHDOT
 62
     7
  5
28F
 10
905297.766
 20
7277287.966
 30
0.0
  0
SEQEND
  8
21
  6
DASHDOT
 62
     7
  5
290
  0
TEXT
  8
22
  6
CONTINUOUS
 62
     3
  5
291
 10
905427.949
 20
7277314.36
 30
0.0
 40
6.0
  1
70' TEMPORARY WORKING EASEMENT
 50
358.1464
  7
ROMANS
 72
     4
 11
905516.999467
 21
7277314.479656
 31
0.0
210
0.0
220
0.0
230
1.0
  0
TEXT
  8
13
  6
CONTINUOUS
 62
    14
  5
293
 10
905704.0
 20
7277300.953
 30
0.0
 40
8.0
  1
V6089 P202
 50
358.1464
  7
ROMANS
 72
     4
 11
905742.442325
 21
7277303.710996
 31
0.0
210
0.0
220
0.0
230
1.0
  0
TEXT
  8
22
  6
CONTINUOUS
 62
     3
  5
294
 10
905634.384
 20
7277278.82
 30
0.0
 40
6.0
  1
705.87'
 50
358.1464
  7
ROMANS
 72
     4
 11
905653.471095
 21
7277281.20386
 31
0.0
210
0.0
220
0.0
230
1.0
  0
TEXT
  8
22
  6
CONTINUOUS
 62
     3
  5
295
 10
905419.629
 20
7277272.002
 30
0.0
 40
6.0
  1
20' UNDERGROUND UTILITY EASMENT 
 50
358.1464
  7
ROMANS
 72
     4
 11
905514.676327
 21
7277271.927581
 31
0.0
210
0.0
220
0.0
230
1.0
  0
TEXT
  8
13
  6
CONTINUOUS
 62
    14
  5
296
 10
905702.708
 20
7277261.032
 30
0.0
 40
8.0
  1
V6089 P202
 50
358.1464
  7
ROMANS
 72
     4
 11
905741.150325
 21
7277263.789996
 31
0.0
210
0.0
220
0.0
230
1.0
  0
POLYLINE
  8
21
  6
DASHDOT
 62
     7
  5
297
 66
     1
 10
0.0
 20
0.0
 30
0.0
  0
VERTEX
  8
21
  6
DASHDOT
 62
     7
  5
298
 10
906005.531
 20
7277335.098
 30
0.0
  0
VERTEX
  8
21
  6
DASHDOT
 62
     7
  5
299
 10
906173.693
 20
7277329.655
 30
0.0
  0
VERTEX
  8
21
  6
DASHDOT
 62
     7
  5
29A
 10
906171.429
 20
7277259.692
 30
0.0
  0
VERTEX
  8
21
  6
DASHDOT
 62
     7
  5
29B
 10
906003.266
 20
7277265.135
 30
0.0
  0
VERTEX
  8
21
  6
DASHDOT
 62
     7
  5
29C
 10
906005.531
 20
7277335.098
 30
0.0
  0
SEQEND
  8
21
  6
DASHDOT
 62
     7
  5
29D
  0
POLYLINE
  8
21
  6
DASHDOT
 62
     7
  5
29E
 66
     1
 10
0.0
 20
0.0
 30
0.0
  0
VERTEX
  8
21
  6
DASHDOT
 62
     7
  5
29F
 10
906173.693
 20
7277329.655
 30
0.0
  0
VERTEX
  8
21
  6
DASHDOT
 62
     7
  5
2A0
 10
906341.855
 20
7277324.213
 30
0.0
  0
VERTEX
  8
21
  6
DASHDOT
 62
     7
  5
2A1
 10
906339.591
 20
7277254.25
 30
0.0
  0
VERTEX
  8
21
  6
DASHDOT
 62
     7
  5
2A2
 10
906171.429
 20
7277259.692
 30
0.0
  0
VERTEX
  8
21
  6
DASHDOT
 62
     7
  5
2A3
 10
906173.693
 20
7277329.655
 30
0.0
  0
SEQEND
  8
21
  6
DASHDOT
 62
     7
  5
2A4
  0
POLYLINE
  8
21
  6
DASHDOT
 62
     7
  5
2A5
 66
     1
 10
0.0
 20
0.0
 30
0.0
  0
VERTEX
  8
21
  6
DASHDOT
 62
     7
  5
2A6
 10
906341.855
 20
7277324.213
 30
0.0
  0
VERTEX
  8
21
  6
DASHDOT
 62
     7
  5
2A7
 10
906510.017
 20
7277318.771
 30
0.0
  0
VERTEX
  8
21
  6
DASHDOT
 62
     7
  5
2A8
 10
906507.753
 20
7277248.808
 30
0.0
  0
VERTEX
  8
21
  6
DASHDOT
 62
     7
  5
2A9
 10
906339.591
 20
7277254.25
 30
0.0
  0
VERTEX
  8
21
  6
DASHDOT
 62
     7
  5
2AA
 10
906341.855
 20
7277324.213
 30
0.0
  0
SEQEND
  8
21
  6
DASHDOT
 62
     7
  5
2AB
  0
POLYLINE
  8
21
  6
DASHDOT
 62
     7
  5
2AC
 66
     1
 10
0.0
 20
0.0
 30
0.0
  0
VERTEX
  8
21
  6
DASHDOT
 62
     7
  5
2AD
 10
906510.017
 20
7277318.771
 30
0.0
  0
VERTEX
  8
21
  6
DASHDOT
 62
     7
  5
2AE
 10
906678.179
 20
7277313.329
 30
0.0
  0
VERTEX
  8
21
  6
DASHDOT
 62
     7
  5
2AF
 10
906675.915
 20
7277243.366
 30
0.0
  0
VERTEX
  8
21
  6
DASHDOT
 62
     7
  5
2B0
 10
906507.753
 20
7277248.808
 30
0.0
  0
VERTEX
  8
21
  6
DASHDOT
 62
     7
  5
2B1
 10
906510.017
 20
7277318.771
 30
0.0
  0
SEQEND
  8
21
  6
DASHDOT
 62
     7
  5
2B2
  0
POLYLINE
  8
21
  6
DASHDOT
 62
     7
  5
2B3
 66
     1
 10
0.0
 20
0.0
 30
0.0
  0
VERTEX
  8
21
  6
DASHDOT
 62
     7
  5
2B4
 10
906678.179
 20
7277313.329
 30
0.0
  0
VERTEX
  8
21
  6
DASHDOT
 62
     7
  5
2B5
 10
906846.34
 20
7277307.886
 30
0.0
  0
VERTEX
  8
21
  6
DASHDOT
 62
     7
  5
2B6
 10
906844.076
 20
7277237.923
 30
0.0
  0
VERTEX
  8
21
  6
DASHDOT
 62
     7
  5
2B7
 10
906675.915
 20
7277243.366
 30
0.0
  0
VERTEX
  8
21
  6
DASHDOT
 62
     7
  5
2B8
 10
906678.179
 20
7277313.329
 30
0.0
  0
SEQEND
  8
21
  6
DASHDOT
 62
     7
  5
2B9
  0
POLYLINE
  8
21
  6
DASHDOT
 62
     7
  5
2BA
 66
     1
 10
0.0
 20
0.0
 30
0.0
  0
VERTEX
  8
21
  6
DASHDOT
 62
     7
  5
2BB
 10
906844.076
 20
7277237.923
 30
0.0
  0
VERTEX
  8
21
  6
DASHDOT
 62
     7
  5
2BC
 10
907936.705
 20
7277202.563
 30
0.0
  0
VERTEX
  8
21
  6
DASHDOT
 62
     7
  5
2BD
 10
907938.969
 20
7277272.526
 30
0.0
  0
VERTEX
  8
21
  6
DASHDOT
 62
     7
  5
2BE
 10
906846.34
 20
7277307.886
 30
0.0
  0
VERTEX
  8
21
  6
DASHDOT
 62
     7
  5
2BF
 10
906844.076
 20
7277237.923
 30
0.0
  0
SEQEND
  8
21
  6
DASHDOT
 62
     7
  5
2C0
  0
TEXT
  8
13
  6
CONTINUOUS
 62
    14
  5
2C1
 10
906048.319
 20
7277293.826
 30
0.0
 40
8.0
  1
V6136 P303
 50
358.1464
  7
ROMANS
 72
     4
 11
906086.761325
 21
7277296.583996
 31
0.0
210
0.0
220
0.0
230
1.0
  0
TEXT
  8
13
  6
CONTINUOUS
 62
    14
  5
2C2
 10
906221.094
 20
7277285.622
 30
0.0
 40
8.0
  1
V6164 P334
 50
358.1464
  7
ROMANS
 72
     4
 11
906259.536325
 21
7277288.379996
 31
0.0
210
0.0
220
0.0
230
1.0
  0
TEXT
  8
13
  6
CONTINUOUS
 62
    14
  5
2C3
 10
906384.005
 20
7277279.765
 30
0.0
 40
8.0
  1
V6136 P312
 50
358.1464
  7
ROMANS
 72
     4
 11
906422.447325
 21
7277282.522996
 31
0.0
210
0.0
220
0.0
230
1.0
  0
TEXT
  8
13
  6
CONTINUOUS
 62
    14
  5
2C4
 10
906554.96
 20
7277276.233
 30
0.0
 40
8.0
  1
V6136 P309
 50
358.1464
  7
ROMANS
 72
     4
 11
906593.402325
 21
7277278.990996
 31
0.0
210
0.0
220
0.0
230
1.0
  0
TEXT
  8
13
  6
CONTINUOUS
 62
    14
  5
2C5
 10
906713.504
 20
7277272.159
 30
0.0
 40
8.0
  1
V6136 P306
 50
358.1464
  7
ROMANS
 72
     4
 11
906752.133227
 21
7277274.910948
 31
0.0
210
0.0
220
0.0
230
1.0
  0
TEXT
  8
13
  6
CONTINUOUS
 62
    14
  5
2C6
 10
906047.706
 20
7277249.454
 30
0.0
 40
8.0
  1
V6136 P303
 50
358.1464
  7
ROMANS
 72
     4
 11
906086.148325
 21
7277252.211996
 31
0.0
210
0.0
220
0.0
230
1.0
  0
TEXT
  8
13
  6
CONTINUOUS
 62
    14
  5
2C7
 10
906214.805
 20
7277243.843
 30
0.0
 40
8.0
  1
V6164 P334
 50
358.1464
  7
ROMANS
 72
     4
 11
906253.247325
 21
7277246.600996
 31
0.0
210
0.0
220
0.0
230
1.0
  0
TEXT
  8
13
  6
CONTINUOUS
 62
    14
  5
2C8
 10
906385.981
 20
7277239.108
 30
0.0
 40
8.0
  1
V6136 P312
 50
358.1464
  7
ROMANS
 72
     4
 11
906424.423325
 21
7277241.865996
 31
0.0
210
0.0
220
0.0
230
1.0
  0
TEXT
  8
13
  6
CONTINUOUS
 62
    14
  5
2C9
 10
906552.79
 20
7277234.61
 30
0.0
 40
8.0
  1
V6136 P309
 50
358.1464
  7
ROMANS
 72
     4
 11
906591.232325
 21
7277237.367996
 31
0.0
210
0.0
220
0.0
230
1.0
  0
TEXT
  8
13
  6
CONTINUOUS
 62
    14
  5
2CA
 10
906713.72
 20
7277227.968
 30
0.0
 40
8.0
  1
V6136 P306
 50
358.1464
  7
ROMANS
 72
     4
 11
906752.349227
 21
7277230.719948
 31
0.0
210
0.0
220
0.0
230
1.0
  0
TEXT
  8
22
  6
CONTINUOUS
 62
     3
  5
2CB
 10
907360.08
 20
7277282.493
 30
0.0
 40
6.0
  1
TEMPORARY 70' WORKING EASMENT
 50
358.1464
  7
ROMANS
 72
     4
 11
907446.132037
 21
7277282.709693
 31
0.0
210
0.0
220
0.0
230
1.0
  0
POLYLINE
  8
21
  6
DASHDOT
 62
     7
  5
2CC
 66
     1
 10
0.0
 20
0.0
 30
0.0
  0
VERTEX
  8
21
  6
DASHDOT
 62
     7
  5
2CD
 10
910302.969
 20
7277135.99
 30
0.0
  0
VERTEX
  8
21
  6
DASHDOT
 62
     7
  5
2CE
 10
907936.709
 20
7277212.568
 30
0.0
  0
VERTEX
  8
21
  6
DASHDOT
 62
     7
  5
2CF
 10
907938.973
 20
7277282.531
 30
0.0
  0
VERTEX
  8
21
  6
DASHDOT
 62
     7
  5
2D0
 10
910305.233
 20
7277205.953
 30
0.0
  0
VERTEX
  8
21
  6
DASHDOT
 62
     7
  5
2D1
 10
910302.969
 20
7277135.99
 30
0.0
  0
SEQEND
  8
21
  6
DASHDOT
 62
     7
  5
2D2
  0
TEXT
  8
13
  6
CONTINUOUS
 62
    14
  5
2D3
 10
907458.409
 20
7277254.03
 30
0.0
 40
8.0
  1
V6141 P324
 50
358.1464
  7
ROMANS
 72
     4
 11
907496.851325
 21
7277256.787996
 31
0.0
210
0.0
220
0.0
230
1.0
  0
TEXT
  8
13
  6
CONTINUOUS
 62
    14
  5
2D4
 10
907458.573
 20
7277204.461
 30
0.0
 40
8.0
  1
V6141 P323
 50
358.1464
  7
ROMANS
 72
     4
 11
907497.015325
 21
7277207.218996
 31
0.0
210
0.0
220
0.0
230
1.0
  0
TEXT
  8
22
  6
CONTINUOUS
 62
     3
  5
2D5
 10
907350.325
 20
7277188.364
 30
0.0
 40
6.0
  1
20' UNDERGROUND UTILITY EASMENT 
 50
358.1464
  7
ROMANS
 72
     4
 11
907445.372327
 21
7277188.289581
 31
0.0
210
0.0
220
0.0
230
1.0
  0
TEXT
  8
22
  6
CONTINUOUS
 62
     3
  5
2D6
 10
908743.441
 20
7277233.245
 30
0.0
 40
6.0
  1
70' TEMPORARY WORKING EASMENT
 50
358.1464
  7
ROMANS
 72
     4
 11
908829.493037
 21
7277233.461693
 31
0.0
210
0.0
220
0.0
230
1.0
  0
TEXT
  8
13
  6
CONTINUOUS
 62
    14
  5
2D7
 10
908866.187
 20
7277211.748
 30
0.0
 40
8.0
  1
V6217 P143
 50
358.1464
  7
ROMANS
 72
     4
 11
908904.629325
 21
7277214.505996
 31
0.0
210
0.0
220
0.0
230
1.0
  0
TEXT
  8
13
  6
CONTINUOUS
 62
    14
  5
2D8
 10
908865.024
 20
7277166.973
 30
0.0
 40
8.0
  1
V6217 P142
 50
358.1464
  7
ROMANS
 72
     4
 11
908903.466325
 21
7277169.730996
 31
0.0
210
0.0
220
0.0
230
1.0
  0
TEXT
  8
22
  6
CONTINUOUS
 62
     3
  5
2D9
 10
908808.636
 20
7277158.728
 30
0.0
 40
6.0
  1
30' UNDERGROUND UTILITY EASMENT
 50
358.1464
  7
ROMANS
 72
     4
 11
908900.684897
 21
7277158.750618
 31
0.0
210
0.0
220
0.0
230
1.0
  0
TEXT
  8
13
  6
CONTINUOUS
 62
    14
  5
2DA
 10
910395.353
 20
7277085.33
 30
0.0
 40
8.0
  1
V6173 P145
 50
358.1464
  7
ROMANS
 72
     4
 11
910433.806319
 21
7277088.08764
 31
0.0
210
0.0
220
0.0
230
1.0
  0
POLYLINE
  8
21
  6
DASHDOT
 62
     7
  5
2DB
 66
     1
 10
0.0
 20
0.0
 30
0.0
  0
VERTEX
  8
21
  6
DASHDOT
 62
     7
  5
2DC
 10
910573.386
 20
7277067.207
 30
0.0
  0
VERTEX
  8
21
  6
DASHDOT
 62
     7
  5
2DD
 10
910201.081
 20
7277079.256
 30
0.0
  0
VERTEX
  8
21
  6
DASHDOT
 62
     7
  5
2DE
 10
910198.817
 20
7277009.292
 30
0.0
  0
VERTEX
  8
21
  6
DASHDOT
 62
     7
  5
2DF
 10
910571.122
 20
7276997.244
 30
0.0
  0
VERTEX
  8
21
  6
DASHDOT
 62
     7
  5
2E0
 10
910573.386
 20
7277067.207
 30
0.0
  0
SEQEND
  8
21
  6
DASHDOT
 62
     7
  5
2E1
  0
TEXT
  8
13
  6
CONTINUOUS
 62
    14
  5
2E2
 10
910393.548
 20
7277035.394
 30
0.0
 40
8.0
  1
V6173 P146
 50
358.1464
  7
ROMANS
 72
     4
 11
910432.177227
 21
7277038.145948
 31
0.0
210
0.0
220
0.0
230
1.0
  0
TEXT
  8
22
  6
CONTINUOUS
 62
     3
  5
2E3
 10
910275.602
 20
7277028.813
 30
0.0
 40
6.0
  1
70' TEMPORARY WORKING EASMENT
 50
358.1464
  7
ROMANS
 72
     4
 11
910361.654037
 21
7277029.029693
 31
0.0
210
0.0
220
0.0
230
1.0
  0
TEXT
  8
22
  6
CONTINUOUS
 62
     3
  5
2E4
 10
910270.027
 20
7277098.392
 30
0.0
 40
6.0
  1
30' U.U.E.
 50
358.1464
  7
ROMANS
 72
     4
 11
910298.10139
 21
7277100.485007
 31
0.0
210
0.0
220
0.0
230
1.0
  0
TEXT
  8
22
  6
CONTINUOUS
 62
     3
  5
2E5
 10
910369.196
 20
7277106.311
 30
0.0
 40
6.0
  1
372.5'
 50
358.1464
  7
ROMANS
 72
     4
 11
910385.284665
 21
7277108.791898
 31
0.0
210
0.0
220
0.0
230
1.0
  0
TEXT
  8
22
  6
CONTINUOUS
 62
     3
  5
2E6
 10
908616.189
 20
7279172.8
 30
0.0
 40
8.0
  1
2' USE
 50
88.1464
  7
ROMANS
210
0.0
220
0.0
230
1.0
  0
ARC
  8
-6
  6
CONTINUOUS
 62
     7
  5
2E8
 10
908762.447756
 20
7271323.972327
 30
0.0
 40
1579.058417
 50
269.152067
 51
279.383542
210
0.0
220
0.0
230
1.0
  0
ARC
  8
-6
  6
CONTINUOUS
 62
     7
  5
2E9
 10
908762.447756
 20
7271323.972327
 30
0.0
 40
1639.058417
 50
271.312331
 51
278.256406
210
0.0
220
0.0
230
1.0
  0
LINE
  8
-6
  6
CONTINUOUS
 62
     7
  5
2EA
 10
906452.7
 20
7269358.605
 30
0.0
 11
906193.644
 21
7269366.963
 31
0.0
  0
LINE
  8
-6
  6
CONTINUOUS
 62
     7
  5
2EB
 10
905249.627
 20
7273723.388
 30
0.0
 11
905263.491
 21
7274153.163
 31
0.0
  0
LINE
  8
-7
  6
CONTINUOUS
 62
     7
  5
2ED
 10
905281.869
 20
7274412.707
 30
0.0
 11
905416.799
 21
7274408.353
 31
0.0
  0
LINE
  8
-7
  6
CONTINUOUS
 62
     7
  5
2EE
 10
905416.799
 20
7274408.353
 30
0.0
 11
905421.844
 21
7274564.734
 31
0.0
  0
LINE
  8
-6
  6
CONTINUOUS
 62
     7
  5
2EF
 10
905286.912
 20
7274569.086
 30
0.0
 11
905279.355
 21
7274334.747
 31
0.0
  0
LINE
  8
-6
  6
CONTINUOUS
 62
     7
  5
2F0
 10
905279.355
 20
7274334.747
 30
0.0
 11
905263.491
 21
7274153.163
 31
0.0
  0
LINE
  8
-27
  6
CONTINUOUS
 62
    32
  5
2F2
 10
905065.919
 20
7269659.505
 30
0.0
 11
905983.445
 21
7269330.732
 31
0.0
  0
TEXT
  8
-10
  6
CONTINUOUS
 62
   134
  5
2F4
 10
905841.416
 20
7274477.193
 30
0.0
 40
13.999
  1
1
 50
358.2152
  7
ROMANS
 11
905841.852007
 21
7274491.185208
 31
0.0
210
0.0
220
0.0
230
1.0
 73
     3
  0
TEXT
  8
-10
  6
CONTINUOUS
 62
   134
  5
2F5
 10
905454.65
 20
7274065.934
 30
0.0
 40
13.999
  1
1
 50
358.2152
  7
ROMANS
 11
905455.086007
 21
7274079.926208
 31
0.0
210
0.0
220
0.0
230
1.0
 73
     3
  0
TEXT
  8
-10
  6
CONTINUOUS
 62
   134
  5
2F6
 10
907286.389
 20
7271820.255
 30
0.0
 40
13.999
  1
1
 50
358.2152
  7
ROMANS
 11
907286.825007
 21
7271834.247208
 31
0.0
210
0.0
220
0.0
230
1.0
 73
     3
  0
TEXT
  8
-10
  6
CONTINUOUS
 62
   134
  5
2F7
 10
908590.154
 20
7269353.62
 30
0.0
 40
13.999
  1
1
 50
358.2152
  7
ROMANS
 11
908590.590007
 21
7269367.612208
 31
0.0
210
0.0
220
0.0
230
1.0
 73
     3
  0
TEXT
  8
-10
  6
CONTINUOUS
 62
   134
  5
2F8
 10
908594.464
 20
7269491.939
 30
0.0
 40
13.999
  1
2
 50
358.2152
  7
ROMANS
 11
908594.900007
 21
7269505.931208
 31
0.0
210
0.0
220
0.0
230
1.0
 73
     3
  0
TEXT
  8
-10
  6
CONTINUOUS
 62
   134
  5
2F9
 10
908599.76
 20
7269622.939
 30
0.0
 40
13.999
  1
3
 50
358.2152
  7
ROMANS
 11
908600.196007
 21
7269636.931208
 31
0.0
210
0.0
220
0.0
230
1.0
 73
     3
  0
TEXT
  8
-10
  6
CONTINUOUS
 62
   134
  5
2FA
 10
908868.863
 20
7269612.125
 30
0.0
 40
13.999
  1
4
 50
358.2152
  7
ROMANS
 11
908869.299007
 21
7269626.117208
 31
0.0
210
0.0
220
0.0
230
1.0
 73
     3
  0
TEXT
  8
-10
  6
CONTINUOUS
 62
   134
  5
2FB
 10
908867.129
 20
7269478.584
 30
0.0
 40
13.999
  1
5
 50
358.2152
  7
ROMANS
 11
908867.565007
 21
7269492.576208
 31
0.0
210
0.0
220
0.0
230
1.0
 73
     3
  0
TEXT
  8
-10
  6
CONTINUOUS
 62
   134
  5
2FC
 10
908865.357
 20
7269343.83
 30
0.0
 40
13.999
  1
6
 50
358.2152
  7
ROMANS
 11
908865.793007
 21
7269357.822208
 31
0.0
210
0.0
220
0.0
230
1.0
 73
     3
  0
TEXT
  8
-10
  6
CONTINUOUS
 62
   134
  5
2FD
 10
910167.439
 20
7269910.933
 30
0.0
 40
13.999
  1
1
 50
358.2152
  7
ROMANS
 11
910167.875007
 21
7269924.925208
 31
0.0
210
0.0
220
0.0
230
1.0
 73
     3
  0
TEXT
  8
-10
  6
CONTINUOUS
 62
   134
  5
2FE
 10
910170.797
 20
7270059.926
 30
0.0
 40
13.999
  1
2
 50
358.2152
  7
ROMANS
 11
910171.233007
 21
7270073.918208
 31
0.0
210
0.0
220
0.0
230
1.0
 73
     3
  0
TEXT
  8
-10
  6
CONTINUOUS
 62
   134
  5
2FF
 10
910177.057
 20
7270212.759
 30
0.0
 40
13.999
  1
3
 50
358.2152
  7
ROMANS
 11
910177.493007
 21
7270226.751208
 31
0.0
210
0.0
220
0.0
230
1.0
 73
     3
  0
TEXT
  8
-10
  6
CONTINUOUS
 62
   134
  5
300
 10
910180.248
 20
7270363.258
 30
0.0
 40
13.999
  1
4
 50
358.2152
  7
ROMANS
 11
910180.684007
 21
7270377.250208
 31
0.0
210
0.0
220
0.0
230
1.0
 73
     3
  0
TEXT
  8
-10
  6
CONTINUOUS
 62
   134
  5
301
 10
910184.756
 20
7270507.928
 30
0.0
 40
13.999
  1
5
 50
358.2152
  7
ROMANS
 11
910185.192007
 21
7270521.920208
 31
0.0
210
0.0
220
0.0
230
1.0
 73
     3
  0
TEXT
  8
-10
  6
CONTINUOUS
 62
   134
  5
302
 10
910189.52
 20
7270660.807
 30
0.0
 40
13.999
  1
6
 50
358.2152
  7
ROMANS
 11
910189.956007
 21
7270674.799208
 31
0.0
210
0.0
220
0.0
230
1.0
 73
     3
  0
TEXT
  8
-10
  6
CONTINUOUS
 62
   134
  5
303
 10
910192.992
 20
7270808.868
 30
0.0
 40
13.999
  1
7
 50
358.2152
  7
ROMANS
 11
910193.428007
 21
7270822.860208
 31
0.0
210
0.0
220
0.0
230
1.0
 73
     3
  0
ARC
  8
-6
  6
CONTINUOUS
 62
     7
  5
304
 10
908714.301172
 20
7269670.84716
 30
0.0
 40
15.0
 50
358.1523
 51
88.1523
210
0.0
220
0.0
230
1.0
  0
ARC
  8
-6
  6
CONTINUOUS
 62
     7
  5
305
 10
908800.3298
 20
7269670.347764
 30
0.0
 40
15.0
 50
91.312331
 51
178.1523
210
0.0
220
0.0
230
1.0
  0
ARC
  8
-6
  6
CONTINUOUS
 62
     7
  5
306
 10
908702.371315
 20
7269301.039537
 30
0.0
 40
15.0
 50
268.1523
 51
358.1523
210
0.0
220
0.0
230
1.0
  0
ARC
  8
-6
  6
CONTINUOUS
 62
     7
  5
307
 10
908788.3266
 20
7269298.266651
 30
0.0
 40
15.0
 50
178.1523
 51
268.1523
210
0.0
220
0.0
230
1.0
  0
ARC
  8
-6
  6
CONTINUOUS
 62
     7
  5
308
 10
905140.628905
 20
7270161.30658
 30
0.0
 40
15.0
 50
88.1523
 51
178.1523
210
0.0
220
0.0
230
1.0
  0
ARC
  8
-6
  6
CONTINUOUS
 62
     7
  5
309
 10
905128.695001
 20
7269435.514265
 30
0.0
 40
30.0
 50
178.1754
 51
268.1754
210
0.0
220
0.0
230
1.0
  0
TEXT
  8
-10
  6
CONTINUOUS
 62
   134
  5
30A
 10
905433.978
 20
7269884.874
 30
0.0
 40
13.999
  1
 B
 50
358.2152
  7
ROMANS
 11
905434.414007
 21
7269898.866208
 31
0.0
210
0.0
220
0.0
230
1.0
 73
     3
  0
TEXT
  8
-10
  6
CONTINUOUS
 62
   134
  5
30B
 10
905196.661
 20
7269457.956
 30
0.0
 40
13.999
  1
 C
 50
358.2152
  7
ROMANS
 11
905197.097007
 21
7269471.948208
 31
0.0
210
0.0
220
0.0
230
1.0
 73
     3
  0
TEXT
  8
-10
  6
CONTINUOUS
 62
   134
  5
30C
 10
906130.577
 20
7269774.437
 30
0.0
 40
13.999
  1
 A
 50
358.2152
  7
ROMANS
 11
906131.013007
 21
7269788.429208
 31
0.0
210
0.0
220
0.0
230
1.0
 73
     3
  0
LINE
  8
-6
  6
CONTINUOUS
 62
     7
  5
30D
 10
910326.643
 20
7270884.492
 30
0.0
 11
910341.635
 21
7270884.008
 31
0.0
  0
LINE
  8
-6
  6
CONTINUOUS
 62
     7
  5
30E
 10
910292.788
 20
7269835.038
 30
0.0
 11
910307.78
 21
7269834.554
 31
0.0
  0
LINE
  8
-6
  6
CONTINUOUS
 62
     7
  5
30F
 10
910326.643
 20
7270884.492
 30
0.0
 11
910292.788
 21
7269835.038
 31
0.0
  0
LINE
  8
-7
  6
CONTINUOUS
 62
     7
  5
310
 10
910116.332
 20
7270891.277
 30
0.0
 11
910326.643
 21
7270884.492
 31
0.0
  0
LINE
  8
-7
  6
CONTINUOUS
 62
     7
  5
311
 10
910072.482
 20
7269842.145
 30
0.0
 11
910292.788
 21
7269835.038
 31
0.0
  0
LINE
  8
-7
  6
CONTINUOUS
 62
     7
  5
312
 10
910297.624
 20
7269984.959
 30
0.0
 11
910077.319
 21
7269992.066
 31
0.0
  0
LINE
  8
-7
  6
CONTINUOUS
 62
     7
  5
313
 10
910302.461
 20
7270134.881
 30
0.0
 11
910082.156
 21
7270141.988
 31
0.0
  0
LINE
  8
-7
  6
CONTINUOUS
 62
     7
  5
314
 10
910307.297
 20
7270284.803
 30
0.0
 11
910086.992
 21
7270291.911
 31
0.0
  0
LINE
  8
-7
  6
CONTINUOUS
 62
     7
  5
315
 10
910312.134
 20
7270434.726
 30
0.0
 11
910091.829
 21
7270441.832
 31
0.0
  0
LINE
  8
-7
  6
CONTINUOUS
 62
     7
  5
316
 10
910316.969
 20
7270584.648
 30
0.0
 11
910096.664
 21
7270591.754
 31
0.0
  0
LINE
  8
-7
  6
CONTINUOUS
 62
     7
  5
317
 10
910321.806
 20
7270734.57
 30
0.0
 11
910101.5
 21
7270741.676
 31
0.0
  0
LINE
  8
-7
  6
CONTINUOUS
 62
     7
  5
318
 10
910072.482
 20
7269842.145
 30
0.0
 11
910106.015
 21
7270881.604
 31
0.0
  0
LINE
  8
-7
  6
CONTINUOUS
 62
     7
  5
319
 10
910106.015
 20
7270881.604
 30
0.0
 11
910116.332
 21
7270891.277
 31
0.0
  0
LINE
  8
-6
  6
CONTINUOUS
 62
     7
  5
31A
 10
906741.16
 20
7274522.173
 30
0.0
 11
907540.744
 21
7274496.38
 31
0.0
  0
LINE
  8
-6
  6
CONTINUOUS
 62
     7
  5
31B
 10
907518.655
 20
7271950.768
 30
0.0
 11
907600.712
 21
7274494.445
 31
0.0
  0
LINE
  8
-6
  6
CONTINUOUS
 62
     7
  5
31C
 10
907458.685
 20
7271952.702
 30
0.0
 11
907540.744
 21
7274496.38
 31
0.0
  0
LINE
  8
-6
  6
CONTINUOUS
 62
     7
  5
31D
 10
906659.133
 20
7271979.496
 30
0.0
 11
906741.16
 21
7274522.173
 31
0.0
  0
LINE
  8
-6
  6
CONTINUOUS
 62
     7
  5
31E
 10
906597.198
 20
7271920.462
 30
0.0
 11
906679.422
 21
7274524.165
 31
0.0
  0
LINE
  8
-6
  6
CONTINUOUS
 62
     7
  5
31F
 10
906659.102
 20
7271978.497
 30
0.0
 11
907458.685
 21
7271952.702
 31
0.0
  0
LINE
  8
-6
  6
CONTINUOUS
 62
     7
  5
320
 10
909527.642
 20
7271886.959
 30
0.0
 11
909609.667
 21
7274429.637
 31
0.0
  0
LINE
  8
-6
  6
CONTINUOUS
 62
     7
  5
321
 10
907518.655
 20
7271950.768
 30
0.0
 11
909527.61
 21
7271885.96
 31
0.0
  0
LINE
  8
-6
  6
CONTINUOUS
 62
     7
  5
322
 10
909669.636
 20
7274427.702
 30
0.0
 11
910459.225
 21
7274402.229
 31
0.0
  0
LINE
  8
-6
  6
CONTINUOUS
 62
     7
  5
323
 10
908484.372
 20
7269293.063
 30
0.0
 11
908499.205
 21
7269752.824
 31
0.0
  0
LINE
  8
-6
  6
CONTINUOUS
 62
     7
  5
324
 10
908504.363
 20
7269292.42
 30
0.0
 11
908517.259
 21
7269692.212
 31
0.0
  0
LINE
  8
-6
  6
CONTINUOUS
 62
     7
  5
325
 10
908717.363
 20
7269300.556
 30
0.0
 11
908729.293
 21
7269670.364
 31
0.0
  0
LINE
  8
-6
  6
CONTINUOUS
 62
     7
  5
326
 10
908773.334
 20
7269298.751
 30
0.0
 11
908785.338
 21
7269670.832
 31
0.0
  0
LINE
  8
-6
  6
CONTINUOUS
 62
     7
  5
327
 10
908984.113
 20
7269276.943
 30
0.0
 11
908997.821
 21
7269701.901
 31
0.0
  0
LINE
  8
-6
  6
CONTINUOUS
 62
     7
  5
328
 10
909004.103
 20
7269276.298
 30
0.0
 11
909019.901
 21
7269766.043
 31
0.0
  0
LINE
  8
-6
  6
CONTINUOUS
 62
     7
  5
329
 10
908499.205
 20
7269752.824
 30
0.0
 11
908739.08
 21
7269745.087
 31
0.0
  0
LINE
  8
-6
  6
CONTINUOUS
 62
     7
  5
32A
 10
908517.259
 20
7269692.212
 30
0.0
 11
908714.785
 21
7269685.839
 31
0.0
  0
LINE
  8
-6
  6
CONTINUOUS
 62
     7
  5
32B
 10
908504.363
 20
7269292.42
 30
0.0
 11
908701.888
 21
7269286.047
 31
0.0
  0
LINE
  8
-6
  6
CONTINUOUS
 62
     7
  5
32C
 10
908787.843
 20
7269283.275
 30
0.0
 11
908984.113
 21
7269276.943
 31
0.0
  0
LINE
  8
-6
  6
CONTINUOUS
 62
     7
  5
32D
 10
909004.103
 20
7269276.298
 30
0.0
 11
910288.435
 21
7269234.866
 31
0.0
  0
LINE
  8
-6
  6
CONTINUOUS
 62
     7
  5
32E
 10
905843.617
 20
7269335.186
 30
0.0
 11
905064.472
 21
7269614.105
 31
0.0
  0
LINE
  8
-6
  6
CONTINUOUS
 62
     7
  5
32F
 10
905098.71
 20
7269436.469
 30
0.0
 11
905103.919
 21
7269599.984
 31
0.0
  0
LINE
  8
-6
  6
CONTINUOUS
 62
     7
  5
330
 10
905127.739
 20
7269405.529
 30
0.0
 11
905335.554
 21
7269398.91
 31
0.0
  0
LINE
  8
-6
  6
CONTINUOUS
 62
     7
  5
331
 10
905535.337
 20
7269385.248
 30
0.0
 11
905335.554
 21
7269398.91
 31
0.0
  0
LINE
  8
-6
  6
CONTINUOUS
 62
     7
  5
332
 10
905535.337
 20
7269385.248
 30
0.0
 11
905720.223
 21
7269379.359
 31
0.0
  0
LINE
  8
-6
  6
CONTINUOUS
 62
     7
  5
333
 10
905069.821
 20
7269782.01
 30
0.0
 11
906370.124
 21
7269318.413
 31
0.0
  0
LINE
  8
-6
  6
CONTINUOUS
 62
     7
  5
334
 10
905141.112
 20
7270176.298
 30
0.0
 11
906477.688
 21
7270133.181
 31
0.0
  0
LINE
  8
-6
  6
CONTINUOUS
 62
     7
  5
335
 10
905112.89
 20
7269766.655
 30
0.0
 11
905125.637
 21
7270161.791
 31
0.0
  0
LINE
  8
-6
  6
CONTINUOUS
 62
     7
  5
336
 10
905123.647
 20
7270206.877
 30
0.0
 11
905856.688
 21
7270183.23
 31
0.0
  0
LINE
  8
-7
  6
CONTINUOUS
 62
     7
  5
337
 10
905834.945
 20
7269509.22
 30
0.0
 11
905855.721
 21
7270153.246
 31
0.0
  0
LINE
  8
-6
  6
CONTINUOUS
 62
     7
  5
338
 10
905856.688
 20
7270183.23
 30
0.0
 11
906523.631
 21
7270161.715
 31
0.0
  0
LINE
  8
-6
  6
CONTINUOUS
 62
     7
  5
339
 10
906523.631
 20
7270161.715
 30
0.0
 11
906497.677
 21
7269357.155
 31
0.0
  0
LINE
  8
-6
  6
CONTINUOUS
 62
     7
  5
33A
 10
906492.196
 20
7270117.706
 30
0.0
 11
906468.175
 21
7269373.114
 31
0.0
  0
ARC
  8
-6
  6
CONTINUOUS
 62
     7
  5
33B
 10
906477.20361
 20
7270118.189172
 30
0.0
 40
15.0
 50
358.1523
 51
88.1523
210
0.0
220
0.0
230
1.0
  0
ARC
  8
-6
  6
CONTINUOUS
 62
     7
  5
33C
 10
906453.183357
 20
7269373.597513
 30
0.0
 40
15.0
 50
268.1523
 51
358.1523
210
0.0
220
0.0
230
1.0
  0
LINE
  8
-6
  6
CONTINUOUS
 62
     7
  5
33D
 10
906497.677
 20
7269357.155
 30
0.0
 11
908484.372
 21
7269293.063
 31
0.0
  0
LINE
  8
-7
  6
CONTINUOUS
 62
     7
  5
33E
 10
908992.819
 20
7269546.802
 30
0.0
 11
908781.556
 21
7269553.618
 31
0.0
  0
LINE
  8
-7
  6
CONTINUOUS
 62
     7
  5
33F
 10
908988.626
 20
7269416.87
 30
0.0
 11
908777.365
 21
7269423.685
 31
0.0
  0
LINE
  8
-7
  6
CONTINUOUS
 62
     7
  5
340
 10
908725.586
 20
7269555.423
 30
0.0
 11
908513.068
 21
7269562.28
 31
0.0
  0
LINE
  8
-7
  6
CONTINUOUS
 62
     7
  5
341
 10
908721.394
 20
7269425.491
 30
0.0
 11
908508.876
 21
7269432.346
 31
0.0
  0
LINE
  8
-6
  6
CONTINUOUS
 62
     7
  5
342
 10
910288.435
 20
7269234.866
 30
0.0
 11
910307.78
 21
7269834.554
 31
0.0
  0
LINE
  8
-6
  6
CONTINUOUS
 62
     7
  5
343
 10
910341.635
 20
7270884.008
 30
0.0
 11
910370.816
 21
7271788.537
 31
0.0
  0
LINE
  8
-6
  6
CONTINUOUS
 62
     7
  5
344
 10
906597.197
 20
7271920.463
 30
0.0
 11
910375.234
 21
7271798.584
 31
0.0
  0
LINE
  8
-7
  6
CONTINUOUS
 62
     7
  5
345
 10
907446.756
 20
7271893.057
 30
0.0
 11
907442.564
 21
7271763.123
 31
0.0
  0
LINE
  8
-7
  6
CONTINUOUS
 62
     7
  5
346
 10
907171.9
 20
7271901.923
 30
0.0
 11
907167.708
 21
7271771.99
 31
0.0
  0
LINE
  8
-7
  6
CONTINUOUS
 62
     7
  5
347
 10
907167.708
 20
7271771.99
 30
0.0
 11
907442.564
 21
7271763.123
 31
0.0
  0
LINE
  8
-7
  6
CONTINUOUS
 62
     7
  5
348
 10
905236.638
 20
7273723.807
 30
0.0
 11
905764.36
 21
7273706.782
 31
0.0
  0
LINE
  8
-7
  6
CONTINUOUS
 62
     7
  5
349
 10
905694.395
 20
7273709.039
 30
0.0
 11
905721.689
 21
7274555.061
 31
0.0
  0
LINE
  8
-7
  6
CONTINUOUS
 62
     7
  5
34A
 10
905764.36
 20
7273706.782
 30
0.0
 11
905791.652
 21
7274552.804
 31
0.0
  0
LINE
  8
-7
  6
CONTINUOUS
 62
     7
  5
34B
 10
905786.492
 20
7274392.887
 30
0.0
 11
905881.443
 21
7274389.824
 31
0.0
  0
LINE
  8
-7
  6
CONTINUOUS
 62
     7
  5
34C
 10
905883.055
 20
7274439.798
 30
0.0
 11
905968.011
 21
7274437.058
 31
0.0
  0
LINE
  8
-7
  6
CONTINUOUS
 62
     7
  5
34D
 10
905968.011
 20
7274437.058
 30
0.0
 11
905971.557
 21
7274547.001
 31
0.0
  0
LINE
  8
-7
  6
CONTINUOUS
 62
     7
  5
34E
 10
905881.443
 20
7274389.824
 30
0.0
 11
905883.055
 21
7274439.798
 31
0.0
  0
LINE
  8
-6
  6
CONTINUOUS
 62
     7
  5
34F
 10
907600.712
 20
7274494.445
 30
0.0
 11
909609.667
 21
7274429.637
 31
0.0
  0
TEXT
  8
-10
  6
CONTINUOUS
 62
   134
  5
350
 10
909564.434
 20
7269531.304
 30
0.0
 40
13.999
  1
UNSUBDIVIDED
 50
358.2152
  7
ROMANS
 11
909564.870007
 21
7269545.296208
 31
0.0
210
0.0
220
0.0
230
1.0
 73
     3
  0
TEXT
  8
-10
  6
CONTINUOUS
 62
   134
  5
351
 10
909929.804
 20
7273749.165
 30
0.0
 40
13.999
  1
UNSUBDIVIDED
 50
358.2152
  7
ROMANS
 11
909930.240007
 21
7273763.157208
 31
0.0
210
0.0
220
0.0
230
1.0
 73
     3
  0
TEXT
  8
-10
  6
CONTINUOUS
 62
   134
  5
352
 10
907957.891
 20
7272939.758
 30
0.0
 40
13.999
  1
UNSUBDIVIDED
 50
358.2152
  7
ROMANS
 11
907958.327007
 21
7272953.750208
 31
0.0
210
0.0
220
0.0
230
1.0
 73
     3
  0
TEXT
  8
-10
  6
CONTINUOUS
 62
   134
  5
353
 10
906991.414
 20
7272367.662
 30
0.0
 40
13.999
  1
UNSUBDIVIDED
 50
358.2152
  7
ROMANS
 11
906991.850007
 21
7272381.654208
 31
0.0
210
0.0
220
0.0
230
1.0
 73
     3
  0
TEXT
  8
-10
  6
CONTINUOUS
 62
   134
  5
354
 10
907035.534
 20
7273783.529
 30
0.0
 40
13.999
  1
UNSUBDIVIDED
 50
358.2152
  7
ROMANS
 11
907035.970007
 21
7273797.521208
 31
0.0
210
0.0
220
0.0
230
1.0
 73
     3
  0
TEXT
  8
-10
  6
CONTINUOUS
 62
   134
  5
355
 10
905715.357
 20
7273069.713
 30
0.0
 40
13.999
  1
UNSUBDIVIDED
 50
358.2152
  7
ROMANS
 11
905715.793007
 21
7273083.705208
 31
0.0
210
0.0
220
0.0
230
1.0
 73
     3
  0
TEXT
  8
-10
  6
CONTINUOUS
 62
   134
  5
356
 10
905790.433
 20
7270752.943
 30
0.0
 40
13.999
  1
UNSUBDIVIDED
 50
358.2152
  7
ROMANS
 11
905790.869007
 21
7270766.935208
 31
0.0
210
0.0
220
0.0
230
1.0
 73
     3
  0
TEXT
  8
-10
  6
CONTINUOUS
 62
   134
  5
357
 10
907416.598
 20
7269684.363
 30
0.0
 40
13.999
  1
UNSUBDIVIDED
 50
358.2152
  7
ROMANS
 11
907417.034007
 21
7269698.355208
 31
0.0
210
0.0
220
0.0
230
1.0
 73
     3
  0
TEXT
  8
-10
  6
CONTINUOUS
 62
   134
  5
358
 10
908669.15
 20
7271195.684
 30
0.0
 40
13.999
  1
UNSUBDIVIDED
 50
358.2152
  7
ROMANS
 11
908669.586007
 21
7271209.676208
 31
0.0
210
0.0
220
0.0
230
1.0
 73
     3
  0
LINE
  8
-6
  6
CONTINUOUS
 62
     7
  5
359
 10
905286.912
 20
7274569.086
 30
0.0
 11
906679.422
 21
7274524.165
 31
0.0
  0
TEXT
  8
-11
  6
CONTINUOUS
 62
     7
  5
35B
 10
909649.169
 20
7274155.331
 30
0.0
 40
8.0
  1
530'
 50
88.2152
  7
ROMANS
210
0.0
220
0.0
230
1.0
  0
TEXT
  8
-11
  6
CONTINUOUS
 62
     7
  5
35C
 10
910443.792
 20
7274376.296
 30
0.0
 40
8.0
  1
40'
 50
358.2152
  7
ROMANS
210
0.0
220
0.0
230
1.0
  0
TEXT
  8
-11
  6
CONTINUOUS
 62
     7
  5
35D
 10
910359.401
 20
7271732.587
 30
0.0
 40
8.0
  1
40'
 50
358.2152
  7
ROMANS
210
0.0
220
0.0
230
1.0
  0
TEXT
  8
-11
  6
CONTINUOUS
 62
     7
  5
35E
 10
910336.859
 20
7270927.654
 30
0.0
 40
8.0
  1
40'
 50
358.2152
  7
ROMANS
210
0.0
220
0.0
230
1.0
  0
TEXT
  8
-11
  6
CONTINUOUS
 62
     7
  5
35F
 10
910327.622
 20
7270863.4
 30
0.0
 40
8.0
  1
55'
 50
358.2152
  7
ROMANS
210
0.0
220
0.0
230
1.0
  0
TEXT
  8
-11
  6
CONTINUOUS
 62
     7
  5
360
 10
910298.16
 20
7269884.821
 30
0.0
 40
8.0
  1
55'
 50
358.2152
  7
ROMANS
210
0.0
220
0.0
230
1.0
  0
TEXT
  8
-11
  6
CONTINUOUS
 62
     7
  5
361
 10
910301.15
 20
7269760.826
 30
0.0
 40
8.0
  1
40'
 50
358.2152
  7
ROMANS
210
0.0
220
0.0
230
1.0
  0
TEXT
  8
-11
  6
CONTINUOUS
 62
     7
  5
362
 10
910285.426
 20
7269256.235
 30
0.0
 40
8.0
  1
40'
 50
358.2152
  7
ROMANS
210
0.0
220
0.0
230
1.0
  0
TEXT
  8
-11
  6
CONTINUOUS
 62
     7
  5
363
 10
910239.411
 20
7269205.199
 30
0.0
 40
8.0
  1
55'
 50
88.2152
  7
ROMANS
210
0.0
220
0.0
230
1.0
  0
TEXT
  8
-11
  6
CONTINUOUS
 62
     7
  5
364
 10
909605.753
 20
7274377.899
 30
0.0
 40
8.0
  1
60'
 50
358.2152
  7
ROMANS
210
0.0
220
0.0
230
1.0
  0
TEXT
  8
-11
  6
CONTINUOUS
 62
     7
  5
365
 10
907012.25
 20
7271974.942
 30
0.0
 40
8.0
  1
800'
 50
358.2152
  7
ROMANS
210
0.0
220
0.0
230
1.0
  0
TEXT
  8
-11
  6
CONTINUOUS
 62
     7
  5
366
 10
910420.385
 20
7274430.908
 30
0.0
 40
8.0
  1
65'
 50
88.2152
  7
ROMANS
210
0.0
220
0.0
230
1.0
  0
TEXT
  8
-11
  6
CONTINUOUS
 62
     7
  5
367
 10
907503.894
 20
7274516.209
 30
0.0
 40
8.0
  1
65'
 50
88.2152
  7
ROMANS
210
0.0
220
0.0
230
1.0
  0
TEXT
  8
-11
  6
CONTINUOUS
 62
     7
  5
368
 10
905234.309
 20
7274583.982
 30
0.0
 40
8.0
  1
65'
 50
88.2152
  7
ROMANS
210
0.0
220
0.0
230
1.0
  0
TEXT
  8
-11
  6
CONTINUOUS
 62
     7
  5
369
 10
907461.072
 20
7271959.605
 30
0.0
 40
8.0
  1
60'
 50
358.2152
  7
ROMANS
210
0.0
220
0.0
230
1.0
  0
TEXT
  8
-11
  6
CONTINUOUS
 62
     7
  5
36A
 10
907499.72
 20
7273349.984
 30
0.0
 40
8.0
  1
60'
 50
358.2152
  7
ROMANS
210
0.0
220
0.0
230
1.0
  0
TEXT
  8
-11
  6
CONTINUOUS
 62
     7
  5
36B
 10
906637.971
 20
7273376.837
 30
0.0
 40
8.0
  1
60'
 50
358.2152
  7
ROMANS
210
0.0
220
0.0
230
1.0
  0
TEXT
  8
-11
  6
CONTINUOUS
 62
     7
  5
36C
 10
906674.888
 20
7274475.933
 30
0.0
 40
8.0
  1
60'
 50
358.2152
  7
ROMANS
210
0.0
220
0.0
230
1.0
  0
TEXT
  8
-11
  6
CONTINUOUS
 62
     7
  5
36D
 10
906599.334
 20
7272000.055
 30
0.0
 40
8.0
  1
60'
 50
358.2152
  7
ROMANS
210
0.0
220
0.0
230
1.0
  0
TEXT
  8
-11
  6
CONTINUOUS
 62
     7
  5
36E
 10
906281.424
 20
7274512.465
 30
0.0
 40
8.0
  1
708.23'
 50
358.2152
  7
ROMANS
210
0.0
220
0.0
230
1.0
  0
TEXT
  8
-11
  6
CONTINUOUS
 62
     7
  5
36F
 10
905847.079
 20
7274525.321
 30
0.0
 40
8.0
  1
180'
 50
358.2152
  7
ROMANS
210
0.0
220
0.0
230
1.0
  0
TEXT
  8
-11
  6
CONTINUOUS
 62
     7
  5
370
 10
905721.165
 20
7274534.084
 30
0.0
 40
8.0
  1
70'
 50
358.2152
  7
ROMANS
210
0.0
220
0.0
230
1.0
  0
TEXT
  8
-11
  6
CONTINUOUS
 62
     7
  5
371
 10
905540.685
 20
7274532.816
 30
0.0
 40
8.0
  1
300'
 50
358.2152
  7
ROMANS
210
0.0
220
0.0
230
1.0
  0
TEXT
  8
-11
  6
CONTINUOUS
 62
     7
  5
372
 10
905282.542
 20
7274541.886
 30
0.0
 40
8.0
  1
200'
 50
358.2152
  7
ROMANS
210
0.0
220
0.0
230
1.0
  0
TEXT
  8
-11
  6
CONTINUOUS
 62
     7
  5
373
 10
905207.85
 20
7274463.494
 30
0.0
 40
8.0
  1
156.46'
 50
88.2152
  7
ROMANS
210
0.0
220
0.0
230
1.0
  0
TEXT
  8
-11
  6
CONTINUOUS
 62
     7
  5
374
 10
905201.424
 20
7274414.353
 30
0.0
 40
8.0
  1
64.74'
 50
358.2152
  7
ROMANS
210
0.0
220
0.0
230
1.0
  0
TEXT
  8
-11
  6
CONTINUOUS
 62
     7
  5
375
 10
905303.789
 20
7274407.128
 30
0.0
 40
8.0
  1
135.26'
 50
358.2152
  7
ROMANS
210
0.0
220
0.0
230
1.0
  0
TEXT
  8
-11
  6
CONTINUOUS
 62
     7
  5
376
 10
905269.442
 20
7274361.424
 30
0.0
 40
8.0
  1
78'
 50
88.2152
  7
ROMANS
210
0.0
220
0.0
230
1.0
  0
TEXT
  8
-11
  6
CONTINUOUS
 62
     7
  5
377
 10
905245.677
 20
7273919.811
 30
0.0
 40
8.0
  1
430'
 50
88.2152
  7
ROMANS
210
0.0
220
0.0
230
1.0
  0
INSERT
  8
-11
  6
CONTINUOUS
 62
     7
  5
37F
  2
*D0
 10
905255.286
 20
7274329.297
 30
0.0
 70
     0
 71
     0
  0
TEXT
  8
-11
  6
CONTINUOUS
 62
     7
  5
380
 10
905213.05
 20
7274371.039
 30
0.0
 40
8.0
  1
65'
 50
358.2152
  7
ROMANS
210
0.0
220
0.0
230
1.0
  0
TEXT
  8
-11
  6
CONTINUOUS
 62
     7
  5
381
 10
905188.475
 20
7273746.376
 30
0.0
 40
8.0
  1
55'
 50
358.2152
  7
ROMANS
210
0.0
220
0.0
230
1.0
  0
TEXT
  8
-11
  6
CONTINUOUS
 62
     7
  5
382
 10
905407.656
 20
7274451.116
 30
0.0
 40
8.0
  1
156.46'
 50
88.2152
  7
ROMANS
210
0.0
220
0.0
230
1.0
  0
TEXT
  8
-11
  6
CONTINUOUS
 62
     7
  5
383
 10
905677.445
 20
7274094.136
 30
0.0
 40
8.0
  1
846.46'
 50
88.2152
  7
ROMANS
210
0.0
220
0.0
230
1.0
  0
TEXT
  8
-11
  6
CONTINUOUS
 62
     7
  5
384
 10
905436.641
 20
7273716.227
 30
0.0
 40
8.0
  1
445'
 50
358.2152
  7
ROMANS
210
0.0
220
0.0
230
1.0
  0
TEXT
  8
-11
  6
CONTINUOUS
 62
     7
  5
385
 10
905778.112
 20
7274455.668
 30
0.0
 40
8.0
  1
160'
 50
88.2152
  7
ROMANS
210
0.0
220
0.0
230
1.0
  0
TEXT
  8
-11
  6
CONTINUOUS
 62
     7
  5
386
 10
905938.555
 20
7274455.04
 30
0.0
 40
8.0
  1
110'
 50
88.2152
  7
ROMANS
210
0.0
220
0.0
230
1.0
  0
TEXT
  8
-11
  6
CONTINUOUS
 62
     7
  5
387
 10
905851.513
 20
7274401.05
 30
0.0
 40
8.0
  1
50'
 50
88.2152
  7
ROMANS
210
0.0
220
0.0
230
1.0
  0
TEXT
  8
-11
  6
CONTINUOUS
 62
     7
  5
388
 10
905805.158
 20
7274387.824
 30
0.0
 40
8.0
  1
95'
 50
358.2152
  7
ROMANS
210
0.0
220
0.0
230
1.0
  0
TEXT
  8
-11
  6
CONTINUOUS
 62
     7
  5
389
 10
905894.322
 20
7274435.832
 30
0.0
 40
8.0
  1
85'
 50
358.2152
  7
ROMANS
210
0.0
220
0.0
230
1.0
  0
TEXT
  8
-11
  6
CONTINUOUS
 62
     7
  5
38A
 10
905187.384
 20
7273826.074
 30
0.0
 40
8.0
  1
185'
 50
88.2152
  7
ROMANS
210
0.0
220
0.0
230
1.0
  0
TEXT
  8
-11
  6
CONTINUOUS
 62
     7
  5
38B
 10
905711.132
 20
7270195.721
 30
0.0
 40
8.0
  1
1449.81'
 50
358.2152
  7
ROMANS
210
0.0
220
0.0
230
1.0
  0
TEXT
  8
-11
  6
CONTINUOUS
 62
     7
  5
38C
 10
905149.96
 20
7270185.564
 30
0.0
 40
8.0
  1
30'
 50
88.2152
  7
ROMANS
210
0.0
220
0.0
230
1.0
  0
TEXT
  8
-11
  6
CONTINUOUS
 62
     7
  5
38D
 10
905116.617
 20
7270165.22
 30
0.0
 40
8.0
  1
R=15'
 50
313.2152
  7
ROMANS
210
0.0
220
0.0
230
1.0
  0
TEXT
  8
-11
  6
CONTINUOUS
 62
     7
  5
38E
 10
905462.106
 20
7270150.238
 30
0.0
 40
8.0
  1
710'
 50
358.2152
  7
ROMANS
210
0.0
220
0.0
230
1.0
  0
TEXT
  8
-11
  6
CONTINUOUS
 62
     7
  5
38F
 10
905115.446
 20
7269929.268
 30
0.0
 40
8.0
  1
409.62'
 50
88.2152
  7
ROMANS
210
0.0
220
0.0
230
1.0
  0
TEXT
  8
-11
  6
CONTINUOUS
 62
     7
  5
390
 10
905075.511
 20
7270132.99
 30
0.0
 40
8.0
  1
55'
 50
358.2152
  7
ROMANS
210
0.0
220
0.0
230
1.0
  0
TEXT
  8
-11
  6
CONTINUOUS
 62
     7
  5
391
 10
905066.587
 20
7269784.086
 30
0.0
 40
8.0
  1
55'
 50
358.2152
  7
ROMANS
210
0.0
220
0.0
230
1.0
  0
TEXT
  8
-11
  6
CONTINUOUS
 62
     7
  5
392
 10
905822.662
 20
7269799.405
 30
0.0
 40
8.0
  1
658.64'
 50
88.2152
  7
ROMANS
210
0.0
220
0.0
230
1.0
  0
TEXT
  8
-11
  6
CONTINUOUS
 62
     7
  5
393
 10
906126.837
 20
7270128.696
 30
0.0
 40
8.0
  1
625'
 50
358.2152
  7
ROMANS
210
0.0
220
0.0
230
1.0
  0
TEXT
  8
-11
  6
CONTINUOUS
 62
     7
  5
394
 10
906444.893
 20
7270099.559
 30
0.0
 40
8.0
  1
R=15'
 50
43.2152
  7
ROMANS
210
0.0
220
0.0
230
1.0
  0
TEXT
  8
-11
  6
CONTINUOUS
 62
     7
  5
395
 10
906416.767
 20
7269394.478
 30
0.0
 40
8.0
  1
R=15'
 50
313.2152
  7
ROMANS
210
0.0
220
0.0
230
1.0
  0
TEXT
  8
-11
  6
CONTINUOUS
 62
     7
  5
396
 10
906264.251
 20
7269372.96
 30
0.0
 40
8.0
  1
264.52'
 50
358.2152
  7
ROMANS
210
0.0
220
0.0
230
1.0
  0
TEXT
  8
-11
  6
CONTINUOUS
 62
     7
  5
397
 10
906459.48
 20
7269718.492
 30
0.0
 40
8.0
  1
745'
 50
88.2152
  7
ROMANS
210
0.0
220
0.0
230
1.0
  0
TEXT
  8
-11
  6
CONTINUOUS
 62
     7
  5
398
 10
906487.377
 20
7269716.744
 30
0.0
 40
8.0
  1
805'
 50
88.2152
  7
ROMANS
210
0.0
220
0.0
230
1.0
  0
TEXT
  8
-11
  6
CONTINUOUS
 62
     7
  5
399
 10
906459.406
 20
7269395.19
 30
0.0
 40
8.0
  1
30'
 50
358.2152
  7
ROMANS
210
0.0
220
0.0
230
1.0
  0
TEXT
  8
-11
  6
CONTINUOUS
 62
     7
  5
39A
 10
906418.748
 20
7269328.26
 30
0.0
 40
8.0
  1
55'
 50
88.2152
  7
ROMANS
210
0.0
220
0.0
230
1.0
  0
TEXT
  8
-11
  6
CONTINUOUS
 62
     7
  5
39B
 10
906480.782
 20
7270102.067
 30
0.0
 40
8.0
  1
30'
 50
358.2152
  7
ROMANS
210
0.0
220
0.0
230
1.0
  0
TEXT
  8
-11
  6
CONTINUOUS
 62
     7
  5
39C
 10
906448.827
 20
7270145.232
 30
0.0
 40
8.0
  1
30'
 50
88.2152
  7
ROMANS
210
0.0
220
0.0
230
1.0
  0
TEXT
  8
-11
  6
CONTINUOUS
 62
     7
  5
39D
 10
905108.58
 20
7269430.152
 30
0.0
 40
8.0
  1
R=30'
 50
43.2152
  7
ROMANS
210
0.0
220
0.0
230
1.0
  0
TEXT
  8
-11
  6
CONTINUOUS
 62
     7
  5
39E
 10
905106.691
 20
7269491.036
 30
0.0
 40
8.0
  1
142.25'
 50
88.2152
  7
ROMANS
210
0.0
220
0.0
230
1.0
  0
TEXT
  8
-11
  6
CONTINUOUS
 62
     7
  5
39F
 10
905095.067
 20
7269683.459
 30
0.0
 40
8.0
  1
1
 50
70.325867
  7
ROMANS
 72
     1
 11
905095.515781
 21
7269684.714183
 31
0.0
210
0.0
220
0.0
230
1.0
  0
TEXT
  8
-11
  6
CONTINUOUS
 62
     7
  5
3A0
 10
905097.398
 20
7269691.165
 30
0.0
 40
8.0
  1
6
 50
70.325867
  7
ROMANS
 72
     1
 11
905098.246409
 21
7269693.537889
 31
0.0
210
0.0
220
0.0
230
1.0
  0
TEXT
  8
-11
  6
CONTINUOUS
 62
     7
  5
3A1
 10
905100.738
 20
7269699.857
 30
0.0
 40
8.0
  1
0
 50
70.325867
  7
ROMANS
 72
     1
 11
905101.630513
 21
7269702.353242
 31
0.0
210
0.0
220
0.0
230
1.0
  0
TEXT
  8
-11
  6
CONTINUOUS
 62
     7
  5
3A2
 10
905103.168
 20
7269706.709
 30
0.0
 40
8.0
  1
'
 50
70.325867
  7
ROMANS
 72
     1
 11
905103.616781
 21
7269707.964183
 31
0.0
210
0.0
220
0.0
230
1.0
  0
TEXT
  8
-11
  6
CONTINUOUS
 62
     7
  5
3A3
 10
905468.137
 20
7269465.179
 30
0.0
 40
8.0
  1
5
 50
70.326472
  7
ROMANS
 72
     1
 11
905468.926132
 21
7269467.386172
 31
0.0
210
0.0
220
0.0
230
1.0
  0
TEXT
  8
-11
  6
CONTINUOUS
 62
     7
  5
3A4
 10
905470.723
 20
7269472.415
 30
0.0
 40
8.0
  1
0
 50
70.326472
  7
ROMANS
 72
     1
 11
905471.615486
 21
7269474.911251
 31
0.0
210
0.0
220
0.0
230
1.0
  0
TEXT
  8
-11
  6
CONTINUOUS
 62
     7
  5
3A5
 10
905473.862
 20
7269481.194
 30
0.0
 40
8.0
  1
'
 50
70.326472
  7
ROMANS
 72
     1
 11
905474.311105
 21
7269482.450129
 31
0.0
210
0.0
220
0.0
230
1.0
  0
TEXT
  8
-11
  6
CONTINUOUS
 62
     7
  5
3A6
 10
905787.981
 20
7269433.856
 30
0.0
 40
8.0
  1
1
 50
70.325867
  7
ROMANS
 72
     1
 11
905788.429781
 21
7269435.111183
 31
0.0
210
0.0
220
0.0
230
1.0
  0
TEXT
  8
-11
  6
CONTINUOUS
 62
     7
  5
3A7
 10
905790.272
 20
7269440.263
 30
0.0
 40
8.0
  1
6
 50
70.325867
  7
ROMANS
 72
     1
 11
905791.120409
 21
7269442.635889
 31
0.0
210
0.0
220
0.0
230
1.0
  0
TEXT
  8
-11
  6
CONTINUOUS
 62
     7
  5
3A8
 10
905792.922
 20
7269447.677
 30
0.0
 40
8.0
  1
0
 50
70.325867
  7
ROMANS
 72
     1
 11
905793.814513
 21
7269450.173242
 31
0.0
210
0.0
220
0.0
230
1.0
  0
TEXT
  8
-11
  6
CONTINUOUS
 62
     7
  5
3A9
 10
905796.062
 20
7269456.456
 30
0.0
 40
8.0
  1
'
 50
70.325867
  7
ROMANS
 72
     1
 11
905796.510781
 21
7269457.711183
 31
0.0
210
0.0
220
0.0
230
1.0
  0
TEXT
  8
-11
  6
CONTINUOUS
 62
     7
  5
3AA
 10
905618.524
 20
7269353.464
 30
0.0
 40
8.0
  1
55'
 50
88.2152
  7
ROMANS
210
0.0
220
0.0
230
1.0
  0
TEXT
  8
-11
  6
CONTINUOUS
 62
     7
  5
3AB
 10
905057.477
 20
7269452.79
 30
0.0
 40
8.0
  1
55'
 50
358.2152
  7
ROMANS
210
0.0
220
0.0
230
1.0
  0
TEXT
  8
-11
  6
CONTINUOUS
 62
     7
  5
3AC
 10
906834.89
 20
7271890.701
 30
0.0
 40
8.0
  1
574.96'
 50
358.2152
  7
ROMANS
210
0.0
220
0.0
230
1.0
  0
TEXT
  8
-11
  6
CONTINUOUS
 62
     7
  5
3AD
 10
907280.745
 20
7271879.133
 30
0.0
 40
8.0
  1
275'
 50
358.2152
  7
ROMANS
210
0.0
220
0.0
230
1.0
  0
TEXT
  8
-11
  6
CONTINUOUS
 62
     7
  5
3AE
 10
907162.067
 20
7271818.816
 30
0.0
 40
8.0
  1
130'
 50
88.2152
  7
ROMANS
210
0.0
220
0.0
230
1.0
  0
TEXT
  8
-11
  6
CONTINUOUS
 62
     7
  5
3AF
 10
910339.99
 20
7271680.112
 30
0.0
 40
8.0
  1
210'
 50
88.2152
  7
ROMANS
210
0.0
220
0.0
230
1.0
  0
TEXT
  8
-11
  6
CONTINUOUS
 62
     7
  5
3B0
 10
910335.145
 20
7271327.739
 30
0.0
 40
8.0
  1
696'
 50
88.2152
  7
ROMANS
210
0.0
220
0.0
230
1.0
  0
TEXT
  8
-11
  6
CONTINUOUS
 62
     7
  5
3B1
 10
910094.369
 20
7270889.076
 30
0.0
 40
8.0
  1
14.14'
 50
313.2152
  7
ROMANS
210
0.0
220
0.0
230
1.0
  0
TEXT
  8
-11
  6
CONTINUOUS
 62
     7
  5
3B2
 10
910182.941
 20
7270883.115
 30
0.0
 40
8.0
  1
210.42'
 50
358.2152
  7
ROMANS
210
0.0
220
0.0
230
1.0
  0
TEXT
  8
-11
  6
CONTINUOUS
 62
     7
  5
3B3
 10
910302.19
 20
7270805.244
 30
0.0
 40
8.0
  1
150'
 50
88.2152
  7
ROMANS
210
0.0
220
0.0
230
1.0
  0
TEXT
  8
-11
  6
CONTINUOUS
 62
     7
  5
3B4
 10
910298.379
 20
7270658.622
 30
0.0
 40
8.0
  1
150'
 50
88.2152
  7
ROMANS
210
0.0
220
0.0
230
1.0
  0
TEXT
  8
-11
  6
CONTINUOUS
 62
     7
  5
3B5
 10
910292.52
 20
7270503.579
 30
0.0
 40
8.0
  1
150'
 50
88.2152
  7
ROMANS
210
0.0
220
0.0
230
1.0
  0
TEXT
  8
-11
  6
CONTINUOUS
 62
     7
  5
3B6
 10
910287.493
 20
7270353.942
 30
0.0
 40
8.0
  1
150'
 50
88.2152
  7
ROMANS
210
0.0
220
0.0
230
1.0
  0
TEXT
  8
-11
  6
CONTINUOUS
 62
     7
  5
3B7
 10
910282.793
 20
7270206.344
 30
0.0
 40
8.0
  1
150'
 50
88.2152
  7
ROMANS
210
0.0
220
0.0
230
1.0
  0
TEXT
  8
-11
  6
CONTINUOUS
 62
     7
  5
3B8
 10
910279.308
 20
7270049.699
 30
0.0
 40
8.0
  1
150'
 50
88.2152
  7
ROMANS
210
0.0
220
0.0
230
1.0
  0
TEXT
  8
-11
  6
CONTINUOUS
 62
     7
  5
3B9
 10
910274.528
 20
7269899.509
 30
0.0
 40
8.0
  1
150'
 50
88.2152
  7
ROMANS
210
0.0
220
0.0
230
1.0
  0
TEXT
  8
-11
  6
CONTINUOUS
 62
     7
  5
3BA
 10
910183.79
 20
7270731.579
 30
0.0
 40
8.0
  1
220.42'
 50
358.2152
  7
ROMANS
210
0.0
220
0.0
230
1.0
  0
TEXT
  8
-11
  6
CONTINUOUS
 62
     7
  5
3BB
 10
910148.402
 20
7269855.667
 30
0.0
 40
8.0
  1
220.42'
 50
358.2152
  7
ROMANS
210
0.0
220
0.0
230
1.0
  0
TEXT
  8
-11
  6
CONTINUOUS
 62
     7
  5
3BC
 10
910067.591
 20
7270382.58
 30
0.0
 40
8.0
  1
1040'
 50
88.2152
  7
ROMANS
210
0.0
220
0.0
230
1.0
  0
TEXT
  8
-11
  6
CONTINUOUS
 62
     7
  5
3BD
 10
910276.789
 20
7269504.933
 30
0.0
 40
8.0
  1
600'
 50
88.2152
  7
ROMANS
210
0.0
220
0.0
230
1.0
  0
TEXT
  8
-11
  6
CONTINUOUS
 62
     7
  5
3BE
 10
908990.885
 20
7269502.93
 30
0.0
 40
8.0
  1
490'
 50
88.2152
  7
ROMANS
210
0.0
220
0.0
230
1.0
  0
TEXT
  8
-11
  6
CONTINUOUS
 62
     7
  5
3BF
 10
908489.586
 20
7269501.992
 30
0.0
 40
8.0
  1
460'
 50
88.2152
  7
ROMANS
210
0.0
220
0.0
230
1.0
  0
TEXT
  8
-11
  6
CONTINUOUS
 62
     7
  5
3C0
 10
908603.123
 20
7269763.302
 30
0.0
 40
8.0
  1
240'
 50
358.2152
  7
ROMANS
210
0.0
220
0.0
230
1.0
  0
TEXT
  8
-11
  6
CONTINUOUS
 62
     7
  5
3C1
 10
908851.784
 20
7269760.945
 30
0.0
 40
8.0
  1
R
 50
3.252194
  7
ROMANS
 72
     1
 11
908854.299942
 21
7269761.087962
 31
0.0
210
0.0
220
0.0
230
1.0
  0
TEXT
  8
-11
  6
CONTINUOUS
 62
     7
  5
3C2
 10
908858.954
 20
7269761.352
 30
0.0
 40
8.0
  1
=
 50
3.252194
  7
ROMANS
 72
     1
 11
908862.281632
 21
7269761.541085
 31
0.0
210
0.0
220
0.0
230
1.0
  0
TEXT
  8
-11
  6
CONTINUOUS
 62
     7
  5
3C3
 10
908868.885
 20
7269762.045
 30
0.0
 40
8.0
  1
1
 50
4.405689
  7
ROMANS
 72
     1
 11
908870.214061
 21
7269762.147398
 31
0.0
210
0.0
220
0.0
230
1.0
  0
TEXT
  8
-11
  6
CONTINUOUS
 62
     7
  5
3C4
 10
908875.857
 20
7269762.583
 30
0.0
 40
8.0
  1
5
 50
4.405689
  7
ROMANS
 72
     1
 11
908878.194074
 21
7269762.763061
 31
0.0
210
0.0
220
0.0
230
1.0
  0
TEXT
  8
-11
  6
CONTINUOUS
 62
     7
  5
3C5
 10
908883.833
 20
7269763.197
 30
0.0
 40
8.0
  1
7
 50
4.405689
  7
ROMANS
 72
     1
 11
908886.159106
 21
7269763.376216
 31
0.0
210
0.0
220
0.0
230
1.0
  0
TEXT
  8
-11
  6
CONTINUOUS
 62
     7
  5
3C6
 10
908891.809
 20
7269763.812
 30
0.0
 40
8.0
  1
9
 50
4.405689
  7
ROMANS
 72
     1
 11
908894.135106
 21
7269763.991216
 31
0.0
210
0.0
220
0.0
230
1.0
  0
TEXT
  8
-11
  6
CONTINUOUS
 62
     7
  5
3C7
 10
908900.719
 20
7269764.632
 30
0.0
 40
8.0
  1
'
 50
5.559183
  7
ROMANS
 72
     1
 11
908902.04573
 21
7269764.761133
 31
0.0
210
0.0
220
0.0
230
1.0
  0
TEXT
  8
-11
  6
CONTINUOUS
 62
     7
  5
3C8
 10
908856.463
 20
7269747.188
 30
0.0
 40
8.0
  1
2
 50
3.252194
  7
ROMANS
 72
     1
 11
908858.338394
 21
7269755.307469
 31
0.0
210
0.0
220
0.0
230
1.0
 73
     3
  0
TEXT
  8
-11
  6
CONTINUOUS
 62
     7
  5
3C9
 10
908864.669
 20
7269747.678
 30
0.0
 40
8.0
  1
8
 50
4.405689
  7
ROMANS
 72
     1
 11
908866.380562
 21
7269755.833577
 31
0.0
210
0.0
220
0.0
230
1.0
 73
     3
  0
TEXT
  8
-11
  6
CONTINUOUS
 62
     7
  5
3CA
 10
908873.651
 20
7269748.371
 30
0.0
 40
8.0
  1
1
 50
4.405689
  7
ROMANS
 72
     1
 11
908874.365517
 21
7269756.449759
 31
0.0
210
0.0
220
0.0
230
1.0
 73
     3
  0
TEXT
  8
-11
  6
CONTINUOUS
 62
     7
  5
3CB
 10
908881.627
 20
7269748.986
 30
0.0
 40
8.0
  1
.
 50
4.405689
  7
ROMANS
 72
     1
 11
908882.330549
 21
7269757.063914
 31
0.0
210
0.0
220
0.0
230
1.0
 73
     3
  0
TEXT
  8
-11
  6
CONTINUOUS
 62
     7
  5
3CC
 10
908888.41
 20
7269749.508
 30
0.0
 40
8.0
  1
6
 50
4.405689
  7
ROMANS
 72
     1
 11
908890.30801
 21
7269757.677942
 31
0.0
210
0.0
220
0.0
230
1.0
 73
     3
  0
TEXT
  8
-11
  6
CONTINUOUS
 62
     7
  5
3CD
 10
908897.796
 20
7269750.282
 30
0.0
 40
8.0
  1
'
 50
5.559183
  7
ROMANS
 72
     1
 11
908898.347739
 21
7269758.373506
 31
0.0
210
0.0
220
0.0
230
1.0
 73
     3
  0
TEXT
  8
-11
  6
CONTINUOUS
 62
     7
  5
3CE
 10
908529.374
 20
7269723.031
 30
0.0
 40
8.0
  1
60'
 50
88.2152
  7
ROMANS
210
0.0
220
0.0
230
1.0
  0
TEXT
  8
-11
  6
CONTINUOUS
 62
     7
  5
3CF
 10
908975.716
 20
7269732.111
 30
0.0
 40
8.0
  1
60'
 50
88.2152
  7
ROMANS
210
0.0
220
0.0
230
1.0
  0
TEXT
  8
-11
  6
CONTINUOUS
 62
     7
  5
3D0
 10
908724.25
 20
7269329.468
 30
0.0
 40
8.0
  1
56'
 50
358.2152
  7
ROMANS
210
0.0
220
0.0
230
1.0
  0
TEXT
  8
-11
  6
CONTINUOUS
 62
     7
  5
3D1
 10
908733.956
 20
7269663.269
 30
0.0
 40
8.0
  1
56'
 50
358.2152
  7
ROMANS
210
0.0
220
0.0
230
1.0
  0
TEXT
  8
-11
  6
CONTINUOUS
 62
     7
  5
3D2
 10
908581.615
 20
7269682.91
 30
0.0
 40
8.0
  1
197.63'
 50
358.2152
  7
ROMANS
210
0.0
220
0.0
230
1.0
  0
TEXT
  8
-11
  6
CONTINUOUS
 62
     7
  5
3D3
 10
908570.498
 20
7269304.565
 30
0.0
 40
8.0
  1
197.63'
 50
358.2152
  7
ROMANS
210
0.0
220
0.0
230
1.0
  0
TEXT
  8
-11
  6
CONTINUOUS
 62
     7
  5
3D4
 10
908582.655
 20
7269573.67
 30
0.0
 40
8.0
  1
212.63'
 50
358.2152
  7
ROMANS
210
0.0
220
0.0
230
1.0
  0
TEXT
  8
-11
  6
CONTINUOUS
 62
     7
  5
3D5
 10
908578.604
 20
7269444.018
 30
0.0
 40
8.0
  1
212.63'
 50
358.2152
  7
ROMANS
210
0.0
220
0.0
230
1.0
  0
TEXT
  8
-11
  6
CONTINUOUS
 62
     7
  5
3D6
 10
908514.118
 20
7269620.783
 30
0.0
 40
8.0
  1
130'
 50
88.2152
  7
ROMANS
210
0.0
220
0.0
230
1.0
  0
TEXT
  8
-11
  6
CONTINUOUS
 62
     7
  5
3D7
 10
908707.913
 20
7269613.701
 30
0.0
 40
8.0
  1
115'
 50
88.2152
  7
ROMANS
210
0.0
220
0.0
230
1.0
  0
TEXT
  8
-11
  6
CONTINUOUS
 62
     7
  5
3D8
 10
908703.023
 20
7269489.572
 30
0.0
 40
8.0
  1
130'
 50
88.2152
  7
ROMANS
210
0.0
220
0.0
230
1.0
  0
TEXT
  8
-11
  6
CONTINUOUS
 62
     7
  5
3D9
 10
908699.789
 20
7269353.023
 30
0.0
 40
8.0
  1
125'
 50
88.2152
  7
ROMANS
210
0.0
220
0.0
230
1.0
  0
TEXT
  8
-11
  6
CONTINUOUS
 62
     7
  5
3DA
 10
908505.162
 20
7269355.674
 30
0.0
 40
8.0
  1
140'
 50
88.2152
  7
ROMANS
210
0.0
220
0.0
230
1.0
  0
TEXT
  8
-11
  6
CONTINUOUS
 62
     7
  5
3DB
 10
908684.597
 20
7269654.304
 30
0.0
 40
8.0
  1
R=15'
 50
43.2152
  7
ROMANS
210
0.0
220
0.0
230
1.0
  0
TEXT
  8
-11
  6
CONTINUOUS
 62
     7
  5
3DC
 10
908773.211
 20
7269302.309
 30
0.0
 40
8.0
  1
R=15'
 50
43.2152
  7
ROMANS
210
0.0
220
0.0
230
1.0
  0
TEXT
  8
-11
  6
CONTINUOUS
 62
     7
  5
3DD
 10
908777.077
 20
7269680.542
 30
0.0
 40
8.0
  1
R=15'
 50
313.2152
  7
ROMANS
210
0.0
220
0.0
230
1.0
  0
TEXT
  8
-11
  6
CONTINUOUS
 62
     7
  5
3DE
 10
908666.843
 20
7269327.191
 30
0.0
 40
8.0
  1
R=15'
 50
313.2152
  7
ROMANS
210
0.0
220
0.0
230
1.0
  0
TEXT
  8
-11
  6
CONTINUOUS
 62
     7
  5
3DF
 10
908974.433
 20
7269601.307
 30
0.0
 40
8.0
  1
155.18'
 50
88.2152
  7
ROMANS
210
0.0
220
0.0
230
1.0
  0
TEXT
  8
-11
  6
CONTINUOUS
 62
     7
  5
3E0
 10
908780.383
 20
7269600.556
 30
0.0
 40
8.0
  1
117.28'
 50
88.2152
  7
ROMANS
210
0.0
220
0.0
230
1.0
  0
TEXT
  8
-11
  6
CONTINUOUS
 62
     7
  5
3E1
 10
908777.703
 20
7269481.398
 30
0.0
 40
8.0
  1
130'
 50
88.2152
  7
ROMANS
210
0.0
220
0.0
230
1.0
  0
TEXT
  8
-11
  6
CONTINUOUS
 62
     7
  5
3E2
 10
908966.278
 20
7269339.599
 30
0.0
 40
8.0
  1
140'
 50
88.2152
  7
ROMANS
210
0.0
220
0.0
230
1.0
  0
TEXT
  8
-11
  6
CONTINUOUS
 62
     7
  5
3E3
 10
908773.328
 20
7269351.793
 30
0.0
 40
8.0
  1
125'
 50
88.2152
  7
ROMANS
210
0.0
220
0.0
230
1.0
  0
TEXT
  8
-11
  6
CONTINUOUS
 62
     7
  5
3E4
 10
908863.692
 20
7269563.882
 30
0.0
 40
8.0
  1
211.37'
 50
358.2152
  7
ROMANS
210
0.0
220
0.0
230
1.0
  0
TEXT
  8
-11
  6
CONTINUOUS
 62
     7
  5
3E5
 10
908861.714
 20
7269434.51
 30
0.0
 40
8.0
  1
211.37'
 50
358.2152
  7
ROMANS
210
0.0
220
0.0
230
1.0
  0
TEXT
  8
-11
  6
CONTINUOUS
 62
     7
  5
3E6
 10
908846.739
 20
7269296.652
 30
0.0
 40
8.0
  1
196.37'
 50
358.2152
  7
ROMANS
210
0.0
220
0.0
230
1.0
  0
TEXT
  8
-11
  6
CONTINUOUS
 62
     7
  5
3E7
 10
908861.161
 20
7269701.339
 30
0.0
 40
8.0
  1
R
 50
4.205692
  7
ROMANS
 72
     1
 11
908863.674214
 21
7269701.52381
 31
0.0
210
0.0
220
0.0
230
1.0
  0
TEXT
  8
-11
  6
CONTINUOUS
 62
     7
  5
3E8
 10
908868.322
 20
7269701.866
 30
0.0
 40
8.0
  1
=
 50
4.205692
  7
ROMANS
 72
     1
 11
908871.646025
 21
7269702.110433
 31
0.0
210
0.0
220
0.0
230
1.0
  0
TEXT
  8
-11
  6
CONTINUOUS
 62
     7
  5
3E9
 10
908878.312
 20
7269702.6
 30
0.0
 40
8.0
  1
1
 50
4.205692
  7
ROMANS
 72
     1
 11
908879.64141
 21
7269702.697759
 31
0.0
210
0.0
220
0.0
230
1.0
  0
TEXT
  8
-11
  6
CONTINUOUS
 62
     7
  5
3EA
 10
908885.285
 20
7269703.113
 30
0.0
 40
8.0
  1
5
 50
4.205692
  7
ROMANS
 72
     1
 11
908887.622688
 21
7269703.284903
 31
0.0
210
0.0
220
0.0
230
1.0
  0
TEXT
  8
-11
  6
CONTINUOUS
 62
     7
  5
3EB
 10
908894.207
 20
7269703.786
 30
0.0
 40
8.0
  1
1
 50
5.337875
  7
ROMANS
 72
     1
 11
908895.534219
 21
7269703.910007
 31
0.0
210
0.0
220
0.0
230
1.0
  0
TEXT
  8
-11
  6
CONTINUOUS
 62
     7
  5
3EC
 10
908901.17
 20
7269704.437
 30
0.0
 40
8.0
  1
9
 50
5.337875
  7
ROMANS
 72
     1
 11
908903.492883
 21
7269704.654036
 31
0.0
210
0.0
220
0.0
230
1.0
  0
TEXT
  8
-11
  6
CONTINUOUS
 62
     7
  5
3ED
 10
908910.139
 20
7269705.275
 30
0.0
 40
8.0
  1
'
 50
5.337875
  7
ROMANS
 72
     1
 11
908911.466219
 21
7269705.399007
 31
0.0
210
0.0
220
0.0
230
1.0
  0
TEXT
  8
-11
  6
CONTINUOUS
 62
     7
  5
3EE
 10
908860.306
 20
7269687.272
 30
0.0
 40
8.0
  1
1
 50
3.073508
  7
ROMANS
 72
     1
 11
908861.209144
 21
7269695.332018
 31
0.0
210
0.0
220
0.0
230
1.0
 73
     3
  0
TEXT
  8
-11
  6
CONTINUOUS
 62
     7
  5
3EF
 10
908867.499
 20
7269687.766
 30
0.0
 40
8.0
  1
9
 50
4.205692
  7
ROMANS
 72
     1
 11
908869.23902
 21
7269695.915553
 31
0.0
210
0.0
220
0.0
230
1.0
 73
     3
  0
TEXT
  8
-11
  6
CONTINUOUS
 62
     7
  5
3F0
 10
908875.478
 20
7269688.353
 30
0.0
 40
8.0
  1
8
 50
4.205692
  7
ROMANS
 72
     1
 11
908877.21802
 21
7269696.502553
 31
0.0
210
0.0
220
0.0
230
1.0
 73
     3
  0
TEXT
  8
-11
  6
CONTINUOUS
 62
     7
  5
3F1
 10
908884.461
 20
7269689.014
 30
0.0
 40
8.0
  1
.
 50
4.205692
  7
ROMANS
 72
     1
 11
908885.192742
 21
7269697.089409
 31
0.0
210
0.0
220
0.0
230
1.0
 73
     3
  0
TEXT
  8
-11
  6
CONTINUOUS
 62
     7
  5
3F2
 10
908891.434
 20
7269689.527
 30
0.0
 40
8.0
  1
5
 50
4.205692
  7
ROMANS
 72
     1
 11
908893.18499
 21
7269697.67736
 31
0.0
210
0.0
220
0.0
230
1.0
 73
     3
  0
TEXT
  8
-11
  6
CONTINUOUS
 62
     7
  5
3F3
 10
908899.621
 20
7269690.231
 30
0.0
 40
8.0
  1
3
 50
5.337875
  7
ROMANS
 72
     1
 11
908901.199652
 21
7269698.413344
 31
0.0
210
0.0
220
0.0
230
1.0
 73
     3
  0
TEXT
  8
-11
  6
CONTINUOUS
 62
     7
  5
3F4
 10
908908.589
 20
7269691.069
 30
0.0
 40
8.0
  1
'
 50
5.337875
  7
ROMANS
 72
     1
 11
908909.171989
 21
7269699.158315
 31
0.0
210
0.0
220
0.0
230
1.0
 73
     3
  0
TEXT
  8
-11
  6
CONTINUOUS
 62
     7
  5
3F5
 10
905131.583
 20
7269372.255
 30
0.0
 40
8.0
  1
65'
 50
88.2152
  7
ROMANS
210
0.0
220
0.0
230
1.0
  0
TEXT
  8
-11
  6
CONTINUOUS
 62
     7
  5
3F6
 10
905212.704
 20
7269416.513
 30
0.0
 40
8.0
  1
210'
 50
358.2152
  7
ROMANS
210
0.0
220
0.0
230
1.0
  0
TEXT
  8
-11
  6
CONTINUOUS
 62
     7
  5
3F7
 10
905543.143
 20
7269398.701
 30
0.0
 40
8.0
  1
125'
 50
358.2152
  7
ROMANS
210
0.0
220
0.0
230
1.0
  0
TEXT
  8
-19
  6
CONTINUOUS
 62
     1
  5
3F9
 10
910330.736
 20
7269577.465
 30
0.0
 40
24.0
  1
UPLAND AVE.
 50
88.1523
  7
ROMANC
210
0.0
220
0.0
230
1.0
  0
TEXT
  8
-19
  6
CONTINUOUS
 62
     1
  5
3FA
 10
905239.681
 20
7273908.465
 30
0.0
 40
24.0
  1
ALCOVE AVE.
 50
88.1523
  7
ROMANC
210
0.0
220
0.0
230
1.0
  0
TEXT
  8
-19
  6
CONTINUOUS
 62
     1
  5
3FB
 10
905097.162
 20
7269813.565
 30
0.0
 40
24.0
  1
ALCOVE AVE.
 50
88.1523
  7
ROMANC
210
0.0
220
0.0
230
1.0
  0
TEXT
  8
-19
  6
CONTINUOUS
 62
     1
  5
3FC
 10
908760.086
 20
7269364.467
 30
0.0
 40
24.0
  1
VIOLA AVE.
 50
88.1523
  7
ROMANC
210
0.0
220
0.0
230
1.0
  0
TEXT
  8
-19
  6
CONTINUOUS
 62
     1
  5
3FD
 10
906497.566
 20
7269462.475
 30
0.0
 40
24.0
  1
YUMA AVE.
 50
88.1523
  7
ROMANC
210
0.0
220
0.0
230
1.0
  0
TEXT
  8
-19
  6
CONTINUOUS
 62
     1
  5
3FE
 10
907507.687
 20
7272076.565
 30
0.0
 40
24.0
  1
WAUSAU AVE.
 50
88.1523
  7
ROMANC
210
0.0
220
0.0
230
1.0
  0
TEXT
  8
-19
  6
CONTINUOUS
 62
     1
  5
3FF
 10
907568.7
 20
7274094.468
 30
0.0
 40
24.0
  1
WAUSAU AVE.
 50
88.1523
  7
ROMANC
210
0.0
220
0.0
230
1.0
  0
TEXT
  8
-19
  6
CONTINUOUS
 62
     1
  5
400
 10
906713.492
 20
7274183.388
 30
0.0
 40
24.0
  1
YUMA AVE.
 50
88.1523
  7
ROMANC
210
0.0
220
0.0
230
1.0
  0
TEXT
  8
-19
  6
CONTINUOUS
 62
     1
  5
401
 10
906645.896
 20
7272088.012
 30
0.0
 40
24.0
  1
YUMA AVE.
 50
88.1523
  7
ROMANC
210
0.0
220
0.0
230
1.0
  0
TEXT
  8
-19
  6
CONTINUOUS
 62
     1
  5
402
 10
909639.596
 20
7273958.054
 30
0.0
 40
24.0
  1
URBANA PLACE
 50
88.1523
  7
ROMANC
210
0.0
220
0.0
230
1.0
  0
TEXT
  8
-15
  6
CONTINUOUS
 62
    30
  5
404
 10
905263.297
 20
7269879.497
 30
0.0
 40
50.0
  1
ROLLING 
 50
28.1523
  7
ROMANC
210
0.0
220
0.0
230
1.0
  0
TEXT
  8
-15
  6
CONTINUOUS
 62
    30
  5
405
 10
906108.969
 20
7269543.03
 30
0.0
 40
50.0
  1
PLAINS
 50
28.1523
  7
ROMANC
210
0.0
220
0.0
230
1.0
  0
TEXT
  8
-15
  6
CONTINUOUS
 62
    30
  5
406
 10
910104.332
 20
7270337.819
 30
0.0
 40
30.0
  1
TURNBOW
 50
28.1523
  7
ROMANC
210
0.0
220
0.0
230
1.0
  0
TEXT
  8
-15
  6
CONTINUOUS
 62
    30
  5
407
 10
908534.57
 20
7269482.892
 30
0.0
 40
20.0
  1
WILDERLAND
 50
28.1523
  7
ROMANC
210
0.0
220
0.0
230
1.0
  0
TEXT
  8
-15
  6
CONTINUOUS
 62
    30
  5
408
 10
908809.666
 20
7269411.474
 30
0.0
 40
20.0
  1
PARK
 50
28.1523
  7
ROMANC
210
0.0
220
0.0
230
1.0
  0
TEXT
  8
-15
  6
CONTINUOUS
 62
    30
  5
409
 10
905367.469
 20
7274211.989
 30
0.0
 40
50.0
  1
TEXAS 
 50
28.1523
  7
ROMANC
210
0.0
220
0.0
230
1.0
  0
TEXT
  8
-15
  6
CONTINUOUS
 62
    30
  5
40A
 10
905470.79
 20
7273907.202
 30
0.0
 40
50.0
  1
WEST
 50
28.1523
  7
ROMANC
210
0.0
220
0.0
230
1.0
  0
TEXT
  8
-15
  6
CONTINUOUS
 62
    30
  5
40B
 10
907203.602
 20
7271792.0
 30
0.0
 40
20.0
  1
GARNER
 50
28.1523
  7
ROMANC
210
0.0
220
0.0
230
1.0
  0
TEXT
  8
-15
  6
CONTINUOUS
 62
    30
  5
40C
 10
907249.772
 20
7271765.512
 30
0.0
 40
20.0
  1
(UNRECORDED)
 50
28.1523
  7
ROMANC
210
0.0
220
0.0
230
1.0
  0
TEXT
  8
-15
  6
CONTINUOUS
 62
    30
  5
40D
 10
905805.75
 20
7274414.828
 30
0.0
 40
20.0
  1
DREASHER
 50
28.1523
  7
ROMANC
210
0.0
220
0.0
230
1.0
  0
TEXT
  8
-11
  6
CONTINUOUS
 62
     7
  5
40E
 10
907533.854
 20
7274449.167
 30
0.0
 40
8.0
  1
60'
 50
358.2152
  7
ROMANS
210
0.0
220
0.0
230
1.0
  0
TEXT
  8
-11
  6
CONTINUOUS
 62
     7
  5
40F
 10
907548.294
 20
7273181.368
 30
0.0
 40
8.0
  1
2544'
 50
88.2152
  7
ROMANS
 72
     4
 11
907544.835787
 21
7273198.817173
 31
0.0
210
0.0
220
0.0
230
1.0
  0
TEXT
  8
-11
  6
CONTINUOUS
 62
     7
  5
410
 10
907469.391
 20
7273183.827
 30
0.0
 40
8.0
  1
2544'
 50
88.2152
  7
ROMANS
 72
     4
 11
907465.932787
 21
7273201.276173
 31
0.0
210
0.0
220
0.0
230
1.0
  0
TEXT
  8
-11
  6
CONTINUOUS
 62
     7
  5
411
 10
906688.724
 20
7273223.237
 30
0.0
 40
8.0
  1
2544'
 50
88.2152
  7
ROMANS
 72
     4
 11
906685.265787
 21
7273240.686173
 31
0.0
210
0.0
220
0.0
230
1.0
  0
TEXT
  8
-11
  6
CONTINUOUS
 62
     7
  5
412
 10
906609.865
 20
7273209.893
 30
0.0
 40
8.0
  1
2604'
 50
88.2152
  7
ROMANS
 72
     4
 11
906606.406787
 21
7273227.342173
 31
0.0
210
0.0
220
0.0
230
1.0
  0
TEXT
  8
-11
  6
CONTINUOUS
 62
     7
  5
413
 10
908328.312
 20
7274450.301
 30
0.0
 40
8.0
  1
2000'
 50
358.2152
  7
ROMANS
 72
     4
 11
908345.761173
 21
7274453.759213
 31
0.0
210
0.0
220
0.0
230
1.0
  0
TEXT
  8
-11
  6
CONTINUOUS
 62
     7
  5
414
 10
910066.28
 20
7274398.41
 30
0.0
 40
8.0
  1
590'
 50
358.2152
  7
ROMANS
 72
     4
 11
910079.731114
 21
7274401.992795
 31
0.0
210
0.0
220
0.0
230
1.0
  0
POLYLINE
  8
-1
  6
HIDDEN
 62
   253
  5
416
 66
     1
 10
0.0
 20
0.0
 30
0.0
 70
     1
  0
VERTEX
  8
-1
  6
HIDDEN
 62
   253
  5
417
 10
910488.273
 20
7274496.731
 30
0.0
  0
VERTEX
  8
-1
  6
HIDDEN
 62
   253
  5
418
 10
905223.215
 20
7274656.914
 30
0.0
  0
VERTEX
  8
-1
  6
HIDDEN
 62
   253
  5
419
 10
905051.881
 20
7269368.844
 30
0.0
  0
VERTEX
  8
-1
  6
HIDDEN
 62
   253
  5
41A
 10
910317.983
 20
7269201.765
 30
0.0
  0
SEQEND
  8
-1
  6
HIDDEN
 62
   253
  5
41B
  0
LINE
  8
-7
  6
CONTINUOUS
 62
     7
  5
41C
 10
909869.532
 20
7274421.253
 30
0.0
 11
909863.89
 21
7274246.344
 31
0.0
  0
LINE
  8
-7
  6
CONTINUOUS
 62
     7
  5
41D
 10
909863.89
 20
7274246.344
 30
0.0
 11
909783.931
 21
7274248.924
 31
0.0
  0
LINE
  8
-7
  6
CONTINUOUS
 62
     7
  5
41E
 10
909783.931
 20
7274248.924
 30
0.0
 11
909789.574
 21
7274423.833
 31
0.0
  0
TEXT
  8
-11
  6
CONTINUOUS
 62
     7
  5
41F
 10
909794.326
 20
7274407.755
 30
0.0
 40
8.0
  1
80'
 50
358.2152
  7
ROMANS
 72
     4
 11
909803.779055
 21
7274411.462378
 31
0.0
210
0.0
220
0.0
230
1.0
  0
TEXT
  8
-11
  6
CONTINUOUS
 62
     7
  5
420
 10
909789.493
 20
7274252.66
 30
0.0
 40
8.0
  1
80'
 50
358.2152
  7
ROMANS
 72
     4
 11
909798.946055
 21
7274256.367378
 31
0.0
210
0.0
220
0.0
230
1.0
  0
TEXT
  8
-11
  6
CONTINUOUS
 62
     7
  5
421
 10
909772.704
 20
7274316.512
 30
0.0
 40
8.0
  1
160'
 50
88.2152
  7
ROMANS
 72
     4
 11
909769.121205
 21
7274329.963114
 31
0.0
210
0.0
220
0.0
230
1.0
  0
TEXT
  8
-11
  6
CONTINUOUS
 62
     7
  5
422
 10
909838.574
 20
7274319.521
 30
0.0
 40
8.0
  1
160'
 50
88.2152
  7
ROMANS
 72
     4
 11
909834.991205
 21
7274332.972114
 31
0.0
210
0.0
220
0.0
230
1.0
  0
TEXT
  8
-10
  6
CONTINUOUS
 62
   134
  5
423
 10
909797.073
 20
7274327.046
 30
0.0
 40
13.999
  1
1
 50
358.2152
  7
ROMANS
 72
     4
 11
909799.622887
 21
7274333.969941
 31
0.0
210
0.0
220
0.0
230
1.0
  0
TEXT
  8
-15
  6
CONTINUOUS
 62
    30
  5
424
 10
909790.651
 20
7274261.812
 30
0.0
 40
10.0
  1
CARLISLE
 50
28.1523
  7
ROMANC
 72
     4
 11
909822.863237
 21
7274284.720423
 31
0.0
210
0.0
220
0.0
230
1.0
  0
TEXT
  8
-11
  6
CONTINUOUS
 62
     7
  5
425
 10
905698.014
 20
7273707.282
 30
0.0
 40
8.0
  1
70'
 50
358.2152
  7
ROMANS
210
0.0
220
0.0
230
1.0
  0
TEXT
  8
-11
  6
CONTINUOUS
 62
     7
  5
426
 10
905746.548
 20
7274089.368
 30
0.0
 40
8.0
  1
846.46'
 50
88.2152
  7
ROMANS
210
0.0
220
0.0
230
1.0
  0
TEXT
  8
-10
  6
CONTINUOUS
 62
   134
  5
427
 10
905715.716
 20
7274175.2
 30
0.0
 40
13.999
  1
1
 50
358.2152
  7
ROMANS
 11
905716.152007
 21
7274189.192208
 31
0.0
210
0.0
220
0.0
230
1.0
 73
     3
  0
TEXT
  8
-15
  6
CONTINUOUS
 62
    30
  5
428
 10
905714.611
 20
7274196.871
 30
0.0
 40
15.0
  1
EPCON
 50
28.1523
  7
ROMANC
 72
     4
 11
905745.747735
 21
7274222.039339
 31
0.0
210
0.0
220
0.0
230
1.0
  0
LINE
  8
-14
  6
CONTINUOUS
 62
     7
  5
42A
 10
905721.689
 20
7274555.061
 30
0.0
 11
905694.395
 21
7273709.039
 31
0.0
  0
LINE
  8
-14
  6
CONTINUOUS
 62
     7
  5
42B
 10
905791.652
 20
7274552.804
 30
0.0
 11
905786.492
 21
7274392.887
 31
0.0
  0
LINE
  8
-7
  6
CONTINUOUS
 62
     7
  5
42C
 10
906941.056
 20
7274515.725
 30
0.0
 11
906923.98
 21
7273986.411
 31
0.0
  0
LINE
  8
-7
  6
CONTINUOUS
 62
     7
  5
42D
 10
906923.98
 20
7273986.411
 30
0.0
 11
907123.876
 21
7273979.962
 31
0.0
  0
LINE
  8
-7
  6
CONTINUOUS
 62
     7
  5
42E
 10
907123.876
 20
7273979.962
 30
0.0
 11
907135.535
 21
7274341.393
 31
0.0
  0
LINE
  8
-7
  6
CONTINUOUS
 62
     7
  5
42F
 10
907135.535
 20
7274341.393
 30
0.0
 11
907047.582
 21
7274344.231
 31
0.0
  0
LINE
  8
-7
  6
CONTINUOUS
 62
     7
  5
430
 10
907047.582
 20
7274344.231
 30
0.0
 11
907052.997
 21
7274512.115
 31
0.0
  0
TEXT
  8
-11
  6
CONTINUOUS
 62
     7
  5
431
 10
906959.066
 20
7274491.111
 30
0.0
 40
8.0
  1
112'
 50
358.2152
  7
ROMANS
 72
     4
 11
906972.517114
 21
7274494.693795
 31
0.0
210
0.0
220
0.0
230
1.0
  0
TEXT
  8
-11
  6
CONTINUOUS
 62
     7
  5
432
 10
906981.873
 20
7273983.95
 30
0.0
 40
8.0
  1
200'
 50
358.2152
  7
ROMANS
 72
     4
 11
906995.324114
 21
7273987.532795
 31
0.0
210
0.0
220
0.0
230
1.0
  0
TEXT
  8
-11
  6
CONTINUOUS
 62
     7
  5
433
 10
907061.677
 20
7274343.453
 30
0.0
 40
8.0
  1
88'
 50
358.2152
  7
ROMANS
 72
     4
 11
907071.130055
 21
7274347.160378
 31
0.0
210
0.0
220
0.0
230
1.0
  0
TEXT
  8
-11
  6
CONTINUOUS
 62
     7
  5
434
 10
906902.434
 20
7274221.239
 30
0.0
 40
8.0
  1
529.59'
 50
88.2152
  7
ROMANS
 72
     4
 11
906899.224952
 21
7274246.684292
 31
0.0
210
0.0
220
0.0
230
1.0
  0
TEXT
  8
-11
  6
CONTINUOUS
 62
     7
  5
435
 10
907116.154
 20
7274133.357
 30
0.0
 40
8.0
  1
361.62'
 50
88.2152
  7
ROMANS
 72
     4
 11
907112.944952
 21
7274158.802292
 31
0.0
210
0.0
220
0.0
230
1.0
  0
TEXT
  8
-11
  6
CONTINUOUS
 62
     7
  5
436
 10
907037.103
 20
7274411.909
 30
0.0
 40
8.0
  1
168'
 50
88.2152
  7
ROMANS
 72
     4
 11
907033.520205
 21
7274425.360114
 31
0.0
210
0.0
220
0.0
230
1.0
  0
TEXT
  8
-15
  6
CONTINUOUS
 62
    30
  5
437
 10
906945.818
 20
7274266.908
 30
0.0
 40
40.5
  1
J.A.M.
 50
358.1523
  7
ROMANC
 72
     4
 11
907037.625499
 21
7274284.206858
 31
0.0
210
0.0
220
0.0
230
1.0
  0
TEXT
  8
-15
  6
CONTINUOUS
 62
    30
  5
438
 10
906951.266
 20
7274053.505
 30
0.0
 40
40.5
  1
ADD.
 50
358.1523
  7
ROMANC
 72
     4
 11
907024.427199
 21
7274071.405381
 31
0.0
210
0.0
220
0.0
230
1.0
  0
LINE
  8
-6
  6
CONTINUOUS
 62
     7
  5
439
 10
910421.534
 20
7273233.837
 30
0.0
 11
910149.676
 21
7273242.608
 31
0.0
  0
LINE
  8
-6
  6
CONTINUOUS
 62
     7
  5
43A
 10
910406.058
 20
7273219.33
 30
0.0
 11
910399.48
 21
7273015.435
 31
0.0
  0
LINE
  8
-6
  6
CONTINUOUS
 62
     7
  5
43B
 10
910414.473
 20
7273014.952
 30
0.0
 11
910284.54
 21
7273019.144
 31
0.0
  0
LINE
  8
-6
  6
CONTINUOUS
 62
     7
  5
43C
 10
910284.54
 20
7273019.144
 30
0.0
 11
910284.669
 21
7273023.142
 31
0.0
  0
LINE
  8
-6
  6
CONTINUOUS
 62
     7
  5
43D
 10
910284.669
 20
7273023.142
 30
0.0
 11
910127.751
 21
7273028.204
 31
0.0
  0
LINE
  8
-6
  6
CONTINUOUS
 62
     7
  5
43E
 10
910127.751
 20
7273028.204
 30
0.0
 11
910134.199
 21
7273228.1
 31
0.0
  0
ARC
  8
-6
  6
CONTINUOUS
 62
     7
  5
43F
 10
910149.191371
 20
7273227.615715
 30
0.0
 40
15.0
 50
88.1523
 51
178.1523
210
0.0
220
0.0
230
1.0
  0
ARC
  8
-6
  6
CONTINUOUS
 62
     7
  5
440
 10
910391.065546
 20
7273219.812943
 30
0.0
 40
15.0
 50
358.1523
 51
88.1523
210
0.0
220
0.0
230
1.0
  0
LINE
  8
-6
  6
CONTINUOUS
 62
     7
  5
441
 10
910422.5
 20
7273263.822
 30
0.0
 11
909632.912
 21
7273289.294
 31
0.0
  0
LINE
  8
-6
  6
CONTINUOUS
 62
     7
  5
442
 10
909631.944
 20
7273259.31
 30
0.0
 11
910149.676
 21
7273242.608
 31
0.0
  0
LINE
  8
-6
  6
CONTINUOUS
 62
     7
  5
443
 10
910377.2
 20
7271859.553
 30
0.0
 11
910414.473
 21
7273014.952
 31
0.0
  0
LINE
  8
-6
  6
CONTINUOUS
 62
     7
  5
444
 10
910421.534
 20
7273233.837
 30
0.0
 11
910459.225
 21
7274402.229
 31
0.0
  0
LINE
  8
-6
  6
CONTINUOUS
 62
     7
  5
445
 10
910396.876
 20
7272469.486
 30
0.0
 11
909607.286
 21
7272494.958
 31
0.0
  0
LINE
  8
-6
  6
CONTINUOUS
 62
     7
  5
446
 10
909606.577
 20
7272472.969
 30
0.0
 11
910396.166
 21
7272447.497
 31
0.0
  0
LINE
  8
-6
  6
CONTINUOUS
 62
     7
  5
447
 10
909871.82
 20
7273251.572
 30
0.0
 11
909847.162
 21
7272487.22
 31
0.0
  0
LINE
  8
-6
  6
CONTINUOUS
 62
     7
  5
448
 10
909911.799
 20
7273250.282
 30
0.0
 11
909887.142
 21
7272485.93
 31
0.0
  0
LINE
  8
-6
  6
CONTINUOUS
 62
     7
  5
449
 10
909741.888
 20
7273255.762
 30
0.0
 11
909717.23
 21
7272491.411
 31
0.0
  0
LINE
  8
-6
  6
CONTINUOUS
 62
     7
  5
44A
 10
909721.897
 20
7273256.408
 30
0.0
 11
909697.24
 21
7272492.055
 31
0.0
  0
LINE
  8
-6
  6
CONTINUOUS
 62
     7
  5
44B
 10
910106.698
 20
7273243.994
 30
0.0
 11
910082.04
 21
7272479.641
 31
0.0
  0
LINE
  8
-6
  6
CONTINUOUS
 62
     7
  5
44C
 10
910086.708
 20
7273244.639
 30
0.0
 11
910062.05
 21
7272480.286
 31
0.0
  0
TEXT
  8
-11
  6
CONTINUOUS
 62
     7
  5
44D
 10
909947.419
 20
7273280.222
 30
0.0
 40
8.0
  1
800'
 50
358.2152
  7
ROMANS
 72
     1
 11
909960.745532
 21
7273279.806736
 31
0.0
210
0.0
220
0.0
230
1.0
  0
TEXT
  8
-11
  6
CONTINUOUS
 62
     7
  5
44E
 10
909619.046
 20
7273263.526
 30
0.0
 40
8.0
  1
30'
 50
88.2152
  7
ROMANS
 72
     1
 11
909611.340563
 21
7273273.103637
 31
0.0
210
0.0
220
0.0
230
1.0
 73
     3
  0
TEXT
  8
-11
  6
CONTINUOUS
 62
     7
  5
44F
 10
909680.658
 20
7272830.879
 30
0.0
 40
8.0
  1
764.75'
 50
88.2152
  7
ROMANS
 72
     1
 11
909673.450893
 21
7272856.448875
 31
0.0
210
0.0
220
0.0
230
1.0
 73
     3
  0
TEXT
  8
-11
  6
CONTINUOUS
 62
     7
  5
450
 10
909718.141
 20
7272828.748
 30
0.0
 40
8.0
  1
764.75'
 50
88.2152
  7
ROMANS
 72
     1
 11
909710.933893
 21
7272854.317875
 31
0.0
210
0.0
220
0.0
230
1.0
 73
     3
  0
TEXT
  8
-11
  6
CONTINUOUS
 62
     7
  5
451
 10
909830.711
 20
7272826.203
 30
0.0
 40
8.0
  1
764.75'
 50
88.2152
  7
ROMANS
 72
     1
 11
909823.503893
 21
7272851.772875
 31
0.0
210
0.0
220
0.0
230
1.0
 73
     3
  0
TEXT
  8
-11
  6
CONTINUOUS
 62
     7
  5
452
 10
909888.364
 20
7272822.48
 30
0.0
 40
8.0
  1
764.75'
 50
88.2152
  7
ROMANS
 72
     1
 11
909881.156893
 21
7272848.049875
 31
0.0
210
0.0
220
0.0
230
1.0
 73
     3
  0
TEXT
  8
-11
  6
CONTINUOUS
 62
     7
  5
453
 10
910044.91
 20
7272809.897
 30
0.0
 40
8.0
  1
764.75'
 50
88.2152
  7
ROMANS
 72
     1
 11
910037.702893
 21
7272835.466875
 31
0.0
210
0.0
220
0.0
230
1.0
 73
     3
  0
TEXT
  8
-11
  6
CONTINUOUS
 62
     7
  5
454
 10
910083.476
 20
7272811.584
 30
0.0
 40
8.0
  1
764.75'
 50
88.2152
  7
ROMANS
 72
     1
 11
910076.268893
 21
7272837.153875
 31
0.0
210
0.0
220
0.0
230
1.0
 73
     3
  0
TEXT
  8
-11
  6
CONTINUOUS
 62
     7
  5
455
 10
909946.541
 20
7272449.096
 30
0.0
 40
8.0
  1
800'
 50
358.2152
  7
ROMANS
 72
     1
 11
909960.116696
 21
7272456.676855
 31
0.0
210
0.0
220
0.0
230
1.0
 73
     3
  0
TEXT
  8
-11
  6
CONTINUOUS
 62
     7
  5
456
 10
909597.301
 20
7272472.96
 30
0.0
 40
8.0
  1
22'
 50
88.2152
  7
ROMANS
 72
     1
 11
909589.595563
 21
7272482.537637
 31
0.0
210
0.0
220
0.0
230
1.0
 73
     3
  0
TEXT
  8
-11
  6
CONTINUOUS
 62
     7
  5
457
 10
910367.79
 20
7272449.915
 30
0.0
 40
8.0
  1
22'
 50
88.2152
  7
ROMANS
 72
     1
 11
910360.084563
 21
7272459.492637
 31
0.0
210
0.0
220
0.0
230
1.0
 73
     3
  0
TEXT
  8
-11
  6
CONTINUOUS
 62
     7
  5
458
 10
909674.607
 20
7272493.588
 30
0.0
 40
8.0
  1
20'
 50
358.2152
  7
ROMANS
 72
     1
 11
909683.935472
 21
7272493.297318
 31
0.0
210
0.0
220
0.0
230
1.0
  0
TEXT
  8
-11
  6
CONTINUOUS
 62
     7
  5
459
 10
910040.122
 20
7272482.198
 30
0.0
 40
8.0
  1
20'
 50
358.2152
  7
ROMANS
 72
     1
 11
910049.450472
 21
7272481.907318
 31
0.0
210
0.0
220
0.0
230
1.0
  0
TEXT
  8
-11
  6
CONTINUOUS
 62
     7
  5
45A
 10
909833.317
 20
7272488.642
 30
0.0
 40
8.0
  1
40'
 50
358.2152
  7
ROMANS
 72
     1
 11
909842.645472
 21
7272488.351318
 31
0.0
210
0.0
220
0.0
230
1.0
  0
TEXT
  8
-11
  6
CONTINUOUS
 62
     7
  5
45B
 10
909859.482
 20
7273235.758
 30
0.0
 40
8.0
  1
40'
 50
358.2152
  7
ROMANS
 72
     1
 11
909868.810472
 21
7273235.467318
 31
0.0
210
0.0
220
0.0
230
1.0
  0
TEXT
  8
-11
  6
CONTINUOUS
 62
     7
  5
45C
 10
910066.316
 20
7273230.127
 30
0.0
 40
8.0
  1
20'
 50
358.2152
  7
ROMANS
 72
     1
 11
910075.644472
 21
7273229.836318
 31
0.0
210
0.0
220
0.0
230
1.0
  0
TEXT
  8
-11
  6
CONTINUOUS
 62
     7
  5
45D
 10
909701.643
 20
7273237.637
 30
0.0
 40
8.0
  1
20'
 50
358.2152
  7
ROMANS
 72
     1
 11
909710.971472
 21
7273237.346318
 31
0.0
210
0.0
220
0.0
230
1.0
  0
TEXT
  8
-11
  6
CONTINUOUS
 62
     7
  5
45E
 10
910391.46
 20
7273240.42
 30
0.0
 40
8.0
  1
30'
 50
88.2152
  7
ROMANS
 72
     1
 11
910383.754563
 21
7273249.997637
 31
0.0
210
0.0
220
0.0
230
1.0
 73
     3
  0
TEXT
  8
-11
  6
CONTINUOUS
 62
     7
  5
45F
 10
910324.922
 20
7273005.331
 30
0.0
 40
8.0
  1
140'
 50
358.2152
  7
ROMANS
 72
     1
 11
910338.497696
 21
7273012.911855
 31
0.0
210
0.0
220
0.0
230
1.0
 73
     3
  0
TEXT
  8
-11
  6
CONTINUOUS
 62
     7
  5
460
 10
910309.006
 20
7273019.834
 30
0.0
 40
8.0
  1
115'
 50
358.2152
  7
ROMANS
 72
     1
 11
910322.332532
 21
7273019.418736
 31
0.0
210
0.0
220
0.0
230
1.0
  0
TEXT
  8
-11
  6
CONTINUOUS
 62
     7
  5
461
 10
910169.658
 20
7273028.178
 30
0.0
 40
8.0
  1
157'
 50
358.2152
  7
ROMANS
 72
     1
 11
910182.984532
 21
7273027.762736
 31
0.0
210
0.0
220
0.0
230
1.0
  0
TEXT
  8
-11
  6
CONTINUOUS
 62
     7
  5
462
 10
910230.746
 20
7273227.372
 30
0.0
 40
8.0
  1
242'
 50
358.2152
  7
ROMANS
 72
     1
 11
910244.321696
 21
7273234.952855
 31
0.0
210
0.0
220
0.0
230
1.0
 73
     3
  0
TEXT
  8
-11
  6
CONTINUOUS
 62
     7
  5
463
 10
910118.0
 20
7273113.928
 30
0.0
 40
8.0
  1
200'
 50
88.2152
  7
ROMANS
 72
     1
 11
910110.419145
 21
7273127.503696
 31
0.0
210
0.0
220
0.0
230
1.0
 73
     3
  0
TEXT
  8
-11
  6
CONTINUOUS
 62
     7
  5
464
 10
910374.695
 20
7273111.708
 30
0.0
 40
8.0
  1
204'
 50
88.2152
  7
ROMANS
 72
     1
 11
910375.110264
 21
7273125.034532
 31
0.0
210
0.0
220
0.0
230
1.0
  0
TEXT
  8
-11
  6
CONTINUOUS
 62
     7
  5
465
 10
910400.857
 20
7273192.365
 30
0.0
 40
8.0
  1
55'
 50
358.2152
  7
ROMANS
 72
     4
 11
910410.310055
 21
7273196.072378
 31
0.0
210
0.0
220
0.0
230
1.0
  0
TEXT
  8
-11
  6
CONTINUOUS
 62
     7
  5
466
 10
910396.961
 20
7273036.448
 30
0.0
 40
8.0
  1
55'
 50
358.2152
  7
ROMANS
 72
     4
 11
910406.414055
 21
7273040.155378
 31
0.0
210
0.0
220
0.0
230
1.0
  0
TEXT
  8
-11
  6
CONTINUOUS
 62
     7
  5
467
 10
910401.115
 20
7272953.483
 30
0.0
 40
8.0
  1
40'
 50
358.2152
  7
ROMANS
 72
     4
 11
910410.568055
 21
7272957.190378
 31
0.0
210
0.0
220
0.0
230
1.0
  0
TEXT
  8
-11
  6
CONTINUOUS
 62
     7
  5
468
 10
910412.003
 20
7273271.964
 30
0.0
 40
8.0
  1
40'
 50
358.2152
  7
ROMANS
 72
     4
 11
910421.456055
 21
7273275.671378
 31
0.0
210
0.0
220
0.0
230
1.0
  0
TEXT
  8
-15
  6
CONTINUOUS
 62
    30
  5
469
 10
910196.843
 20
7273057.851
 30
0.0
 40
25.0
  1
 THERESA
 50
33.1523
  7
ROMANC
 72
     4
 11
910278.585871
 21
7273126.175261
 31
0.0
210
0.0
220
0.0
230
1.0
  0
TEXT
  8
-15
  6
CONTINUOUS
 62
    30
  5
46A
 10
910212.794
 20
7273157.211
 30
0.0
 40
25.0
  1
ST.
 50
33.1523
  7
ROMANC
 72
     4
 11
910228.618363
 21
7273182.477735
 31
0.0
210
0.0
220
0.0
230
1.0
  0
TEXT
  8
-15
  6
CONTINUOUS
 62
    30
  5
46B
 10
910305.659
 20
7273037.552
 30
0.0
 40
25.0
  1
ADD.
 50
33.1523
  7
ROMANC
 72
     4
 11
910336.315551
 21
7273072.50702
 31
0.0
210
0.0
220
0.0
230
1.0
  0
TEXT
  8
-10
  6
CONTINUOUS
 62
   134
  5
46C
 10
910162.586
 20
7273126.444
 30
0.0
 40
13.999
  1
TRACT     A
 50
358.2152
  7
ROMANS
 72
     4
 11
910237.428798
 21
7273131.115242
 31
0.0
210
0.0
220
0.0
230
1.0
  0
LINE
  8
-6
  6
CONTINUOUS
 62
     7
  5
46D
 10
909605.674
 20
7272444.983
 30
0.0
 11
910380.271
 21
7272419.995
 31
0.0
  0
TEXT
  8
-11
  6
CONTINUOUS
 62
     7
  5
46E
 10
910350.707
 20
7272427.434
 30
0.0
 40
8.0
  1
28'
 50
88.2152
  7
ROMANS
 72
     1
 11
910343.001563
 21
7272437.011637
 31
0.0
210
0.0
220
0.0
230
1.0
 73
     3
  0
TEXT
  8
-11
  6
CONTINUOUS
 62
     7
  5
46F
 10
909597.059
 20
7272448.041
 30
0.0
 40
8.0
  1
28'
 50
88.2152
  7
ROMANS
 72
     1
 11
909589.353563
 21
7272457.618637
 31
0.0
210
0.0
220
0.0
230
1.0
 73
     3
  0
TEXT
  8
-11
  6
CONTINUOUS
 62
     7
  5
470
 10
909950.435
 20
7272420.193
 30
0.0
 40
8.0
  1
775'
 50
358.2152
  7
ROMANS
 72
     1
 11
909964.010696
 21
7272427.773855
 31
0.0
210
0.0
220
0.0
230
1.0
 73
     3
  0
TEXT
  8
-19
  6
CONTINUOUS
 62
     1
  5
471
 10
909591.988
 20
7272512.666
 30
0.0
 40
24.0
  1
URBANA PLACE
 50
88.1523
  7
ROMANC
210
0.0
220
0.0
230
1.0
  0
LINE
  8
-6
  6
CONTINUOUS
 62
     7
  5
472
 10
909575.038
 20
7273356.195
 30
0.0
 11
908575.558
 21
7273388.438
 31
0.0
  0
LINE
  8
-6
  6
CONTINUOUS
 62
     7
  5
473
 10
909574.232
 20
7273331.208
 30
0.0
 11
909424.31
 21
7273336.045
 31
0.0
  0
LINE
  8
-6
  6
CONTINUOUS
 62
     7
  5
474
 10
909558.288
 20
7272836.964
 30
0.0
 11
909408.367
 21
7272841.802
 31
0.0
  0
LINE
  8
-6
  6
CONTINUOUS
 62
     7
  5
475
 10
909556.677
 20
7272786.99
 30
0.0
 11
909406.754
 21
7272791.828
 31
0.0
  0
LINE
  8
-6
  6
CONTINUOUS
 62
     7
  5
476
 10
909540.732
 20
7272292.747
 30
0.0
 11
909390.811
 21
7272297.584
 31
0.0
  0
LINE
  8
-6
  6
CONTINUOUS
 62
     7
  5
477
 10
909390.811
 20
7272297.584
 30
0.0
 11
909394.034
 21
7272397.533
 31
0.0
  0
LINE
  8
-6
  6
CONTINUOUS
 62
     7
  5
478
 10
909394.034
 20
7272397.533
 30
0.0
 11
909397.259
 21
7272497.48
 31
0.0
  0
LINE
  8
-6
  6
CONTINUOUS
 62
     7
  5
479
 10
909397.259
 20
7272497.48
 30
0.0
 11
909400.483
 21
7272597.429
 31
0.0
  0
LINE
  8
-6
  6
CONTINUOUS
 62
     7
  5
47A
 10
909400.483
 20
7272597.429
 30
0.0
 11
909403.707
 21
7272697.377
 31
0.0
  0
LINE
  8
-6
  6
CONTINUOUS
 62
     7
  5
47B
 10
909403.707
 20
7272697.377
 30
0.0
 11
909406.754
 21
7272791.828
 31
0.0
  0
LINE
  8
-6
  6
CONTINUOUS
 62
     7
  5
47C
 10
909408.367
 20
7272841.802
 30
0.0
 11
909411.413
 21
7272936.252
 31
0.0
  0
LINE
  8
-6
  6
CONTINUOUS
 62
     7
  5
47D
 10
909411.413
 20
7272936.252
 30
0.0
 11
909414.637
 21
7273036.2
 31
0.0
  0
LINE
  8
-6
  6
CONTINUOUS
 62
     7
  5
47E
 10
909414.637
 20
7273036.2
 30
0.0
 11
909417.862
 21
7273136.148
 31
0.0
  0
LINE
  8
-6
  6
CONTINUOUS
 62
     7
  5
47F
 10
909417.862
 20
7273136.148
 30
0.0
 11
909421.087
 21
7273236.097
 31
0.0
  0
LINE
  8
-6
  6
CONTINUOUS
 62
     7
  5
480
 10
909421.087
 20
7273236.097
 30
0.0
 11
909424.31
 21
7273336.045
 31
0.0
  0
TEXT
  8
-10
  6
CONTINUOUS
 62
   134
  5
481
 10
909466.86
 20
7273276.269
 30
0.0
 40
13.999
  1
1
 50
358.2152
  7
ROMANS
 72
     4
 11
909469.409887
 21
7273283.192941
 31
0.0
210
0.0
220
0.0
230
1.0
  0
TEXT
  8
-10
  6
CONTINUOUS
 62
   134
  5
482
 10
909462.94
 20
7273176.177
 30
0.0
 40
13.999
  1
2
 50
358.2152
  7
ROMANS
 72
     4
 11
909467.239038
 21
7273183.046437
 31
0.0
210
0.0
220
0.0
230
1.0
  0
TEXT
  8
-10
  6
CONTINUOUS
 62
   134
  5
483
 10
909458.828
 20
7273075.128
 30
0.0
 40
13.999
  1
3
 50
358.2152
  7
ROMANS
 72
     4
 11
909463.127038
 21
7273081.997437
 31
0.0
210
0.0
220
0.0
230
1.0
  0
TEXT
  8
-10
  6
CONTINUOUS
 62
   134
  5
484
 10
909457.812
 20
7272980.728
 30
0.0
 40
13.999
  1
4
 50
358.2152
  7
ROMANS
 72
     4
 11
909462.111038
 21
7272987.597437
 31
0.0
210
0.0
220
0.0
230
1.0
  0
TEXT
  8
-10
  6
CONTINUOUS
 62
   134
  5
485
 10
909454.782
 20
7272883.499
 30
0.0
 40
13.999
  1
5
 50
358.2152
  7
ROMANS
 72
     4
 11
909459.09903
 21
7272890.367876
 31
0.0
210
0.0
220
0.0
230
1.0
  0
TEXT
  8
-10
  6
CONTINUOUS
 62
   134
  5
486
 10
909449.924
 20
7272734.037
 30
0.0
 40
13.999
  1
1
 50
358.2152
  7
ROMANS
 72
     4
 11
909452.473887
 21
7272740.960941
 31
0.0
210
0.0
220
0.0
230
1.0
  0
TEXT
  8
-10
  6
CONTINUOUS
 62
   134
  5
487
 10
909445.131
 20
7272636.863
 30
0.0
 40
13.999
  1
2
 50
358.2152
  7
ROMANS
 72
     4
 11
909449.430038
 21
7272643.732437
 31
0.0
210
0.0
220
0.0
230
1.0
  0
TEXT
  8
-10
  6
CONTINUOUS
 62
   134
  5
488
 10
909443.003
 20
7272537.68
 30
0.0
 40
13.999
  1
3
 50
358.2152
  7
ROMANS
 72
     4
 11
909447.302038
 21
7272544.549437
 31
0.0
210
0.0
220
0.0
230
1.0
  0
TEXT
  8
-10
  6
CONTINUOUS
 62
   134
  5
489
 10
909442.8
 20
7272438.437
 30
0.0
 40
13.999
  1
4
 50
358.2152
  7
ROMANS
 72
     4
 11
909447.099038
 21
7272445.306437
 31
0.0
210
0.0
220
0.0
230
1.0
  0
TEXT
  8
-10
  6
CONTINUOUS
 62
   134
  5
48A
 10
909436.777
 20
7272337.871
 30
0.0
 40
13.999
  1
5
 50
358.2152
  7
ROMANS
 72
     4
 11
909441.09403
 21
7272344.739876
 31
0.0
210
0.0
220
0.0
230
1.0
  0
LINE
  8
-6
  6
CONTINUOUS
 62
     7
  5
48B
 10
909550.406
 20
7272592.593
 30
0.0
 11
909400.483
 21
7272597.429
 31
0.0
  0
LINE
  8
-6
  6
CONTINUOUS
 62
     7
  5
48C
 10
909547.18
 20
7272492.644
 30
0.0
 11
909397.259
 21
7272497.48
 31
0.0
  0
LINE
  8
-6
  6
CONTINUOUS
 62
     7
  5
48D
 10
909543.957
 20
7272392.696
 30
0.0
 11
909394.034
 21
7272397.533
 31
0.0
  0
LINE
  8
-6
  6
CONTINUOUS
 62
     7
  5
48E
 10
909553.629
 20
7272692.54
 30
0.0
 11
909403.707
 21
7272697.377
 31
0.0
  0
LINE
  8
-6
  6
CONTINUOUS
 62
     7
  5
48F
 10
909571.008
 20
7273231.26
 30
0.0
 11
909421.087
 21
7273236.097
 31
0.0
  0
LINE
  8
-6
  6
CONTINUOUS
 62
     7
  5
490
 10
909567.784
 20
7273131.312
 30
0.0
 11
909417.862
 21
7273136.148
 31
0.0
  0
LINE
  8
-6
  6
CONTINUOUS
 62
     7
  5
491
 10
909564.561
 20
7273031.364
 30
0.0
 11
909414.637
 21
7273036.2
 31
0.0
  0
LINE
  8
-6
  6
CONTINUOUS
 62
     7
  5
492
 10
909561.335
 20
7272931.415
 30
0.0
 11
909411.413
 21
7272936.252
 31
0.0
  0
LINE
  8
-6
  6
CONTINUOUS
 62
     7
  5
493
 10
909386.764
 20
7272792.472
 30
0.0
 11
909236.843
 21
7272797.309
 31
0.0
  0
LINE
  8
-6
  6
CONTINUOUS
 62
     7
  5
494
 10
909370.82
 20
7272298.229
 30
0.0
 11
909220.898
 21
7272303.065
 31
0.0
  0
LINE
  8
-6
  6
CONTINUOUS
 62
     7
  5
495
 10
909220.898
 20
7272303.065
 30
0.0
 11
909224.123
 21
7272403.013
 31
0.0
  0
LINE
  8
-6
  6
CONTINUOUS
 62
     7
  5
496
 10
909224.123
 20
7272403.013
 30
0.0
 11
909227.346
 21
7272502.962
 31
0.0
  0
LINE
  8
-6
  6
CONTINUOUS
 62
     7
  5
497
 10
909227.346
 20
7272502.962
 30
0.0
 11
909230.572
 21
7272602.91
 31
0.0
  0
LINE
  8
-6
  6
CONTINUOUS
 62
     7
  5
498
 10
909230.572
 20
7272602.91
 30
0.0
 11
909233.796
 21
7272702.858
 31
0.0
  0
LINE
  8
-6
  6
CONTINUOUS
 62
     7
  5
499
 10
909233.796
 20
7272702.858
 30
0.0
 11
909236.843
 21
7272797.309
 31
0.0
  0
LINE
  8
-6
  6
CONTINUOUS
 62
     7
  5
49A
 10
909380.493
 20
7272598.074
 30
0.0
 11
909230.572
 21
7272602.91
 31
0.0
  0
LINE
  8
-6
  6
CONTINUOUS
 62
     7
  5
49B
 10
909377.27
 20
7272498.125
 30
0.0
 11
909227.346
 21
7272502.962
 31
0.0
  0
LINE
  8
-6
  6
CONTINUOUS
 62
     7
  5
49C
 10
909374.045
 20
7272398.178
 30
0.0
 11
909224.123
 21
7272403.013
 31
0.0
  0
LINE
  8
-6
  6
CONTINUOUS
 62
     7
  5
49D
 10
909383.718
 20
7272698.022
 30
0.0
 11
909233.796
 21
7272702.858
 31
0.0
  0
LINE
  8
-6
  6
CONTINUOUS
 62
     7
  5
49E
 10
909386.764
 20
7272792.472
 30
0.0
 11
909383.718
 21
7272698.022
 31
0.0
  0
LINE
  8
-6
  6
CONTINUOUS
 62
     7
  5
49F
 10
909383.718
 20
7272698.022
 30
0.0
 11
909380.493
 21
7272598.074
 31
0.0
  0
LINE
  8
-6
  6
CONTINUOUS
 62
     7
  5
4A0
 10
909380.493
 20
7272598.074
 30
0.0
 11
909377.27
 21
7272498.125
 31
0.0
  0
LINE
  8
-6
  6
CONTINUOUS
 62
     7
  5
4A1
 10
909377.27
 20
7272498.125
 30
0.0
 11
909374.045
 21
7272398.178
 31
0.0
  0
LINE
  8
-6
  6
CONTINUOUS
 62
     7
  5
4A2
 10
909374.045
 20
7272398.178
 30
0.0
 11
909370.82
 21
7272298.229
 31
0.0
  0
LINE
  8
-6
  6
CONTINUOUS
 62
     7
  5
4A3
 10
909404.322
 20
7273336.69
 30
0.0
 11
909254.4
 21
7273341.526
 31
0.0
  0
LINE
  8
-6
  6
CONTINUOUS
 62
     7
  5
4A4
 10
909388.376
 20
7272842.446
 30
0.0
 11
909238.454
 21
7272847.283
 31
0.0
  0
LINE
  8
-6
  6
CONTINUOUS
 62
     7
  5
4A5
 10
909238.454
 20
7272847.283
 30
0.0
 11
909241.501
 21
7272941.733
 31
0.0
  0
LINE
  8
-6
  6
CONTINUOUS
 62
     7
  5
4A6
 10
909241.501
 20
7272941.733
 30
0.0
 11
909244.727
 21
7273041.681
 31
0.0
  0
LINE
  8
-6
  6
CONTINUOUS
 62
     7
  5
4A7
 10
909244.727
 20
7273041.681
 30
0.0
 11
909247.95
 21
7273141.63
 31
0.0
  0
LINE
  8
-6
  6
CONTINUOUS
 62
     7
  5
4A8
 10
909247.95
 20
7273141.63
 30
0.0
 11
909251.174
 21
7273241.577
 31
0.0
  0
LINE
  8
-6
  6
CONTINUOUS
 62
     7
  5
4A9
 10
909251.174
 20
7273241.577
 30
0.0
 11
909254.4
 21
7273341.526
 31
0.0
  0
LINE
  8
-6
  6
CONTINUOUS
 62
     7
  5
4AA
 10
909401.096
 20
7273236.742
 30
0.0
 11
909251.174
 21
7273241.577
 31
0.0
  0
LINE
  8
-6
  6
CONTINUOUS
 62
     7
  5
4AB
 10
909397.873
 20
7273136.793
 30
0.0
 11
909247.95
 21
7273141.63
 31
0.0
  0
LINE
  8
-6
  6
CONTINUOUS
 62
     7
  5
4AC
 10
909394.648
 20
7273036.845
 30
0.0
 11
909244.727
 21
7273041.681
 31
0.0
  0
LINE
  8
-6
  6
CONTINUOUS
 62
     7
  5
4AD
 10
909391.424
 20
7272936.897
 30
0.0
 11
909241.501
 21
7272941.733
 31
0.0
  0
LINE
  8
-6
  6
CONTINUOUS
 62
     7
  5
4AE
 10
909204.425
 20
7273343.137
 30
0.0
 11
909054.503
 21
7273347.975
 31
0.0
  0
LINE
  8
-6
  6
CONTINUOUS
 62
     7
  5
4AF
 10
909188.481
 20
7272848.895
 30
0.0
 11
909038.559
 21
7272853.731
 31
0.0
  0
LINE
  8
-6
  6
CONTINUOUS
 62
     7
  5
4B0
 10
909038.559
 20
7272853.731
 30
0.0
 11
909041.605
 21
7272948.182
 31
0.0
  0
LINE
  8
-6
  6
CONTINUOUS
 62
     7
  5
4B1
 10
909041.605
 20
7272948.182
 30
0.0
 11
909044.83
 21
7273048.13
 31
0.0
  0
LINE
  8
-6
  6
CONTINUOUS
 62
     7
  5
4B2
 10
909044.83
 20
7273048.13
 30
0.0
 11
909048.054
 21
7273148.078
 31
0.0
  0
LINE
  8
-6
  6
CONTINUOUS
 62
     7
  5
4B3
 10
909048.054
 20
7273148.078
 30
0.0
 11
909051.279
 21
7273248.027
 31
0.0
  0
LINE
  8
-6
  6
CONTINUOUS
 62
     7
  5
4B4
 10
909051.279
 20
7273248.027
 30
0.0
 11
909054.503
 21
7273347.975
 31
0.0
  0
TEXT
  8
-10
  6
CONTINUOUS
 62
   134
  5
4B5
 10
909097.04
 20
7273287.792
 30
0.0
 40
13.999
  1
1
 50
358.2152
  7
ROMANS
 72
     4
 11
909099.589887
 21
7273294.715941
 31
0.0
210
0.0
220
0.0
230
1.0
  0
TEXT
  8
-10
  6
CONTINUOUS
 62
   134
  5
4B6
 10
909093.12
 20
7273187.701
 30
0.0
 40
13.999
  1
2
 50
358.2152
  7
ROMANS
 72
     4
 11
909097.419038
 21
7273194.570437
 31
0.0
210
0.0
220
0.0
230
1.0
  0
TEXT
  8
-10
  6
CONTINUOUS
 62
   134
  5
4B7
 10
909089.007
 20
7273086.652
 30
0.0
 40
13.999
  1
3
 50
358.2152
  7
ROMANS
 72
     4
 11
909093.306038
 21
7273093.521437
 31
0.0
210
0.0
220
0.0
230
1.0
  0
TEXT
  8
-10
  6
CONTINUOUS
 62
   134
  5
4B8
 10
909087.992
 20
7272992.252
 30
0.0
 40
13.999
  1
4
 50
358.2152
  7
ROMANS
 72
     4
 11
909092.291038
 21
7272999.121437
 31
0.0
210
0.0
220
0.0
230
1.0
  0
TEXT
  8
-10
  6
CONTINUOUS
 62
   134
  5
4B9
 10
909084.962
 20
7272895.023
 30
0.0
 40
13.999
  1
5
 50
358.2152
  7
ROMANS
 72
     4
 11
909089.27903
 21
7272901.891876
 31
0.0
210
0.0
220
0.0
230
1.0
  0
LINE
  8
-6
  6
CONTINUOUS
 62
     7
  5
4BA
 10
909201.2
 20
7273243.19
 30
0.0
 11
909051.279
 21
7273248.027
 31
0.0
  0
LINE
  8
-6
  6
CONTINUOUS
 62
     7
  5
4BB
 10
909197.977
 20
7273143.242
 30
0.0
 11
909048.054
 21
7273148.078
 31
0.0
  0
LINE
  8
-6
  6
CONTINUOUS
 62
     7
  5
4BC
 10
909194.752
 20
7273043.294
 30
0.0
 11
909044.83
 21
7273048.13
 31
0.0
  0
LINE
  8
-6
  6
CONTINUOUS
 62
     7
  5
4BD
 10
909191.528
 20
7272943.345
 30
0.0
 11
909041.605
 21
7272948.182
 31
0.0
  0
LINE
  8
-6
  6
CONTINUOUS
 62
     7
  5
4BE
 10
909404.322
 20
7273336.69
 30
0.0
 11
909401.096
 21
7273236.742
 31
0.0
  0
LINE
  8
-6
  6
CONTINUOUS
 62
     7
  5
4BF
 10
909401.096
 20
7273236.742
 30
0.0
 11
909397.873
 21
7273136.793
 31
0.0
  0
LINE
  8
-6
  6
CONTINUOUS
 62
     7
  5
4C0
 10
909397.873
 20
7273136.793
 30
0.0
 11
909394.648
 21
7273036.845
 31
0.0
  0
LINE
  8
-6
  6
CONTINUOUS
 62
     7
  5
4C1
 10
909391.424
 20
7272936.897
 30
0.0
 11
909388.376
 21
7272842.446
 31
0.0
  0
LINE
  8
-6
  6
CONTINUOUS
 62
     7
  5
4C2
 10
909394.648
 20
7273036.845
 30
0.0
 11
909391.424
 21
7272936.897
 31
0.0
  0
LINE
  8
-6
  6
CONTINUOUS
 62
     7
  5
4C3
 10
909204.425
 20
7273343.137
 30
0.0
 11
909201.2
 21
7273243.19
 31
0.0
  0
LINE
  8
-6
  6
CONTINUOUS
 62
     7
  5
4C4
 10
909201.2
 20
7273243.19
 30
0.0
 11
909197.977
 21
7273143.242
 31
0.0
  0
LINE
  8
-6
  6
CONTINUOUS
 62
     7
  5
4C5
 10
909197.977
 20
7273143.242
 30
0.0
 11
909194.752
 21
7273043.294
 31
0.0
  0
LINE
  8
-6
  6
CONTINUOUS
 62
     7
  5
4C6
 10
909194.752
 20
7273043.294
 30
0.0
 11
909191.528
 21
7272943.345
 31
0.0
  0
LINE
  8
-6
  6
CONTINUOUS
 62
     7
  5
4C7
 10
909191.528
 20
7272943.345
 30
0.0
 11
909188.481
 21
7272848.895
 31
0.0
  0
LINE
  8
-6
  6
CONTINUOUS
 62
     7
  5
4C8
 10
909186.869
 20
7272798.92
 30
0.0
 11
909036.947
 21
7272803.757
 31
0.0
  0
LINE
  8
-6
  6
CONTINUOUS
 62
     7
  5
4C9
 10
909170.926
 20
7272304.678
 30
0.0
 11
909021.002
 21
7272309.514
 31
0.0
  0
LINE
  8
-6
  6
CONTINUOUS
 62
     7
  5
4CA
 10
909021.002
 20
7272309.514
 30
0.0
 11
909024.227
 21
7272409.463
 31
0.0
  0
LINE
  8
-6
  6
CONTINUOUS
 62
     7
  5
4CB
 10
909024.227
 20
7272409.463
 30
0.0
 11
909027.451
 21
7272509.41
 31
0.0
  0
LINE
  8
-6
  6
CONTINUOUS
 62
     7
  5
4CC
 10
909027.451
 20
7272509.41
 30
0.0
 11
909030.675
 21
7272609.359
 31
0.0
  0
LINE
  8
-6
  6
CONTINUOUS
 62
     7
  5
4CD
 10
909030.675
 20
7272609.359
 30
0.0
 11
909033.901
 21
7272709.307
 31
0.0
  0
LINE
  8
-6
  6
CONTINUOUS
 62
     7
  5
4CE
 10
909033.901
 20
7272709.307
 30
0.0
 11
909036.947
 21
7272803.757
 31
0.0
  0
TEXT
  8
-10
  6
CONTINUOUS
 62
   134
  5
4CF
 10
909080.104
 20
7272745.561
 30
0.0
 40
13.999
  1
1
 50
358.2152
  7
ROMANS
 72
     4
 11
909082.653887
 21
7272752.484941
 31
0.0
210
0.0
220
0.0
230
1.0
  0
TEXT
  8
-10
  6
CONTINUOUS
 62
   134
  5
4D0
 10
909075.311
 20
7272648.387
 30
0.0
 40
13.999
  1
2
 50
358.2152
  7
ROMANS
 72
     4
 11
909079.610038
 21
7272655.256437
 31
0.0
210
0.0
220
0.0
230
1.0
  0
TEXT
  8
-10
  6
CONTINUOUS
 62
   134
  5
4D1
 10
909073.183
 20
7272549.204
 30
0.0
 40
13.999
  1
3
 50
358.2152
  7
ROMANS
 72
     4
 11
909077.482038
 21
7272556.073437
 31
0.0
210
0.0
220
0.0
230
1.0
  0
TEXT
  8
-10
  6
CONTINUOUS
 62
   134
  5
4D2
 10
909072.979
 20
7272449.96
 30
0.0
 40
13.999
  1
4
 50
358.2152
  7
ROMANS
 72
     4
 11
909077.278038
 21
7272456.829437
 31
0.0
210
0.0
220
0.0
230
1.0
  0
TEXT
  8
-10
  6
CONTINUOUS
 62
   134
  5
4D3
 10
909066.956
 20
7272349.395
 30
0.0
 40
13.999
  1
5
 50
358.2152
  7
ROMANS
 72
     4
 11
909071.27303
 21
7272356.263876
 31
0.0
210
0.0
220
0.0
230
1.0
  0
LINE
  8
-6
  6
CONTINUOUS
 62
     7
  5
4D4
 10
909180.597
 20
7272604.523
 30
0.0
 11
909030.675
 21
7272609.359
 31
0.0
  0
LINE
  8
-6
  6
CONTINUOUS
 62
     7
  5
4D5
 10
909177.373
 20
7272504.574
 30
0.0
 11
909027.451
 21
7272509.41
 31
0.0
  0
LINE
  8
-6
  6
CONTINUOUS
 62
     7
  5
4D6
 10
909174.149
 20
7272404.626
 30
0.0
 11
909024.227
 21
7272409.463
 31
0.0
  0
LINE
  8
-6
  6
CONTINUOUS
 62
     7
  5
4D7
 10
909183.822
 20
7272704.469
 30
0.0
 11
909033.901
 21
7272709.307
 31
0.0
  0
LINE
  8
-6
  6
CONTINUOUS
 62
     7
  5
4D8
 10
909186.869
 20
7272798.92
 30
0.0
 11
909183.822
 21
7272704.469
 31
0.0
  0
LINE
  8
-6
  6
CONTINUOUS
 62
     7
  5
4D9
 10
909183.822
 20
7272704.469
 30
0.0
 11
909180.597
 21
7272604.523
 31
0.0
  0
LINE
  8
-6
  6
CONTINUOUS
 62
     7
  5
4DA
 10
909180.597
 20
7272604.523
 30
0.0
 11
909177.373
 21
7272504.574
 31
0.0
  0
LINE
  8
-6
  6
CONTINUOUS
 62
     7
  5
4DB
 10
909177.373
 20
7272504.574
 30
0.0
 11
909174.149
 21
7272404.626
 31
0.0
  0
LINE
  8
-6
  6
CONTINUOUS
 62
     7
  5
4DC
 10
909174.149
 20
7272404.626
 30
0.0
 11
909170.926
 21
7272304.678
 31
0.0
  0
TEXT
  8
-10
  6
CONTINUOUS
 62
   134
  5
4DD
 10
909270.004
 20
7272344.032
 30
0.0
 40
13.999
  1
6
 50
358.2152
  7
ROMANS
 72
     4
 11
909274.630879
 21
7272350.891221
 31
0.0
210
0.0
220
0.0
230
1.0
  0
TEXT
  8
-10
  6
CONTINUOUS
 62
   134
  5
4DE
 10
909270.538
 20
7272443.265
 30
0.0
 40
13.999
  1
7
 50
358.2152
  7
ROMANS
 72
     4
 11
909274.837038
 21
7272450.134437
 31
0.0
210
0.0
220
0.0
230
1.0
  0
TEXT
  8
-10
  6
CONTINUOUS
 62
   134
  5
4DF
 10
909271.643
 20
7272540.553
 30
0.0
 40
13.999
  1
8
 50
358.2152
  7
ROMANS
 72
     4
 11
909275.942038
 21
7272547.422437
 31
0.0
210
0.0
220
0.0
230
1.0
  0
TEXT
  8
-10
  6
CONTINUOUS
 62
   134
  5
4E0
 10
909275.786
 20
7272642.564
 30
0.0
 40
13.999
  1
9
 50
358.2152
  7
ROMANS
 72
     4
 11
909280.085038
 21
7272649.433437
 31
0.0
210
0.0
220
0.0
230
1.0
  0
TEXT
  8
-10
  6
CONTINUOUS
 62
   134
  5
4E1
 10
909268.435
 20
7272740.117
 30
0.0
 40
13.999
  1
10
 50
358.2152
  7
ROMANS
 72
     4
 11
909280.286373
 21
7272746.7511
 31
0.0
210
0.0
220
0.0
230
1.0
  0
TEXT
  8
-10
  6
CONTINUOUS
 62
   134
  5
4E2
 10
909285.063
 20
7272887.824
 30
0.0
 40
13.999
  1
6
 50
358.2152
  7
ROMANS
 72
     4
 11
909289.689879
 21
7272894.683221
 31
0.0
210
0.0
220
0.0
230
1.0
  0
TEXT
  8
-10
  6
CONTINUOUS
 62
   134
  5
4E3
 10
909284.544
 20
7272984.199
 30
0.0
 40
13.999
  1
7
 50
358.2152
  7
ROMANS
 72
     4
 11
909288.843038
 21
7272991.068437
 31
0.0
210
0.0
220
0.0
230
1.0
  0
TEXT
  8
-10
  6
CONTINUOUS
 62
   134
  5
4E4
 10
909286.702
 20
7273084.346
 30
0.0
 40
13.999
  1
8
 50
358.2152
  7
ROMANS
 72
     4
 11
909291.001038
 21
7273091.215437
 31
0.0
210
0.0
220
0.0
230
1.0
  0
TEXT
  8
-10
  6
CONTINUOUS
 62
   134
  5
4E5
 10
909290.754
 20
7273183.47
 30
0.0
 40
13.999
  1
9
 50
358.2152
  7
ROMANS
 72
     4
 11
909295.053038
 21
7273190.339437
 31
0.0
210
0.0
220
0.0
230
1.0
  0
TEXT
  8
-10
  6
CONTINUOUS
 62
   134
  5
4E6
 10
909283.434
 20
7273281.984
 30
0.0
 40
13.999
  1
10
 50
358.2152
  7
ROMANS
 72
     4
 11
909295.285373
 21
7273288.6181
 31
0.0
210
0.0
220
0.0
230
1.0
  0
LINE
  8
-6
  6
CONTINUOUS
 62
     7
  5
4E7
 10
909018.569
 20
7272854.376
 30
0.0
 11
909034.513
 21
7273348.619
 31
0.0
  0
LINE
  8
-6
  6
CONTINUOUS
 62
     7
  5
4E8
 10
909001.013
 20
7272310.159
 30
0.0
 11
909016.957
 21
7272804.402
 31
0.0
  0
LINE
  8
-6
  6
CONTINUOUS
 62
     7
  5
4E9
 10
908541.252
 20
7272324.991
 30
0.0
 11
908557.197
 21
7272819.234
 31
0.0
  0
LINE
  8
-6
  6
CONTINUOUS
 62
     7
  5
4EA
 10
908558.808
 20
7272869.208
 30
0.0
 11
908574.752
 21
7273363.451
 31
0.0
  0
LINE
  8
-6
  6
CONTINUOUS
 62
     7
  5
4EB
 10
908574.752
 20
7273363.451
 30
0.0
 11
909034.513
 21
7273348.619
 31
0.0
  0
LINE
  8
-6
  6
CONTINUOUS
 62
     7
  5
4EC
 10
908558.808
 20
7272869.208
 30
0.0
 11
909018.569
 21
7272854.376
 31
0.0
  0
LINE
  8
-6
  6
CONTINUOUS
 62
     7
  5
4ED
 10
908557.197
 20
7272819.234
 30
0.0
 11
909016.957
 21
7272804.402
 31
0.0
  0
LINE
  8
-6
  6
CONTINUOUS
 62
     7
  5
4EE
 10
908541.252
 20
7272324.991
 30
0.0
 11
909001.013
 21
7272310.159
 31
0.0
  0
LINE
  8
-6
  6
CONTINUOUS
 62
     7
  5
4EF
 10
908574.752
 20
7273363.451
 30
0.0
 11
908575.558
 21
7273388.438
 31
0.0
  0
TEXT
  8
-11
  6
CONTINUOUS
 62
     7
  5
4F0
 10
909449.388
 20
7272841.021
 30
0.0
 40
8.0
  1
150'
 50
358.2152
  7
ROMANS
 72
     1
 11
909462.714532
 21
7272840.605736
 31
0.0
210
0.0
220
0.0
230
1.0
  0
TEXT
  8
-11
  6
CONTINUOUS
 62
     7
  5
4F1
 10
909449.455
 20
7272935.564
 30
0.0
 40
8.0
  1
150'
 50
358.2152
  7
ROMANS
 72
     1
 11
909462.781532
 21
7272935.148736
 31
0.0
210
0.0
220
0.0
230
1.0
  0
TEXT
  8
-11
  6
CONTINUOUS
 62
     7
  5
4F2
 10
909455.922
 20
7273235.509
 30
0.0
 40
8.0
  1
150'
 50
358.2152
  7
ROMANS
 72
     1
 11
909469.248532
 21
7273235.093736
 31
0.0
210
0.0
220
0.0
230
1.0
  0
TEXT
  8
-11
  6
CONTINUOUS
 62
     7
  5
4F3
 10
909287.167
 20
7273240.767
 30
0.0
 40
8.0
  1
150'
 50
358.2152
  7
ROMANS
 72
     1
 11
909300.493532
 21
7273240.351736
 31
0.0
210
0.0
220
0.0
230
1.0
  0
TEXT
  8
-11
  6
CONTINUOUS
 62
     7
  5
4F4
 10
909280.7
 20
7272940.823
 30
0.0
 40
8.0
  1
150'
 50
358.2152
  7
ROMANS
 72
     1
 11
909294.026532
 21
7272940.407736
 31
0.0
210
0.0
220
0.0
230
1.0
  0
TEXT
  8
-11
  6
CONTINUOUS
 62
     7
  5
4F5
 10
909276.798
 20
7272846.399
 30
0.0
 40
8.0
  1
150'
 50
358.2152
  7
ROMANS
 72
     1
 11
909290.124532
 21
7272845.983736
 31
0.0
210
0.0
220
0.0
230
1.0
  0
TEXT
  8
-11
  6
CONTINUOUS
 62
     7
  5
4F6
 10
909075.443
 20
7272852.673
 30
0.0
 40
8.0
  1
150'
 50
358.2152
  7
ROMANS
 72
     1
 11
909088.769532
 21
7272852.257736
 31
0.0
210
0.0
220
0.0
230
1.0
  0
TEXT
  8
-11
  6
CONTINUOUS
 62
     7
  5
4F7
 10
909073.593
 20
7272947.277
 30
0.0
 40
8.0
  1
150'
 50
358.2152
  7
ROMANS
 72
     1
 11
909086.919532
 21
7272946.861736
 31
0.0
210
0.0
220
0.0
230
1.0
  0
TEXT
  8
-11
  6
CONTINUOUS
 62
     7
  5
4F8
 10
909087.73
 20
7273246.982
 30
0.0
 40
8.0
  1
150'
 50
358.2152
  7
ROMANS
 72
     1
 11
909101.056532
 21
7273246.566736
 31
0.0
210
0.0
220
0.0
230
1.0
  0
TEXT
  8
-11
  6
CONTINUOUS
 62
     7
  5
4F9
 10
909071.928
 20
7272708.212
 30
0.0
 40
8.0
  1
150'
 50
358.2152
  7
ROMANS
 72
     1
 11
909085.254532
 21
7272707.796736
 31
0.0
210
0.0
220
0.0
230
1.0
  0
TEXT
  8
-11
  6
CONTINUOUS
 62
     7
  5
4FA
 10
909273.283
 20
7272701.938
 30
0.0
 40
8.0
  1
150'
 50
358.2152
  7
ROMANS
 72
     1
 11
909286.609532
 21
7272701.522736
 31
0.0
210
0.0
220
0.0
230
1.0
  0
TEXT
  8
-11
  6
CONTINUOUS
 62
     7
  5
4FB
 10
909447.79
 20
7272696.5
 30
0.0
 40
8.0
  1
150'
 50
358.2152
  7
ROMANS
 72
     1
 11
909461.116532
 21
7272696.084736
 31
0.0
210
0.0
220
0.0
230
1.0
  0
TEXT
  8
-11
  6
CONTINUOUS
 62
     7
  5
4FC
 10
909434.611
 20
7272396.765
 30
0.0
 40
8.0
  1
150'
 50
358.2152
  7
ROMANS
 72
     1
 11
909447.937532
 21
7272396.349736
 31
0.0
210
0.0
220
0.0
230
1.0
  0
TEXT
  8
-11
  6
CONTINUOUS
 62
     7
  5
4FD
 10
909260.104
 20
7272402.203
 30
0.0
 40
8.0
  1
150'
 50
358.2152
  7
ROMANS
 72
     1
 11
909273.430532
 21
7272401.787736
 31
0.0
210
0.0
220
0.0
230
1.0
  0
TEXT
  8
-11
  6
CONTINUOUS
 62
     7
  5
4FE
 10
909259.866
 20
7272302.162
 30
0.0
 40
8.0
  1
150'
 50
358.2152
  7
ROMANS
 72
     1
 11
909273.192532
 21
7272301.746736
 31
0.0
210
0.0
220
0.0
230
1.0
  0
TEXT
  8
-11
  6
CONTINUOUS
 62
     7
  5
4FF
 10
909442.043
 20
7272296.485
 30
0.0
 40
8.0
  1
150'
 50
358.2152
  7
ROMANS
 72
     1
 11
909455.369532
 21
7272296.069736
 31
0.0
210
0.0
220
0.0
230
1.0
  0
TEXT
  8
-11
  6
CONTINUOUS
 62
     7
  5
500
 10
909057.552
 20
7272308.466
 30
0.0
 40
8.0
  1
150'
 50
358.2152
  7
ROMANS
 72
     1
 11
909070.878532
 21
7272308.050736
 31
0.0
210
0.0
220
0.0
230
1.0
  0
TEXT
  8
-11
  6
CONTINUOUS
 62
     7
  5
501
 10
909056.831
 20
7272408.537
 30
0.0
 40
8.0
  1
150'
 50
358.2152
  7
ROMANS
 72
     1
 11
909070.157532
 21
7272408.121736
 31
0.0
210
0.0
220
0.0
230
1.0
  0
TEXT
  8
-11
  6
CONTINUOUS
 62
     7
  5
502
 10
909516.251
 20
7272328.671
 30
0.0
 40
8.0
  1
100'
 50
88.2152
  7
ROMANS
 72
     1
 11
909516.666264
 21
7272341.997532
 31
0.0
210
0.0
220
0.0
230
1.0
  0
TEXT
  8
-11
  6
CONTINUOUS
 62
     7
  5
503
 10
909519.509
 20
7272433.225
 30
0.0
 40
8.0
  1
100'
 50
88.2152
  7
ROMANS
 72
     1
 11
909519.924264
 21
7272446.551532
 31
0.0
210
0.0
220
0.0
230
1.0
  0
TEXT
  8
-11
  6
CONTINUOUS
 62
     7
  5
504
 10
909522.647
 20
7272533.943
 30
0.0
 40
8.0
  1
100'
 50
88.2152
  7
ROMANS
 72
     1
 11
909523.062264
 21
7272547.269532
 31
0.0
210
0.0
220
0.0
230
1.0
  0
TEXT
  8
-11
  6
CONTINUOUS
 62
     7
  5
505
 10
909525.307
 20
7272619.314
 30
0.0
 40
8.0
  1
100'
 50
88.2152
  7
ROMANS
 72
     1
 11
909525.722264
 21
7272632.640532
 31
0.0
210
0.0
220
0.0
230
1.0
  0
TEXT
  8
-11
  6
CONTINUOUS
 62
     7
  5
506
 10
909536.073
 20
7272964.807
 30
0.0
 40
8.0
  1
100'
 50
88.2152
  7
ROMANS
 72
     1
 11
909536.488264
 21
7272978.133532
 31
0.0
210
0.0
220
0.0
230
1.0
  0
TEXT
  8
-11
  6
CONTINUOUS
 62
     7
  5
507
 10
909539.272
 20
7273067.443
 30
0.0
 40
8.0
  1
100'
 50
88.2152
  7
ROMANS
 72
     1
 11
909539.687264
 21
7273080.769532
 31
0.0
210
0.0
220
0.0
230
1.0
  0
TEXT
  8
-11
  6
CONTINUOUS
 62
     7
  5
508
 10
909542.261
 20
7273163.365
 30
0.0
 40
8.0
  1
100'
 50
88.2152
  7
ROMANS
 72
     1
 11
909542.676264
 21
7273176.691532
 31
0.0
210
0.0
220
0.0
230
1.0
  0
TEXT
  8
-11
  6
CONTINUOUS
 62
     7
  5
509
 10
909545.13
 20
7273255.451
 30
0.0
 40
8.0
  1
100'
 50
88.2152
  7
ROMANS
 72
     1
 11
909545.545264
 21
7273268.777532
 31
0.0
210
0.0
220
0.0
230
1.0
  0
TEXT
  8
-11
  6
CONTINUOUS
 62
     7
  5
50A
 10
909240.299
 20
7273275.553
 30
0.0
 40
8.0
  1
100'
 50
88.2152
  7
ROMANS
 72
     1
 11
909240.714264
 21
7273288.879532
 31
0.0
210
0.0
220
0.0
230
1.0
  0
TEXT
  8
-11
  6
CONTINUOUS
 62
     7
  5
50B
 10
909239.224
 20
7273179.188
 30
0.0
 40
8.0
  1
100'
 50
88.2152
  7
ROMANS
 72
     1
 11
909239.639264
 21
7273192.514532
 31
0.0
210
0.0
220
0.0
230
1.0
  0
TEXT
  8
-11
  6
CONTINUOUS
 62
     7
  5
50C
 10
909236.043
 20
7273077.106
 30
0.0
 40
8.0
  1
100'
 50
88.2152
  7
ROMANS
 72
     1
 11
909236.458264
 21
7273090.432532
 31
0.0
210
0.0
220
0.0
230
1.0
  0
TEXT
  8
-11
  6
CONTINUOUS
 62
     7
  5
50D
 10
909231.959
 20
7272976.979
 30
0.0
 40
8.0
  1
100'
 50
88.2152
  7
ROMANS
 72
     1
 11
909232.374264
 21
7272990.305532
 31
0.0
210
0.0
220
0.0
230
1.0
  0
TEXT
  8
-11
  6
CONTINUOUS
 62
     7
  5
50E
 10
909164.574
 20
7272979.078
 30
0.0
 40
8.0
  1
100'
 50
88.2152
  7
ROMANS
 72
     1
 11
909164.989264
 21
7272992.404532
 31
0.0
210
0.0
220
0.0
230
1.0
  0
TEXT
  8
-11
  6
CONTINUOUS
 62
     7
  5
50F
 10
909167.695
 20
7273079.236
 30
0.0
 40
8.0
  1
100'
 50
88.2152
  7
ROMANS
 72
     1
 11
909168.110264
 21
7273092.562532
 31
0.0
210
0.0
220
0.0
230
1.0
  0
TEXT
  8
-11
  6
CONTINUOUS
 62
     7
  5
510
 10
909172.591
 20
7273174.517
 30
0.0
 40
8.0
  1
100'
 50
88.2152
  7
ROMANS
 72
     1
 11
909173.006264
 21
7273187.843532
 31
0.0
210
0.0
220
0.0
230
1.0
  0
TEXT
  8
-11
  6
CONTINUOUS
 62
     7
  5
511
 10
909174.989
 20
7273282.408
 30
0.0
 40
8.0
  1
100'
 50
88.2152
  7
ROMANS
 72
     1
 11
909175.404264
 21
7273295.734532
 31
0.0
210
0.0
220
0.0
230
1.0
  0
TEXT
  8
-11
  6
CONTINUOUS
 62
     7
  5
512
 10
909042.053
 20
7273283.658
 30
0.0
 40
8.0
  1
100'
 50
88.2152
  7
ROMANS
 72
     1
 11
909042.468264
 21
7273296.984532
 31
0.0
210
0.0
220
0.0
230
1.0
  0
TEXT
  8
-11
  6
CONTINUOUS
 62
     7
  5
513
 10
909374.258
 20
7273276.199
 30
0.0
 40
8.0
  1
100'
 50
88.2152
  7
ROMANS
 72
     1
 11
909374.673264
 21
7273289.525532
 31
0.0
210
0.0
220
0.0
230
1.0
  0
TEXT
  8
-11
  6
CONTINUOUS
 62
     7
  5
514
 10
909410.779
 20
7273273.133
 30
0.0
 40
8.0
  1
100'
 50
88.2152
  7
ROMANS
 72
     1
 11
909411.194264
 21
7273286.459532
 31
0.0
210
0.0
220
0.0
230
1.0
  0
TEXT
  8
-11
  6
CONTINUOUS
 62
     7
  5
515
 10
909153.013
 20
7272638.985
 30
0.0
 40
8.0
  1
100'
 50
88.2152
  7
ROMANS
 72
     1
 11
909153.428264
 21
7272652.311532
 31
0.0
210
0.0
220
0.0
230
1.0
  0
TEXT
  8
-11
  6
CONTINUOUS
 62
     7
  5
516
 10
909150.914
 20
7272540.725
 30
0.0
 40
8.0
  1
100'
 50
88.2152
  7
ROMANS
 72
     1
 11
909151.329264
 21
7272554.051532
 31
0.0
210
0.0
220
0.0
230
1.0
  0
TEXT
  8
-11
  6
CONTINUOUS
 62
     7
  5
517
 10
909147.823
 20
7272441.531
 30
0.0
 40
8.0
  1
100'
 50
88.2152
  7
ROMANS
 72
     1
 11
909148.238264
 21
7272454.857532
 31
0.0
210
0.0
220
0.0
230
1.0
  0
TEXT
  8
-11
  6
CONTINUOUS
 62
     7
  5
518
 10
909145.725
 20
7272343.271
 30
0.0
 40
8.0
  1
100'
 50
88.2152
  7
ROMANS
 72
     1
 11
909146.140264
 21
7272356.597532
 31
0.0
210
0.0
220
0.0
230
1.0
  0
TEXT
  8
-11
  6
CONTINUOUS
 62
     7
  5
519
 10
909012.909
 20
7272348.373
 30
0.0
 40
8.0
  1
100'
 50
88.2152
  7
ROMANS
 72
     1
 11
909013.324264
 21
7272361.699532
 31
0.0
210
0.0
220
0.0
230
1.0
  0
TEXT
  8
-11
  6
CONTINUOUS
 62
     7
  5
51A
 10
909212.178
 20
7272342.164
 30
0.0
 40
8.0
  1
100'
 50
88.2152
  7
ROMANS
 72
     1
 11
909212.593264
 21
7272355.490532
 31
0.0
210
0.0
220
0.0
230
1.0
  0
TEXT
  8
-11
  6
CONTINUOUS
 62
     7
  5
51B
 10
909346.889
 20
7272336.038
 30
0.0
 40
8.0
  1
100'
 50
88.2152
  7
ROMANS
 72
     1
 11
909347.304264
 21
7272349.364532
 31
0.0
210
0.0
220
0.0
230
1.0
  0
TEXT
  8
-11
  6
CONTINUOUS
 62
     7
  5
51C
 10
909382.507
 20
7272334.928
 30
0.0
 40
8.0
  1
100'
 50
88.2152
  7
ROMANS
 72
     1
 11
909382.922264
 21
7272348.254532
 31
0.0
210
0.0
220
0.0
230
1.0
  0
TEXT
  8
-11
  6
CONTINUOUS
 62
     7
  5
51D
 10
909214.276
 20
7272440.425
 30
0.0
 40
8.0
  1
100'
 50
88.2152
  7
ROMANS
 72
     1
 11
909214.691264
 21
7272453.751532
 31
0.0
210
0.0
220
0.0
230
1.0
  0
TEXT
  8
-11
  6
CONTINUOUS
 62
     7
  5
51E
 10
909217.457
 20
7272542.507
 30
0.0
 40
8.0
  1
100'
 50
88.2152
  7
ROMANS
 72
     1
 11
909217.872264
 21
7272555.833532
 31
0.0
210
0.0
220
0.0
230
1.0
  0
TEXT
  8
-11
  6
CONTINUOUS
 62
     7
  5
51F
 10
909221.45
 20
7272639.745
 30
0.0
 40
8.0
  1
100'
 50
88.2152
  7
ROMANS
 72
     1
 11
909221.865264
 21
7272653.071532
 31
0.0
210
0.0
220
0.0
230
1.0
  0
TEXT
  8
-11
  6
CONTINUOUS
 62
     7
  5
520
 10
909528.274
 20
7272714.518
 30
0.0
 40
8.0
  1
94.50'
 50
88.2152
  7
ROMANS
 72
     1
 11
909528.938429
 21
7272735.84065
 31
0.0
210
0.0
220
0.0
230
1.0
  0
TEXT
  8
-11
  6
CONTINUOUS
 62
     7
  5
521
 10
909530.956
 20
7272800.572
 30
0.0
 40
8.0
  1
50'
 50
88.2152
  7
ROMANS
 72
     1
 11
909531.246682
 21
7272809.900472
 31
0.0
210
0.0
220
0.0
230
1.0
  0
TEXT
  8
-11
  6
CONTINUOUS
 62
     7
  5
522
 10
909395.489
 20
7272720.584
 30
0.0
 40
8.0
  1
94.50'
 50
88.2152
  7
ROMANS
 72
     1
 11
909396.153429
 21
7272741.90665
 31
0.0
210
0.0
220
0.0
230
1.0
  0
TEXT
  8
-11
  6
CONTINUOUS
 62
     7
  5
523
 10
909358.967
 20
7272723.65
 30
0.0
 40
8.0
  1
94.50'
 50
88.2152
  7
ROMANS
 72
     1
 11
909359.631429
 21
7272744.97265
 31
0.0
210
0.0
220
0.0
230
1.0
  0
TEXT
  8
-11
  6
CONTINUOUS
 62
     7
  5
524
 10
909224.257
 20
7272729.776
 30
0.0
 40
8.0
  1
94.50'
 50
88.2152
  7
ROMANS
 72
     1
 11
909224.921429
 21
7272751.09865
 31
0.0
210
0.0
220
0.0
230
1.0
  0
TEXT
  8
-11
  6
CONTINUOUS
 62
     7
  5
525
 10
909158.706
 20
7272728.926
 30
0.0
 40
8.0
  1
94.50'
 50
88.2152
  7
ROMANS
 72
     1
 11
909159.370429
 21
7272750.24865
 31
0.0
210
0.0
220
0.0
230
1.0
  0
TEXT
  8
-11
  6
CONTINUOUS
 62
     7
  5
526
 10
909024.928
 20
7272734.059
 30
0.0
 40
8.0
  1
94.50'
 50
88.2152
  7
ROMANS
 72
     1
 11
909025.592429
 21
7272755.38165
 31
0.0
210
0.0
220
0.0
230
1.0
  0
TEXT
  8
-11
  6
CONTINUOUS
 62
     7
  5
527
 10
909031.324
 20
7272877.107
 30
0.0
 40
8.0
  1
94.50'
 50
88.2152
  7
ROMANS
 72
     1
 11
909031.988429
 21
7272898.42965
 31
0.0
210
0.0
220
0.0
230
1.0
  0
TEXT
  8
-11
  6
CONTINUOUS
 62
     7
  5
528
 10
909162.274
 20
7272873.99
 30
0.0
 40
8.0
  1
94.50'
 50
88.2152
  7
ROMANS
 72
     1
 11
909162.938429
 21
7272895.31265
 31
0.0
210
0.0
220
0.0
230
1.0
  0
TEXT
  8
-11
  6
CONTINUOUS
 62
     7
  5
529
 10
909228.697
 20
7272871.92
 30
0.0
 40
8.0
  1
94.50'
 50
88.2152
  7
ROMANS
 72
     1
 11
909229.361429
 21
7272893.24265
 31
0.0
210
0.0
220
0.0
230
1.0
  0
TEXT
  8
-11
  6
CONTINUOUS
 62
     7
  5
52A
 10
909362.565
 20
7272869.677
 30
0.0
 40
8.0
  1
94.50'
 50
88.2152
  7
ROMANS
 72
     1
 11
909363.229429
 21
7272890.99965
 31
0.0
210
0.0
220
0.0
230
1.0
  0
TEXT
  8
-11
  6
CONTINUOUS
 62
     7
  5
52B
 10
909398.124
 20
7272866.641
 30
0.0
 40
8.0
  1
94.50'
 50
88.2152
  7
ROMANS
 72
     1
 11
909398.788429
 21
7272887.96365
 31
0.0
210
0.0
220
0.0
230
1.0
  0
TEXT
  8
-11
  6
CONTINUOUS
 62
     7
  5
52C
 10
909530.939
 20
7272861.539
 30
0.0
 40
8.0
  1
94.50'
 50
88.2152
  7
ROMANS
 72
     1
 11
909531.603429
 21
7272882.86165
 31
0.0
210
0.0
220
0.0
230
1.0
  0
TEXT
  8
-11
  6
CONTINUOUS
 62
     7
  5
52D
 10
909038.048
 20
7272814.967
 30
0.0
 40
8.0
  1
50'
 50
88.2152
  7
ROMANS
 72
     1
 11
909038.338682
 21
7272824.295472
 31
0.0
210
0.0
220
0.0
230
1.0
  0
TEXT
  8
-11
  6
CONTINUOUS
 62
     7
  5
52E
 10
908564.861
 20
7272834.526
 30
0.0
 40
8.0
  1
50'
 50
88.2152
  7
ROMANS
 72
     1
 11
908565.151682
 21
7272843.854472
 31
0.0
210
0.0
220
0.0
230
1.0
  0
TEXT
  8
-11
  6
CONTINUOUS
 62
     7
  5
52F
 10
909196.337
 20
7273313.187
 30
0.0
 40
8.0
  1
50'
 50
358.2152
  7
ROMANS
 72
     4
 11
909205.790055
 21
7273316.894378
 31
0.0
210
0.0
220
0.0
230
1.0
  0
TEXT
  8
-11
  6
CONTINUOUS
 62
     7
  5
530
 10
909182.323
 20
7272863.444
 30
0.0
 40
8.0
  1
50'
 50
358.2152
  7
ROMANS
 72
     4
 11
909191.776055
 21
7272867.151378
 31
0.0
210
0.0
220
0.0
230
1.0
  0
TEXT
  8
-11
  6
CONTINUOUS
 62
     7
  5
531
 10
909165.306
 20
7272317.287
 30
0.0
 40
8.0
  1
50'
 50
358.2152
  7
ROMANS
 72
     4
 11
909174.759055
 21
7272320.994378
 31
0.0
210
0.0
220
0.0
230
1.0
  0
TEXT
  8
-11
  6
CONTINUOUS
 62
     7
  5
532
 10
908980.658
 20
7272328.825
 30
0.0
 40
8.0
  1
20'
 50
358.2152
  7
ROMANS
 72
     4
 11
908990.111055
 21
7272332.532378
 31
0.0
210
0.0
220
0.0
230
1.0
  0
TEXT
  8
-11
  6
CONTINUOUS
 62
     7
  5
533
 10
909351.278
 20
7272317.276
 30
0.0
 40
8.0
  1
20'
 50
358.2152
  7
ROMANS
 72
     4
 11
909360.731055
 21
7272320.983378
 31
0.0
210
0.0
220
0.0
230
1.0
  0
TEXT
  8
-11
  6
CONTINUOUS
 62
     7
  5
534
 10
908995.418
 20
7272772.04
 30
0.0
 40
8.0
  1
20'
 50
358.2152
  7
ROMANS
 72
     4
 11
909004.871055
 21
7272775.747378
 31
0.0
210
0.0
220
0.0
230
1.0
  0
TEXT
  8
-11
  6
CONTINUOUS
 62
     7
  5
535
 10
909365.949
 20
7272757.603
 30
0.0
 40
8.0
  1
20'
 50
358.2152
  7
ROMANS
 72
     4
 11
909375.402055
 21
7272761.310378
 31
0.0
210
0.0
220
0.0
230
1.0
  0
TEXT
  8
-11
  6
CONTINUOUS
 62
     7
  5
536
 10
909368.018
 20
7272854.9
 30
0.0
 40
8.0
  1
20'
 50
358.2152
  7
ROMANS
 72
     4
 11
909377.471055
 21
7272858.607378
 31
0.0
210
0.0
220
0.0
230
1.0
  0
TEXT
  8
-11
  6
CONTINUOUS
 62
     7
  5
537
 10
908999.412
 20
7272869.278
 30
0.0
 40
8.0
  1
20'
 50
358.2152
  7
ROMANS
 72
     4
 11
909008.865055
 21
7272872.985378
 31
0.0
210
0.0
220
0.0
230
1.0
  0
TEXT
  8
-11
  6
CONTINUOUS
 62
     7
  5
538
 10
909012.452
 20
7273318.685
 30
0.0
 40
8.0
  1
20'
 50
358.2152
  7
ROMANS
 72
     4
 11
909021.905055
 21
7273322.392378
 31
0.0
210
0.0
220
0.0
230
1.0
  0
TEXT
  8
-11
  6
CONTINUOUS
 62
     7
  5
539
 10
909382.923
 20
7273302.321
 30
0.0
 40
8.0
  1
20'
 50
358.2152
  7
ROMANS
 72
     4
 11
909392.376055
 21
7273306.028378
 31
0.0
210
0.0
220
0.0
230
1.0
  0
TEXT
  8
-11
  6
CONTINUOUS
 62
     7
  5
53A
 10
908754.981
 20
7273342.131
 30
0.0
 40
8.0
  1
460'
 50
358.2152
  7
ROMANS
 72
     4
 11
908768.432114
 21
7273345.713795
 31
0.0
210
0.0
220
0.0
230
1.0
  0
TEXT
  8
-11
  6
CONTINUOUS
 62
     7
  5
53B
 10
908752.607
 20
7272864.073
 30
0.0
 40
8.0
  1
460'
 50
358.2152
  7
ROMANS
 72
     4
 11
908766.058114
 21
7272867.655795
 31
0.0
210
0.0
220
0.0
230
1.0
  0
TEXT
  8
-11
  6
CONTINUOUS
 62
     7
  5
53C
 10
908747.679
 20
7272798.675
 30
0.0
 40
8.0
  1
460'
 50
358.2152
  7
ROMANS
 72
     4
 11
908761.130114
 21
7272802.257795
 31
0.0
210
0.0
220
0.0
230
1.0
  0
TEXT
  8
-11
  6
CONTINUOUS
 62
     7
  5
53D
 10
908738.509
 20
7272318.899
 30
0.0
 40
8.0
  1
460'
 50
358.2152
  7
ROMANS
 72
     4
 11
908751.960114
 21
7272322.481795
 31
0.0
210
0.0
220
0.0
230
1.0
  0
TEXT
  8
-11
  6
CONTINUOUS
 62
     7
  5
53E
 10
908539.058
 20
7272539.181
 30
0.0
 40
8.0
  1
494.50'
 50
88.2152
  7
ROMANS
 72
     4
 11
908535.848952
 21
7272564.626292
 31
0.0
210
0.0
220
0.0
230
1.0
  0
TEXT
  8
-11
  6
CONTINUOUS
 62
     7
  5
53F
 10
908981.095
 20
7272531.191
 30
0.0
 40
8.0
  1
494.50'
 50
88.2152
  7
ROMANS
 72
     4
 11
908977.885952
 21
7272556.636292
 31
0.0
210
0.0
220
0.0
230
1.0
  0
TEXT
  8
-11
  6
CONTINUOUS
 62
     7
  5
540
 10
908553.917
 20
7273046.834
 30
0.0
 40
8.0
  1
494.50'
 50
88.2152
  7
ROMANS
 72
     4
 11
908550.707952
 21
7273072.279292
 31
0.0
210
0.0
220
0.0
230
1.0
  0
TEXT
  8
-11
  6
CONTINUOUS
 62
     7
  5
541
 10
908998.422
 20
7273025.272
 30
0.0
 40
8.0
  1
494.50'
 50
88.2152
  7
ROMANS
 72
     4
 11
908995.212952
 21
7273050.717292
 31
0.0
210
0.0
220
0.0
230
1.0
  0
TEXT
  8
-19
  6
CONTINUOUS
 62
     1
  5
542
 10
909880.18
 20
7272542.12
 30
0.0
 40
24.0
  1
URBANA               AVE.
 50
88.1523
  7
ROMANC
 72
     4
 11
909879.186729
 21
7272883.505525
 31
0.0
210
0.0
220
0.0
230
1.0
  0
TEXT
  8
-15
  6
CONTINUOUS
 62
    30
  5
543
 10
908873.205
 20
7272889.618
 30
0.0
 40
50.0
  1
PARKDALE
 50
33.1523
  7
ROMANC
 72
     4
 11
909043.612875
 21
7273030.788014
 31
0.0
210
0.0
220
0.0
230
1.0
  0
TEXT
  8
-15
  6
CONTINUOUS
 62
    30
  5
544
 10
909088.85
 20
7272379.177
 30
0.0
 40
50.0
  1
ADDITION
 50
33.1523
  7
ROMANC
 72
     4
 11
909238.327378
 21
7272506.675354
 31
0.0
210
0.0
220
0.0
230
1.0
  0
LINE
  8
-6
  6
CONTINUOUS
 62
     7
  5
545
 10
908593.115
 20
7273932.655
 30
0.0
 11
909592.595
 21
7273900.412
 31
0.0
  0
LINE
  8
-6
  6
CONTINUOUS
 62
     7
  5
546
 10
909592.595
 20
7273900.412
 30
0.0
 11
909592.304
 21
7273891.416
 31
0.0
  0
LINE
  8
-6
  6
CONTINUOUS
 62
     7
  5
547
 10
909592.304
 20
7273891.416
 30
0.0
 11
909562.321
 21
7273892.384
 31
0.0
  0
LINE
  8
-6
  6
CONTINUOUS
 62
     7
  5
548
 10
909562.321
 20
7273892.384
 30
0.0
 11
909561.354
 21
7273862.399
 31
0.0
  0
LINE
  8
-6
  6
CONTINUOUS
 62
     7
  5
549
 10
909561.354
 20
7273862.399
 30
0.0
 11
909591.337
 21
7273861.432
 31
0.0
  0
LINE
  8
-6
  6
CONTINUOUS
 62
     7
  5
54A
 10
909591.337
 20
7273861.432
 30
0.0
 11
909590.37
 21
7273831.448
 31
0.0
  0
LINE
  8
-6
  6
CONTINUOUS
 62
     7
  5
54B
 10
909590.37
 20
7273831.448
 30
0.0
 11
909440.448
 21
7273836.284
 31
0.0
  0
LINE
  8
-6
  6
CONTINUOUS
 62
     7
  5
54C
 10
909440.448
 20
7273836.284
 30
0.0
 11
909425.939
 21
7273386.519
 31
0.0
  0
LINE
  8
-6
  6
CONTINUOUS
 62
     7
  5
54D
 10
909425.939
 20
7273386.519
 30
0.0
 11
909575.861
 21
7273381.681
 31
0.0
  0
LINE
  8
-6
  6
CONTINUOUS
 62
     7
  5
54E
 10
909575.861
 20
7273381.681
 30
0.0
 11
909575.056
 21
7273356.695
 31
0.0
  0
LINE
  8
-6
  6
CONTINUOUS
 62
     7
  5
54F
 10
908975.367
 20
7273376.041
 30
0.0
 11
908982.073
 21
7273583.932
 31
0.0
  0
LINE
  8
-6
  6
CONTINUOUS
 62
     7
  5
550
 10
908982.073
 20
7273583.932
 30
0.0
 11
908582.281
 21
7273596.83
 31
0.0
  0
LINE
  8
-6
  6
CONTINUOUS
 62
     7
  5
551
 10
908593.115
 20
7273932.655
 30
0.0
 11
908582.281
 21
7273596.83
 31
0.0
  0
TEXT
  8
-22
  6
CONTINUOUS
 62
     3
  5
553
 10
909016.576
 20
7273744.871
 30
0.0
 40
8.0
  1
CITY  PROPERTY
 50
358.1523
  7
ROMANS
 72
     4
 11
909071.259592
 21
7273747.109008
 31
0.0
210
0.0
220
0.0
230
1.0
  0
TEXT
  8
-22
  6
CONTINUOUS
 62
     3
  5
554
 10
908986.536
 20
7273723.686
 30
0.0
 40
8.0
  1
(VOL. 3308    PG. 177.)
 50
358.1523
  7
ROMANS
 72
     4
 11
909076.618177
 21
7273724.782063
 31
0.0
210
0.0
220
0.0
230
1.0
  0
TEXT
  8
-11
  6
CONTINUOUS
 62
     7
  5
555
 10
908982.887
 20
7273921.481
 30
0.0
 40
8.0
  1
1000'
 50
358.2152
  7
ROMANS
 72
     1
 11
909000.460756
 21
7273928.937272
 31
0.0
210
0.0
220
0.0
230
1.0
 73
     3
  0
TEXT
  8
-11
  6
CONTINUOUS
 62
     7
  5
556
 10
909541.12
 20
7273849.653
 30
0.0
 40
8.0
  1
30'
 50
358.2152
  7
ROMANS
 72
     1
 11
909550.697637
 21
7273857.358437
 31
0.0
210
0.0
220
0.0
230
1.0
 73
     3
  0
TEXT
  8
-11
  6
CONTINUOUS
 62
     7
  5
557
 10
909479.892
 20
7273835.553
 30
0.0
 40
8.0
  1
150'
 50
358.2152
  7
ROMANS
 72
     1
 11
909493.218532
 21
7273835.137736
 31
0.0
210
0.0
220
0.0
230
1.0
  0
TEXT
  8
-11
  6
CONTINUOUS
 62
     7
  5
558
 10
909406.735
 20
7273622.294
 30
0.0
 40
8.0
  1
450'
 50
88.2152
  7
ROMANS
 72
     4
 11
909403.152205
 21
7273635.745114
 31
0.0
210
0.0
220
0.0
230
1.0
  0
TEXT
  8
-11
  6
CONTINUOUS
 62
     7
  5
559
 10
909545.932
 20
7273360.841
 30
0.0
 40
8.0
  1
25'
 50
88.2152
  7
ROMANS
 72
     4
 11
909542.224622
 21
7273370.294055
 31
0.0
210
0.0
220
0.0
230
1.0
  0
TEXT
  8
-11
  6
CONTINUOUS
 62
     7
  5
55A
 10
908968.545
 20
7273467.351
 30
0.0
 40
8.0
  1
208'
 50
88.2152
  7
ROMANS
 72
     4
 11
908964.962205
 21
7273480.802114
 31
0.0
210
0.0
220
0.0
230
1.0
  0
TEXT
  8
-11
  6
CONTINUOUS
 62
     7
  5
55B
 10
908575.467
 20
7273753.826
 30
0.0
 40
8.0
  1
336'
 50
88.2152
  7
ROMANS
 72
     4
 11
908571.884205
 21
7273767.277114
 31
0.0
210
0.0
220
0.0
230
1.0
  0
TEXT
  8
-11
  6
CONTINUOUS
 62
     7
  5
55C
 10
909154.248
 20
7273369.621
 30
0.0
 40
8.0
  1
600'
 50
358.2152
  7
ROMANS
 72
     4
 11
909167.699114
 21
7273373.203795
 31
0.0
210
0.0
220
0.0
230
1.0
  0
TEXT
  8
-11
  6
CONTINUOUS
 62
     7
  5
55D
 10
909465.364
 20
7273371.487
 30
0.0
 40
8.0
  1
150'
 50
358.2152
  7
ROMANS
 72
     4
 11
909478.815114
 21
7273375.069795
 31
0.0
210
0.0
220
0.0
230
1.0
  0
TEXT
  8
-11
  6
CONTINUOUS
 62
     7
  5
55E
 10
908741.766
 20
7273593.163
 30
0.0
 40
8.0
  1
400'
 50
358.2152
  7
ROMANS
 72
     4
 11
908755.217114
 21
7273596.745795
 31
0.0
210
0.0
220
0.0
230
1.0
  0
LINE
  8
-21
  6
DASHDOT
 62
     7
  5
560
 10
908592.792
 20
7273922.66
 30
0.0
 11
908981.591
 21
7273910.118
 31
0.0
  0
LINE
  8
-21
  6
DASHDOT
 62
     7
  5
561
 10
908981.591
 20
7273910.118
 30
0.0
 11
908976.754
 21
7273760.196
 31
0.0
  0
LINE
  8
-21
  6
DASHDOT
 62
     7
  5
562
 10
908976.754
 20
7273760.196
 30
0.0
 11
908998.742
 21
7273759.486
 31
0.0
  0
LINE
  8
-21
  6
DASHDOT
 62
     7
  5
563
 10
908998.742
 20
7273759.486
 30
0.0
 11
909003.578
 21
7273909.408
 31
0.0
  0
LINE
  8
-21
  6
DASHDOT
 62
     7
  5
564
 10
909003.578
 20
7273909.408
 30
0.0
 11
909592.272
 21
7273890.417
 31
0.0
  0
TEXT
  8
-22
  6
CONTINUOUS
 62
     3
  5
565
 10
909220.572
 20
7273888.337
 30
0.0
 40
8.0
  1
10'  EASEMENT VOL. 3308   PG. 183
 50
358.1523
  7
ROMANS
 72
     4
 11
909350.966207
 21
7273888.132612
 31
0.0
210
0.0
220
0.0
230
1.0
  0
LINE
  8
-6
  6
CONTINUOUS
 62
     7
  5
566
 10
910380.271
 20
7272419.995
 30
0.0
 11
910381.174
 21
7272447.981
 31
0.0
  0
LINE
  8
-6
  6
CONTINUOUS
 62
     7
  5
567
 10
910371.078
 20
7272135.023
 30
0.0
 11
909596.481
 21
7272160.011
 31
0.0
  0
LINE
  8
-6
  6
CONTINUOUS
 62
     7
  5
568
 10
910369.273
 20
7272079.052
 30
0.0
 11
909594.676
 21
7272104.041
 31
0.0
  0
LINE
  8
-6
  6
CONTINUOUS
 62
     7
  5
569
 10
910376.016
 20
7272288.064
 30
0.0
 11
909601.419
 21
7272313.052
 31
0.0
  0
LINE
  8
-6
  6
CONTINUOUS
 62
     7
  5
56A
 10
910375.371
 20
7272268.074
 30
0.0
 11
909600.774
 21
7272293.063
 31
0.0
  0
LINE
  8
-6
  6
CONTINUOUS
 62
     7
  5
56B
 10
909587.579
 20
7271884.026
 30
0.0
 11
909631.944
 21
7273259.31
 31
0.0
  0
LINE
  8
-6
  6
CONTINUOUS
 62
     7
  5
56C
 10
909632.912
 20
7273289.294
 30
0.0
 11
909669.636
 21
7274427.702
 31
0.0
  0
LINE
  8
-6
  6
CONTINUOUS
 62
     7
  5
56D
 10
909590.401
 20
7271971.55
 30
0.0
 11
910364.998
 21
7271946.562
 31
0.0
  0
LINE
  8
-6
  6
CONTINUOUS
 62
     7
  5
56E
 10
909589.756
 20
7271951.56
 30
0.0
 11
910364.354
 21
7271926.571
 31
0.0
  0
TEXT
  8
-22
  6
CONTINUOUS
 62
     3
  5
56F
 10
910381.755
 20
7272107.236
 30
0.0
 40
8.0
  1
STRIP 2
 50
88.1523
  7
ROMANS
 72
     4
 11
910378.606131
 21
7272133.68428
 31
0.0
210
0.0
220
0.0
230
1.0
  0
LINE
  8
-6
  6
CONTINUOUS
 62
     7
  5
570
 10
910377.167
 20
7271858.553
 30
0.0
 11
909587.579
 21
7271884.026
 31
0.0
  0
LINE
  8
-6
  6
CONTINUOUS
 62
     7
  5
571
 10
909587.579
 20
7271884.026
 30
0.0
 11
909585.644
 21
7271824.056
 31
0.0
  0
LINE
  8
-6
  6
CONTINUOUS
 62
     7
  5
572
 10
910380.271
 20
7272419.995
 30
0.0
 11
910362.176
 21
7271859.036
 31
0.0
  0
TEXT
  8
-22
  6
CONTINUOUS
 62
     3
  5
573
 10
910385.518
 20
7272235.764
 30
0.0
 40
8.0
  1
(VOL. 873  PG. 445.)
 50
88.1523
  7
ROMANS
 72
     4
 11
910384.035023
 21
7272313.852416
 31
0.0
210
0.0
220
0.0
230
1.0
  0
TEXT
  8
-10
  6
CONTINUOUS
 62
   134
  5
574
 10
909725.044
 20
7273261.627
 30
0.0
 40
8.0
  1
STRIP 1
 50
358.2152
  7
ROMANS
 72
     4
 11
909750.489292
 21
7273264.836048
 31
0.0
210
0.0
220
0.0
230
1.0
  0
TEXT
  8
-10
  6
CONTINUOUS
 62
   134
  5
575
 10
909693.026
 20
7272627.219
 30
0.0
 40
8.0
  1
STRIP  4
 50
88.2152
  7
ROMANS
 72
     4
 11
909689.97268
 21
7272657.661867
 31
0.0
210
0.0
220
0.0
230
1.0
  0
TEXT
  8
-10
  6
CONTINUOUS
 62
   134
  5
576
 10
909857.376
 20
7272741.473
 30
0.0
 40
8.0
  1
STRIP  3
 50
88.2152
  7
ROMANS
 72
     4
 11
909854.32268
 21
7272771.915867
 31
0.0
210
0.0
220
0.0
230
1.0
  0
TEXT
  8
-10
  6
CONTINUOUS
 62
   134
  5
577
 10
910057.519
 20
7272613.934
 30
0.0
 40
8.0
  1
STRIP  5
 50
88.2152
  7
ROMANS
 72
     4
 11
910054.466023
 21
7272644.387861
 31
0.0
210
0.0
220
0.0
230
1.0
  0
TEXT
  8
-10
  6
CONTINUOUS
 62
   134
  5
578
 10
909712.962
 20
7272473.564
 30
0.0
 40
8.0
  1
STRIP 2
 50
358.2152
  7
ROMANS
 72
     4
 11
909739.406807
 21
7272476.741902
 31
0.0
210
0.0
220
0.0
230
1.0
  0
TEXT
  8
-10
  6
CONTINUOUS
 62
   134
  5
579
 10
909715.35
 20
7272447.589
 30
0.0
 40
8.0
  1
STRIP 1
 50
358.2152
  7
ROMANS
 72
     4
 11
909740.795292
 21
7272450.798048
 31
0.0
210
0.0
220
0.0
230
1.0
  0
TEXT
  8
-10
  6
CONTINUOUS
 62
   134
  5
57A
 10
909359.498
 20
7272537.459
 30
0.0
 40
24.0
  1
2
 50
358.2152
  7
ROMANC
 72
     4
 11
909367.899851
 21
7272549.203017
 31
0.0
210
0.0
220
0.0
230
1.0
  0
TEXT
  8
-10
  6
CONTINUOUS
 62
   134
  5
57B
 10
909375.582
 20
7273086.281
 30
0.0
 40
24.0
  1
1
 50
358.2152
  7
ROMANC
 72
     4
 11
909381.055272
 21
7273098.116273
 31
0.0
210
0.0
220
0.0
230
1.0
  0
TEXT
  8
-10
  6
CONTINUOUS
 62
   134
  5
57C
 10
909001.695
 20
7273086.367
 30
0.0
 40
24.0
  1
4
 50
358.2152
  7
ROMANC
 72
     4
 11
909011.2303
 21
7273098.075698
 31
0.0
210
0.0
220
0.0
230
1.0
  0
TEXT
  8
-10
  6
CONTINUOUS
 62
   134
  5
57D
 10
908987.773
 20
7272541.333
 30
0.0
 40
24.0
  1
3
 50
358.2152
  7
ROMANC
 72
     4
 11
908996.174851
 21
7272553.077017
 31
0.0
210
0.0
220
0.0
230
1.0
  0
TEXT
  8
-10
  6
CONTINUOUS
 62
   134
  5
57E
 10
909706.622
 20
7272292.646
 30
0.0
 40
8.0
  1
STRIP 4
 50
358.2152
  7
ROMANS
 72
     4
 11
909733.066807
 21
7272295.823902
 31
0.0
210
0.0
220
0.0
230
1.0
  0
TEXT
  8
-10
  6
CONTINUOUS
 62
   134
  5
57F
 10
909709.885
 20
7272119.011
 30
0.0
 40
8.0
  1
STRIP 3
 50
358.2152
  7
ROMANS
 72
     4
 11
909736.329807
 21
7272122.188902
 31
0.0
210
0.0
220
0.0
230
1.0
  0
TEXT
  8
-10
  6
CONTINUOUS
 62
   134
  5
580
 10
909703.7
 20
7271951.455
 30
0.0
 40
8.0
  1
STRIP 5
 50
358.2152
  7
ROMANS
 72
     4
 11
909730.155802
 21
7271954.63256
 31
0.0
210
0.0
220
0.0
230
1.0
  0
TEXT
  8
-19
  6
CONTINUOUS
 62
     1
  5
581
 10
909527.47
 20
7274454.467
 30
0.0
 40
24.0
  1
STATE HIGHWAY 114 (19TH ST)
 50
358.1523
  7
ROMANC
210
0.0
220
0.0
230
1.0
  0
TEXT
  8
-19
  6
CONTINUOUS
 62
     1
  5
582
 10
905386.604
 20
7274587.321
 30
0.0
 40
24.0
  1
STATE HIGHWAY 114 (19TH ST)
 50
358.1523
  7
ROMANC
210
0.0
220
0.0
230
1.0
  0
TEXT
  8
-19
  6
CONTINUOUS
 62
     1
  5
583
 10
909866.444
 20
7269208.926
 30
0.0
 40
24.0
  1
34TH ST
 50
358.1523
  7
ROMANC
210
0.0
220
0.0
230
1.0
  0
TEXT
  8
-19
  6
CONTINUOUS
 62
     1
  5
584
 10
908561.692
 20
7269708.479
 30
0.0
 40
24.0
  1
32ND ST
 50
358.1523
  7
ROMANC
210
0.0
220
0.0
230
1.0
  0
TEXT
  8
-19
  6
CONTINUOUS
 62
     1
  5
585
 10
905662.45
 20
7270162.261
 30
0.0
 40
24.0
  1
32ND ST
 50
358.1523
  7
ROMANC
210
0.0
220
0.0
230
1.0
  0
TEXT
  8
-19
  6
CONTINUOUS
 62
     1
  5
586
 10
906871.544
 20
7271932.473
 30
0.0
 40
24.0
  1
26TH ST
 50
358.1523
  7
ROMANC
210
0.0
220
0.0
230
1.0
  0
TEXT
  8
-19
  6
CONTINUOUS
 62
     1
  5
587
 10
909681.158
 20
7272458.691
 30
0.0
 40
24.0
  1
24TH              ST
 50
358.1523
  7
ROMANC
 72
     4
 11
909969.001378
 21
7272461.411521
 31
0.0
210
0.0
220
0.0
230
1.0
  0
TEXT
  8
-19
  6
CONTINUOUS
 62
     1
  5
588
 10
909699.721
 20
7273258.469
 30
0.0
 40
24.0
  1
22ND              ST
 50
358.1523
  7
ROMANC
 72
     4
 11
909963.200052
 21
7273261.975505
 31
0.0
210
0.0
220
0.0
230
1.0
  0
TEXT
  8
-19
  6
CONTINUOUS
 62
     1
  5
589
 10
908691.425
 20
7272826.342
 30
0.0
 40
24.0
  1
23RD    ST
 50
358.1523
  7
ROMANC
 72
     4
 11
908817.786382
 21
7272834.271871
 31
0.0
210
0.0
220
0.0
230
1.0
  0
TEXT
  8
-19
  6
CONTINUOUS
 62
     1
  5
58A
 10
908852.295
 20
7273360.935
 30
0.0
 40
24.0
  1
22ND              ST
 50
358.1523
  7
ROMANC
 72
     4
 11
909115.774052
 21
7273364.441505
 31
0.0
210
0.0
220
0.0
230
1.0
  0
TEXT
  8
-19
  6
CONTINUOUS
 62
     1
  5
58B
 10
909682.721
 20
7272113.49
 30
0.0
 40
24.0
  1
25TH              ST
 50
358.1523
  7
ROMANC
 72
     4
 11
909969.430967
 21
7272116.247084
 31
0.0
210
0.0
220
0.0
230
1.0
  0
TEXT
  8
-19
  6
CONTINUOUS
 62
     1
  5
58C
 10
908364.522
 20
7271878.599
 30
0.0
 40
24.0
  1
26TH ST
 50
358.1523
  7
ROMANC
210
0.0
220
0.0
230
1.0
  0
TEXT
  8
-19
  6
CONTINUOUS
 62
     1
  5
58D
 10
909635.157
 20
7271841.467
 30
0.0
 40
24.0
  1
26TH             ST
 50
358.1523
  7
ROMANC
210
0.0
220
0.0
230
1.0
  0
TEXT
  8
-19
  6
CONTINUOUS
 62
     1
  5
58E
 10
909219.666
 20
7272644.098
 30
0.0
 40
24.0
  1
VENITA     AVE
 50
88.1523
  7
ROMANC
 72
     4
 11
909213.630978
 21
7272829.196826
 31
0.0
210
0.0
220
0.0
230
1.0
  0
TEXT
  8
-10
  6
CONTINUOUS
 62
   134
  5
58F
 10
907001.249
 20
7274167.387
 30
0.0
 40
13.999
  1
1
 50
358.2152
  7
ROMANS
 72
     4
 11
907003.798887
 21
7274174.310941
 31
0.0
210
0.0
220
0.0
230
1.0
  0
LINE
  8
-6
  6
CONTINUOUS
 62
     7
  5
590
 10
905123.647
 20
7270206.877
 30
0.0
 11
905236.638
 21
7273723.807
 31
0.0
  0
TEXT
  8
-13
  6
CONTINUOUS
 62
    14
  5
592
 10
909827.336
 20
7271840.152
 30
0.0
 40
8.0
  1
ST DEDICATION  (VOL. 406  PG. 314.)
 50
358.1523
  7
ROMANS
 72
     4
 11
909965.39322
 21
7271839.700406
 31
0.0
210
0.0
220
0.0
230
1.0
  0
TEXT
  8
-13
  6
CONTINUOUS
 62
    14
  5
593
 10
909840.161
 20
7271948.239
 30
0.0
 40
8.0
  1
ALLEY DEDICATION  (VOL. 873  PG. 445.)
 50
358.1523
  7
ROMANS
 72
     4
 11
909990.211981
 21
7271947.400491
 31
0.0
210
0.0
220
0.0
230
1.0
  0
TEXT
  8
-13
  6
CONTINUOUS
 62
    14
  5
594
 10
909830.51
 20
7272116.305
 30
0.0
 40
8.0
  1
ST DEDICATION  (VOL. 873  PG. 445.)
 50
358.1523
  7
ROMANS
 72
     4
 11
909968.56722
 21
7272115.853406
 31
0.0
210
0.0
220
0.0
230
1.0
  0
TEXT
  8
-13
  6
CONTINUOUS
 62
    14
  5
595
 10
909847.341
 20
7272290.264
 30
0.0
 40
8.0
  1
ALLEY DEDICATION  (VOL. 873  PG. 445.)
 50
358.1523
  7
ROMANS
 72
     4
 11
909997.391981
 21
7272289.425491
 31
0.0
210
0.0
220
0.0
230
1.0
  0
TEXT
  8
-13
  6
CONTINUOUS
 62
    14
  5
596
 10
909852.247
 20
7272443.583
 30
0.0
 40
8.0
  1
ST DEDICATION  (VOL. 873 PG. 445.)
 50
358.1523
  7
ROMANS
 72
     4
 11
909986.3063
 21
7272443.260377
 31
0.0
210
0.0
220
0.0
230
1.0
  0
TEXT
  8
-13
  6
CONTINUOUS
 62
    14
  5
597
 10
909843.985
 20
7273260.938
 30
0.0
 40
8.0
  1
ST DEDICATION  (VOL. 895 PG. 233.)
 50
358.1523
  7
ROMANS
 72
     4
 11
909978.0443
 21
7273260.615377
 31
0.0
210
0.0
220
0.0
230
1.0
  0
TEXT
  8
-13
  6
CONTINUOUS
 62
    14
  5
598
 10
909719.019
 20
7272720.861
 30
0.0
 40
8.0
  1
ALLEY DEDICATION  (VOL. 895 PG. 233.)
 50
88.1523
  7
ROMANS
 72
     4
 11
909719.728537
 21
7272866.914061
 31
0.0
210
0.0
220
0.0
230
1.0
  0
TEXT
  8
-13
  6
CONTINUOUS
 62
    14
  5
599
 10
909884.593
 20
7272839.109
 30
0.0
 40
8.0
  1
ST DEDICATION  (VOL. 895 PG. 233.)
 50
88.1523
  7
ROMANS
 72
     4
 11
909884.915623
 21
7272973.1683
 31
0.0
210
0.0
220
0.0
230
1.0
  0
TEXT
  8
-13
  6
CONTINUOUS
 62
    14
  5
59A
 10
910082.473
 20
7272705.282
 30
0.0
 40
8.0
  1
ALLEY DEDICATION  (VOL. 895 PG. 233.)
 50
88.1523
  7
ROMANS
 72
     4
 11
910083.182537
 21
7272851.335061
 31
0.0
210
0.0
220
0.0
230
1.0
  0
TEXT
  8
-13
  6
CONTINUOUS
 62
    14
  5
59B
 10
909844.522
 20
7272471.655
 30
0.0
 40
8.0
  1
ST DEDICATION  (VOL. 895 PG. 233.)
 50
358.1523
  7
ROMANS
 72
     4
 11
909978.5813
 21
7272471.332377
 31
0.0
210
0.0
220
0.0
230
1.0
  0
TEXT
  8
-28
  6
CONTINUOUS
 62
    32
  5
59D
 10
905101.78
 20
7269657.73
 30
0.0
 40
24.0
  1
SEAGRAVES WHITEFACE & LUBBOCK RR
 50
340.0
  7
txt
 72
     4
 11
905458.98502
 21
7269540.488138
 31
0.0
210
0.0
220
0.0
230
1.0
  0
TEXT
  8
-11
  6
CONTINUOUS
 62
     7
  5
59E
 10
905425.303
 20
7269642.501
 30
0.0
 40
8.0
  1
1377'
 50
340.325869
  7
ROMANS
 72
     1
 11
905441.624145
 21
7269636.665496
 31
0.0
210
0.0
220
0.0
230
1.0
  0
TEXT
  8
-11
  6
CONTINUOUS
 62
     7
  5
59F
 10
905294.005
 20
7269521.699
 30
0.0
 40
8.0
  1
830'
 50
340.32585
  7
ROMANS
 72
     1
 11
905306.559653
 21
7269517.210173
 31
0.0
210
0.0
220
0.0
230
1.0
  0
TEXT
  8
-11
  6
CONTINUOUS
 62
     7
  5
5A0
 10
905414.607
 20
7269406.366
 30
0.0
 40
8.0
  1
201'
 50
355.022081
  7
ROMANS
 72
     1
 11
905427.889711
 21
7269405.209071
 31
0.0
210
0.0
220
0.0
230
1.0
  0
ENDSEC
  0
EOF
