  0
SECTION
  2
HEADER
  9
$ACADVER
  1
AC1009
  9
$INSBASE
 10
0.0
 20
0.0
 30
0.0
  9
$EXTMIN
 10
346674120251.88
 20
3120066205991.2168
 30
0.0
  9
$EXTMAX
 10
346674125688.27203
 20
3120066211456.9131
 30
0.0
  9
$LIMMIN
 10
0.0
 20
0.0
  9
$LIMMAX
 10
12.0
 20
9.0
  9
$ORTHOMODE
 70
     0
  9
$REGENMODE
 70
     1
  9
$FILLMODE
 70
     1
  9
$QTEXTMODE
 70
     0
  9
$MIRRTEXT
 70
     1
  9
$DRAGMODE
 70
     2
  9
$LTSCALE
 40
1.0
  9
$OSMODE
 70
     0
  9
$ATTMODE
 70
     1
  9
$TEXTSIZE
 40
0.2
  9
$TRACEWID
 40
0.05
  9
$TEXTSTYLE
  7
STANDARD
  9
$CLAYER
  8
0
  9
$CELTYPE
  6
CONTINUOUS
  9
$CECOLOR
 62
   256
  9
$DIMSCALE
 40
1.0
  9
$DIMASZ
 40
0.18
  9
$DIMEXO
 40
0.0625
  9
$DIMDLI
 40
0.38
  9
$DIMRND
 40
0.0
  9
$DIMDLE
 40
0.0
  9
$DIMEXE
 40
0.18
  9
$DIMTP
 40
0.0
  9
$DIMTM
 40
0.0
  9
$DIMTXT
 40
0.18
  9
$DIMCEN
 40
0.09
  9
$DIMTSZ
 40
0.0
  9
$DIMTOL
 70
     0
  9
$DIMLIM
 70
     0
  9
$DIMTIH
 70
     1
  9
$DIMTOH
 70
     1
  9
$DIMSE1
 70
     0
  9
$DIMSE2
 70
     0
  9
$DIMTAD
 70
     0
  9
$DIMZIN
 70
     0
  9
$DIMBLK
  1

  9
$DIMASO
 70
     1
  9
$DIMSHO
 70
     1
  9
$DIMPOST
  1

  9
$DIMAPOST
  1

  9
$DIMALT
 70
     0
  9
$DIMALTD
 70
     2
  9
$DIMALTF
 40
25.4
  9
$DIMLFAC
 40
1.0
  9
$DIMTOFL
 70
     0
  9
$DIMTVP
 40
0.0
  9
$DIMTIX
 70
     0
  9
$DIMSOXD
 70
     0
  9
$DIMSAH
 70
     0
  9
$DIMBLK1
  1

  9
$DIMBLK2
  1

  9
$DIMSTYLE
  2
STANDARD
  9
$DIMCLRD
 70
     0
  9
$DIMCLRE
 70
     0
  9
$DIMCLRT
 70
     0
  9
$DIMTFAC
 40
1.0
  9
$DIMGAP
 40
0.09
  9
$LUNITS
 70
     2
  9
$LUPREC
 70
     4
  9
$AXISMODE
 70
     0
  9
$AXISUNIT
 10
0.0
 20
0.0
  9
$SKETCHINC
 40
0.1
  9
$FILLETRAD
 40
0.0
  9
$AUNITS
 70
     0
  9
$AUPREC
 70
     0
  9
$MENU
  1
acad
  9
$ELEVATION
 40
0.0
  9
$PELEVATION
 40
0.0
  9
$THICKNESS
 40
0.0
  9
$LIMCHECK
 70
     0
  9
$BLIPMODE
 70
     1
  9
$CHAMFERA
 40
0.0
  9
$CHAMFERB
 40
0.0
  9
$SKPOLY
 70
     0
  9
$TDCREATE
 40
2453013.904074074
  9
$TDUPDATE
 40
2453013.904074074
  9
$TDINDWG
 40
0.0000000000
  9
$TDUSRTIMER
 40
0.0000000000
  9
$USRTIMER
 70
     1
  9
$ANGBASE
 50
0.0
  9
$ANGDIR
 70
     0
  9
$PDMODE
 70
     0
  9
$PDSIZE
 40
0.0
  9
$PLINEWID
 40
0.0
  9
$COORDS
 70
     0
  9
$SPLFRAME
 70
     0
  9
$SPLINETYPE
 70
     6
  9
$SPLINESEGS
 70
    10
  9
$ATTDIA
 70
     0
  9
$ATTREQ
 70
     1
  9
$HANDLING
 70
     1
  9
$HANDSEED
  5
2E8
  9
$SURFTAB1
 70
     6
  9
$SURFTAB2
 70
     6
  9
$SURFTYPE
 70
     6
  9
$SURFU
 70
     6
  9
$SURFV
 70
     6
  9
$UCSNAME
  2

  9
$UCSORG
 10
0.0
 20
0.0
 30
0.0
  9
$UCSXDIR
 10
1.0
 20
0.0
 30
0.0
  9
$UCSYDIR
 10
0.0
 20
1.0
 30
0.0
  9
$PUCSNAME
  2

  9
$PUCSORG
 10
0.0
 20
0.0
 30
0.0
  9
$PUCSXDIR
 10
1.0
 20
0.0
 30
0.0
  9
$PUCSYDIR
 10
0.0
 20
1.0
 30
0.0
  9
$USERI1
 70
     0
  9
$USERI2
 70
     0
  9
$USERI3
 70
     0
  9
$USERI4
 70
     0
  9
$USERI5
 70
     0
  9
$USERR1
 40
0.0
  9
$USERR2
 40
0.0
  9
$USERR3
 40
0.0
  9
$USERR4
 40
0.0
  9
$USERR5
 40
0.0
  9
$WORLDVIEW
 70
     1
  9
$SHADEDGE
 70
     3
  9
$SHADEDIF
 70
    70
  9
$TILEMODE
 70
     1
  9
$MAXACTVP
 70
    16
  9
$PINSBASE
 10
0.0
 20
0.0
 30
0.0
  9
$PLIMCHECK
 70
     0
  9
$PEXTMIN
 10
-1.000000E+20
 20
-1.000000E+20
 30
-1.000000E+20
  9
$PEXTMAX
 10
-1.000000E+20
 20
-1.000000E+20
 30
-1.000000E+20
  9
$PLIMMIN
 10
0.0
 20
0.0
  9
$PLIMMAX
 10
12.0
 20
9.0
  9
$UNITMODE
 70
     0
  9
$VISRETAIN
 70
     0
  9
$PLINEGEN
 70
     1
  9
$PSLTSCALE
 70
     0
  9
$TREEDEPTH
 70
  3020
  9
$DWGCODEPAGE
  3
ansi_1252
  0
ENDSEC
  0
SECTION
  2
TABLES
  0
TABLE
  2
VPORT
 70
     1
  0
VPORT
  2
*ACTIVE
 70
     0
 10
0.0
 20
0.0
 11
1.0
 21
1.0
 12
0.000042
 22
0.000254
 13
0.0
 23
0.0
 14
0.0
 24
0.0
 15
0.0
 25
0.0
 16
0.0
 26
0.0
 36
1.0
 17
346674122704.40875
 27
3120066208619.6592
 37
0.0
 40
5522.98
 41
1.205966
 42
50.0
 43
0.004
 44
0.0
 50
1.742617
 51
0.0
 71
     0
 72
   100
 73
     1
 74
     0
 75
     0
 76
     0
 77
     0
 78
     0
  0
ENDTAB
  0
TABLE
  2
LTYPE
 70
     7
  0
LTYPE
  2
CONTINUOUS
 70
     0
  3
Solid line
 72
    65
 73
     0
 40
0.0
  0
LTYPE
  2
DOT
 70
    64
  3
. . . . . . . . . . . . . . . . . . . . . . . . . . . . . . . . .
 72
    65
 73
     2
 40
0.25
 49
0.0
 49
-0.25
  0
LTYPE
  2
HIDDEN
 70
    64
  3
__ __ __ __ __ __ __ __ __ __ __ __ __ __ __ __ __ __ __ __ __ 
 72
    65
 73
     2
 40
0.375
 49
0.25
 49
-0.125
  0
LTYPE
  2
DASHED
 70
    64
  3
__ __ __ __ __ __ __ __ __ __ __ __ __ __ __ __ __ __ __ __ __
 72
    65
 73
     2
 40
0.75
 49
0.5
 49
-0.25
  0
LTYPE
  2
DASHDOT
 70
    64
  3
__ . __ . __ . __ . __ . __ . __ . __ . __ . __ . __ . __ . _
 72
    65
 73
     4
 40
1.0
 49
0.5
 49
-0.25
 49
0.0
 49
-0.25
  0
LTYPE
  2
DIVIDE
 70
    64
  3
____ . . ____ . . ____ . . ____ . . ____ . . ____ . . ____ . .
 72
    65
 73
     6
 40
1.25
 49
0.5
 49
-0.25
 49
0.0
 49
-0.25
 49
0.0
 49
-0.25
  0
LTYPE
  2
CENTER
 70
    64
  3
____ _ ____ _ ____ _ ____ _ ____ _ ____ _ ____ _ ____ _ ____ _
 72
    65
 73
     4
 40
2.0
 49
1.25
 49
-0.25
 49
0.25
 49
-0.25
  0
ENDTAB
  0
TABLE
  2
LAYER
 70
    17
  0
LAYER
  2
0
 70
     0
 62
     7
  6
CONTINUOUS
  0
LAYER
  2
CONSTRUCTION_CLASS
 70
     1
 62
     7
  6
CONTINUOUS
  0
LAYER
  2
PATTERN_CLASS
 70
     0
 62
     7
  6
CONTINUOUS
  0
LAYER
  2
6
 70
    64
 62
     7
  6
CONTINUOUS
  0
LAYER
  2
7
 70
    64
 62
     7
  6
CONTINUOUS
  0
LAYER
  2
27
 70
    64
 62
     7
  6
CONTINUOUS
  0
LAYER
  2
10
 70
    64
 62
     7
  6
CONTINUOUS
  0
LAYER
  2
11
 70
    64
 62
     7
  6
CONTINUOUS
  0
LAYER
  2
DEFPOINTS
 70
    64
 62
     7
  6
CONTINUOUS
  0
LAYER
  2
19
 70
    64
 62
     7
  6
CONTINUOUS
  0
LAYER
  2
15
 70
    64
 62
     7
  6
CONTINUOUS
  0
LAYER
  2
1
 70
    64
 62
     7
  6
CONTINUOUS
  0
LAYER
  2
14
 70
    64
 62
     7
  6
CONTINUOUS
  0
LAYER
  2
22
 70
    64
 62
     7
  6
CONTINUOUS
  0
LAYER
  2
21
 70
    64
 62
     7
  6
CONTINUOUS
  0
LAYER
  2
13
 70
    64
 62
     7
  6
CONTINUOUS
  0
LAYER
  2
28
 70
    64
 62
     7
  6
CONTINUOUS
  0
ENDTAB
  0
TABLE
  2
STYLE
 70
     4
  0
STYLE
  2
STANDARD
 70
     0
 40
0.0
 41
1.0
 50
0.0
 71
     0
 42
0.0
  3
txt
  4

  0
STYLE
  2
ROMANS
 70
     0
 40
0.2
 41
1.0
 50
0.0
 71
     0
 42
0.2
  3
ROMANS
  4

  0
STYLE
  2
ROMANC
 70
     0
 40
0.2
 41
1.0
 50
0.0
 71
     0
 42
0.2
  3
ROMANC
  4

  0
STYLE
  2
txt
 70
     0
 40
0.2
 41
1.0
 50
0.0
 71
     0
 42
0.2
  3
TXT
  4

  0
ENDTAB
  0
TABLE
  2
VIEW
 70
     0
  0
ENDTAB
  0
TABLE
  2
UCS
 70
     0
  0
ENDTAB
  0
TABLE
  2
APPID
 70
     1
  0
APPID
  2
ACAD
 70
     0
  0
ENDTAB
  0
TABLE
  2
DIMSTYLE
 70
     2
  0
DIMSTYLE
  2
STANDARD
 70
     0
  3

  4

  5

  6

  7

 40
1.0
 41
0.18
 42
0.0625
 43
0.38
 44
0.18
 45
0.0
 46
0.0
 47
0.0
 48
0.0
140
0.18
141
0.09
142
0.0
143
25.4
144
1.0
145
0.0
146
1.0
147
0.09
 71
     0
 72
     0
 73
     1
 74
     1
 75
     0
 76
     0
 77
     0
 78
     0
170
     0
171
     2
172
     0
173
     0
174
     0
175
     0
176
     0
177
     0
178
     0
  0
DIMSTYLE
  2
MSADIM
 70
     0
  3

  4

  5

  6

  7

 40
1.0
 41
8.0
 42
4.0
 43
0.0
 44
4.0
 45
0.0
 46
0.0
 47
0.0
 48
0.0
140
8.0
141
4.0
142
0.0
143
25.4
144
1.0
145
4.0
146
1.0
147
4.0
 71
     0
 72
     0
 73
     1
 74
     1
 75
     1
 76
     1
 77
     0
 78
     2
170
     0
171
     2
172
     0
173
     0
174
     0
175
     0
176
     0
177
     0
178
     0
  0
ENDTAB
  0
ENDSEC
  0
SECTION
  2
BLOCKS
  0
BLOCK
  8
11
  6
CONTINUOUS
 62
     7
  5
BD
  2
*D0
 70
     1
 10
0.0
 20
0.0
 30
0.0
  3
*N0
  0
TEXT
  8
11
  6
CONTINUOUS
 62
     7
  5
BE
 10
346674120453.97504
 20
3120066210974.4648
 30
0.0
 40
8.0
  1
S04%%d55'46.42"W
 50
85.070439
  7
ROMANS
 72
     1
 11
346674120450.71912
 21
3120066211029.8135
 31
0.0
210
0.0
220
0.0
230
1.0
 73
     3
  0
TEXT
  8
11
  6
CONTINUOUS
 62
     7
  5
BF
 10
346674120441.60303
 20
3120066211017.2168
 30
0.0
 40
8.0
  1
182'
 50
85.070439
  7
ROMANS
 72
     1
 11
346674120442.74878
 21
3120066211030.5005
 31
0.0
210
0.0
220
0.0
230
1.0
  0
ENDBLK
  8
11
  6
CONTINUOUS
 62
     7
  5
C0
  0
ENDSEC
  0
SECTION
  2
ENTITIES
  0
ARC
  8
6
  6
CONTINUOUS
 62
     7
  5
29
 10
346674123962.44678
 20
3120066208123.9712
 30
0.0
 40
1579.058417
 50
269.152067
 51
279.383542
210
0.0
220
0.0
230
1.0
  0
ARC
  8
6
  6
CONTINUOUS
 62
     7
  5
2A
 10
346674123962.44678
 20
3120066208123.9712
 30
0.0
 40
1639.058417
 50
271.312331
 51
278.256406
210
0.0
220
0.0
230
1.0
  0
LINE
  8
6
  6
CONTINUOUS
 62
     7
  5
2B
 10
346674121652.69904
 20
3120066206158.604
 30
0.0
 11
346674121393.64301
 21
3120066206166.9619
 31
0.0
  0
LINE
  8
6
  6
CONTINUOUS
 62
     7
  5
2C
 10
346674120449.62604
 20
3120066210523.3872
 30
0.0
 11
346674120463.49005
 21
3120066210953.1621
 31
0.0
  0
LINE
  8
7
  6
CONTINUOUS
 62
     7
  5
2E
 10
346674120481.86804
 20
3120066211212.7061
 30
0.0
 11
346674120616.79803
 21
3120066211208.3521
 31
0.0
  0
LINE
  8
7
  6
CONTINUOUS
 62
     7
  5
2F
 10
346674120616.79803
 20
3120066211208.3521
 30
0.0
 11
346674120621.84302
 21
3120066211364.7329
 31
0.0
  0
LINE
  8
6
  6
CONTINUOUS
 62
     7
  5
30
 10
346674120486.91101
 20
3120066211369.085
 30
0.0
 11
346674120479.354
 21
3120066211134.7461
 31
0.0
  0
LINE
  8
6
  6
CONTINUOUS
 62
     7
  5
31
 10
346674120479.354
 20
3120066211134.7461
 30
0.0
 11
346674120463.49005
 21
3120066210953.1621
 31
0.0
  0
LINE
  8
27
  6
CONTINUOUS
 62
    32
  5
33
 10
346674120265.91803
 20
3120066206459.5039
 30
0.0
 11
346674121183.44403
 21
3120066206130.731
 31
0.0
  0
TEXT
  8
10
  6
CONTINUOUS
 62
   134
  5
36
 10
346674121041.41504
 20
3120066211277.1919
 30
0.0
 40
13.999
  1
1
 50
358.2152
  7
ROMANS
 11
346674121041.85101
 21
3120066211291.1841
 31
0.0
210
0.0
220
0.0
230
1.0
 73
     3
  0
TEXT
  8
10
  6
CONTINUOUS
 62
   134
  5
37
 10
346674120654.64905
 20
3120066210865.9331
 30
0.0
 40
13.999
  1
1
 50
358.2152
  7
ROMANS
 11
346674120655.08502
 21
3120066210879.9253
 31
0.0
210
0.0
220
0.0
230
1.0
 73
     3
  0
TEXT
  8
10
  6
CONTINUOUS
 62
   134
  5
38
 10
346674122486.38806
 20
3120066208620.2539
 30
0.0
 40
13.999
  1
1
 50
358.2152
  7
ROMANS
 11
346674122486.82404
 21
3120066208634.2461
 31
0.0
210
0.0
220
0.0
230
1.0
 73
     3
  0
TEXT
  8
10
  6
CONTINUOUS
 62
   134
  5
39
 10
346674123790.15302
 20
3120066206153.6191
 30
0.0
 40
13.999
  1
1
 50
358.2152
  7
ROMANS
 11
346674123790.58905
 21
3120066206167.6113
 31
0.0
210
0.0
220
0.0
230
1.0
 73
     3
  0
TEXT
  8
10
  6
CONTINUOUS
 62
   134
  5
3A
 10
346674123794.46301
 20
3120066206291.938
 30
0.0
 40
13.999
  1
2
 50
358.2152
  7
ROMANS
 11
346674123794.89905
 21
3120066206305.9302
 31
0.0
210
0.0
220
0.0
230
1.0
 73
     3
  0
TEXT
  8
10
  6
CONTINUOUS
 62
   134
  5
3B
 10
346674123799.75903
 20
3120066206422.938
 30
0.0
 40
13.999
  1
3
 50
358.2152
  7
ROMANS
 11
346674123800.19507
 21
3120066206436.9302
 31
0.0
210
0.0
220
0.0
230
1.0
 73
     3
  0
TEXT
  8
10
  6
CONTINUOUS
 62
   134
  5
3C
 10
346674124068.86206
 20
3120066206412.124
 30
0.0
 40
13.999
  1
4
 50
358.2152
  7
ROMANS
 11
346674124069.29803
 21
3120066206426.1162
 31
0.0
210
0.0
220
0.0
230
1.0
 73
     3
  0
TEXT
  8
10
  6
CONTINUOUS
 62
   134
  5
3D
 10
346674124067.12805
 20
3120066206278.583
 30
0.0
 40
13.999
  1
5
 50
358.2152
  7
ROMANS
 11
346674124067.56403
 21
3120066206292.5752
 31
0.0
210
0.0
220
0.0
230
1.0
 73
     3
  0
TEXT
  8
10
  6
CONTINUOUS
 62
   134
  5
3E
 10
346674124065.35602
 20
3120066206143.8291
 30
0.0
 40
13.999
  1
6
 50
358.2152
  7
ROMANS
 11
346674124065.79205
 21
3120066206157.8213
 31
0.0
210
0.0
220
0.0
230
1.0
 73
     3
  0
TEXT
  8
10
  6
CONTINUOUS
 62
   134
  5
3F
 10
346674125367.43805
 20
3120066206710.9321
 30
0.0
 40
13.999
  1
1
 50
358.2152
  7
ROMANS
 11
346674125367.87402
 21
3120066206724.9243
 31
0.0
210
0.0
220
0.0
230
1.0
 73
     3
  0
TEXT
  8
10
  6
CONTINUOUS
 62
   134
  5
40
 10
346674125370.79602
 20
3120066206859.9248
 30
0.0
 40
13.999
  1
2
 50
358.2152
  7
ROMANS
 11
346674125371.23206
 21
3120066206873.917
 31
0.0
210
0.0
220
0.0
230
1.0
 73
     3
  0
TEXT
  8
10
  6
CONTINUOUS
 62
   134
  5
41
 10
346674125377.05603
 20
3120066207012.7578
 30
0.0
 40
13.999
  1
3
 50
358.2152
  7
ROMANS
 11
346674125377.49207
 21
3120066207026.75
 31
0.0
210
0.0
220
0.0
230
1.0
 73
     3
  0
TEXT
  8
10
  6
CONTINUOUS
 62
   134
  5
42
 10
346674125380.24701
 20
3120066207163.2568
 30
0.0
 40
13.999
  1
4
 50
358.2152
  7
ROMANS
 11
346674125380.68304
 21
3120066207177.249
 31
0.0
210
0.0
220
0.0
230
1.0
 73
     3
  0
TEXT
  8
10
  6
CONTINUOUS
 62
   134
  5
43
 10
346674125384.755
 20
3120066207307.9268
 30
0.0
 40
13.999
  1
5
 50
358.2152
  7
ROMANS
 11
346674125385.19104
 21
3120066207321.9189
 31
0.0
210
0.0
220
0.0
230
1.0
 73
     3
  0
TEXT
  8
10
  6
CONTINUOUS
 62
   134
  5
44
 10
346674125389.51904
 20
3120066207460.8062
 30
0.0
 40
13.999
  1
6
 50
358.2152
  7
ROMANS
 11
346674125389.95502
 21
3120066207474.7983
 31
0.0
210
0.0
220
0.0
230
1.0
 73
     3
  0
TEXT
  8
10
  6
CONTINUOUS
 62
   134
  5
45
 10
346674125392.99103
 20
3120066207608.8672
 30
0.0
 40
13.999
  1
7
 50
358.2152
  7
ROMANS
 11
346674125393.42706
 21
3120066207622.8594
 31
0.0
210
0.0
220
0.0
230
1.0
 73
     3
  0
ARC
  8
6
  6
CONTINUOUS
 62
     7
  5
46
 10
346674123914.30023
 20
3120066206470.8462
 30
0.0
 40
15.0
 50
358.1523
 51
88.1523
210
0.0
220
0.0
230
1.0
  0
ARC
  8
6
  6
CONTINUOUS
 62
     7
  5
47
 10
346674124000.32886
 20
3120066206470.3467
 30
0.0
 40
15.0
 50
91.312331
 51
178.1523
210
0.0
220
0.0
230
1.0
  0
ARC
  8
6
  6
CONTINUOUS
 62
     7
  5
48
 10
346674123902.37036
 20
3120066206101.0386
 30
0.0
 40
15.0
 50
268.1523
 51
358.1523
210
0.0
220
0.0
230
1.0
  0
ARC
  8
6
  6
CONTINUOUS
 62
     7
  5
49
 10
346674123988.32562
 20
3120066206098.2656
 30
0.0
 40
15.0
 50
178.1523
 51
268.1523
210
0.0
220
0.0
230
1.0
  0
ARC
  8
6
  6
CONTINUOUS
 62
     7
  5
4A
 10
346674120340.62793
 20
3120066206961.3057
 30
0.0
 40
15.0
 50
88.1523
 51
178.1523
210
0.0
220
0.0
230
1.0
  0
ARC
  8
6
  6
CONTINUOUS
 62
     7
  5
4B
 10
346674120328.69403
 20
3120066206235.5132
 30
0.0
 40
30.0
 50
178.1754
 51
268.1754
210
0.0
220
0.0
230
1.0
  0
TEXT
  8
10
  6
CONTINUOUS
 62
   134
  5
4C
 10
346674120633.97705
 20
3120066206684.873
 30
0.0
 40
13.999
  1
 B
 50
358.2152
  7
ROMANS
 11
346674120634.41302
 21
3120066206698.8652
 31
0.0
210
0.0
220
0.0
230
1.0
 73
     3
  0
TEXT
  8
10
  6
CONTINUOUS
 62
   134
  5
4D
 10
346674120396.66003
 20
3120066206257.9551
 30
0.0
 40
13.999
  1
 C
 50
358.2152
  7
ROMANS
 11
346674120397.09607
 21
3120066206271.9473
 31
0.0
210
0.0
220
0.0
230
1.0
 73
     3
  0
TEXT
  8
10
  6
CONTINUOUS
 62
   134
  5
4E
 10
346674121330.57605
 20
3120066206574.436
 30
0.0
 40
13.999
  1
 A
 50
358.2152
  7
ROMANS
 11
346674121331.01202
 21
3120066206588.4282
 31
0.0
210
0.0
220
0.0
230
1.0
 73
     3
  0
LINE
  8
6
  6
CONTINUOUS
 62
     7
  5
4F
 10
346674125526.64203
 20
3120066207684.4912
 30
0.0
 11
346674125541.63403
 21
3120066207684.0068
 31
0.0
  0
LINE
  8
6
  6
CONTINUOUS
 62
     7
  5
50
 10
346674125492.78705
 20
3120066206635.0371
 30
0.0
 11
346674125507.77905
 21
3120066206634.5527
 31
0.0
  0
LINE
  8
6
  6
CONTINUOUS
 62
     7
  5
51
 10
346674125526.64203
 20
3120066207684.4912
 30
0.0
 11
346674125492.78705
 21
3120066206635.0371
 31
0.0
  0
LINE
  8
7
  6
CONTINUOUS
 62
     7
  5
52
 10
346674125316.33105
 20
3120066207691.2759
 30
0.0
 11
346674125526.64203
 21
3120066207684.4912
 31
0.0
  0
LINE
  8
7
  6
CONTINUOUS
 62
     7
  5
53
 10
346674125272.48102
 20
3120066206642.144
 30
0.0
 11
346674125492.78705
 21
3120066206635.0371
 31
0.0
  0
LINE
  8
7
  6
CONTINUOUS
 62
     7
  5
54
 10
346674125497.62305
 20
3120066206784.958
 30
0.0
 11
346674125277.31805
 21
3120066206792.0649
 31
0.0
  0
LINE
  8
7
  6
CONTINUOUS
 62
     7
  5
55
 10
346674125502.46002
 20
3120066206934.8799
 30
0.0
 11
346674125282.15503
 21
3120066206941.9868
 31
0.0
  0
LINE
  8
7
  6
CONTINUOUS
 62
     7
  5
56
 10
346674125507.29602
 20
3120066207084.8018
 30
0.0
 11
346674125286.99103
 21
3120066207091.9102
 31
0.0
  0
LINE
  8
7
  6
CONTINUOUS
 62
     7
  5
57
 10
346674125512.13306
 20
3120066207234.7251
 30
0.0
 11
346674125291.82806
 21
3120066207241.8311
 31
0.0
  0
LINE
  8
7
  6
CONTINUOUS
 62
     7
  5
58
 10
346674125516.96802
 20
3120066207384.647
 30
0.0
 11
346674125296.66302
 21
3120066207391.7529
 31
0.0
  0
LINE
  8
7
  6
CONTINUOUS
 62
     7
  5
59
 10
346674125521.80505
 20
3120066207534.5688
 30
0.0
 11
346674125301.49902
 21
3120066207541.6748
 31
0.0
  0
LINE
  8
7
  6
CONTINUOUS
 62
     7
  5
5A
 10
346674125272.48102
 20
3120066206642.144
 30
0.0
 11
346674125306.01404
 21
3120066207681.603
 31
0.0
  0
LINE
  8
7
  6
CONTINUOUS
 62
     7
  5
5B
 10
346674125306.01404
 20
3120066207681.603
 30
0.0
 11
346674125316.33105
 21
3120066207691.2759
 31
0.0
  0
LINE
  8
6
  6
CONTINUOUS
 62
     7
  5
5C
 10
346674121941.15906
 20
3120066211322.1719
 30
0.0
 11
346674122740.74304
 21
3120066211296.3789
 31
0.0
  0
LINE
  8
6
  6
CONTINUOUS
 62
     7
  5
5D
 10
346674122718.65405
 20
3120066208750.7671
 30
0.0
 11
346674122800.71106
 21
3120066211294.4438
 31
0.0
  0
LINE
  8
6
  6
CONTINUOUS
 62
     7
  5
5E
 10
346674122658.68402
 20
3120066208752.7012
 30
0.0
 11
346674122740.74304
 21
3120066211296.3789
 31
0.0
  0
LINE
  8
6
  6
CONTINUOUS
 62
     7
  5
5F
 10
346674121859.13202
 20
3120066208779.4951
 30
0.0
 11
346674121941.15906
 21
3120066211322.1719
 31
0.0
  0
LINE
  8
6
  6
CONTINUOUS
 62
     7
  5
60
 10
346674121797.19702
 20
3120066208720.4609
 30
0.0
 11
346674121879.42102
 21
3120066211324.1641
 31
0.0
  0
LINE
  8
6
  6
CONTINUOUS
 62
     7
  5
61
 10
346674121859.10101
 20
3120066208778.4961
 30
0.0
 11
346674122658.68402
 21
3120066208752.7012
 31
0.0
  0
LINE
  8
6
  6
CONTINUOUS
 62
     7
  5
62
 10
346674124727.64105
 20
3120066208686.958
 30
0.0
 11
346674124809.66602
 21
3120066211229.6357
 31
0.0
  0
LINE
  8
6
  6
CONTINUOUS
 62
     7
  5
63
 10
346674122718.65405
 20
3120066208750.7671
 30
0.0
 11
346674124727.60901
 21
3120066208685.959
 31
0.0
  0
LINE
  8
6
  6
CONTINUOUS
 62
     7
  5
64
 10
346674124869.63501
 20
3120066211227.7012
 30
0.0
 11
346674125659.22406
 21
3120066211202.228
 31
0.0
  0
LINE
  8
6
  6
CONTINUOUS
 62
     7
  5
65
 10
346674123684.37103
 20
3120066206093.062
 30
0.0
 11
346674123699.20404
 21
3120066206552.8228
 31
0.0
  0
LINE
  8
6
  6
CONTINUOUS
 62
     7
  5
66
 10
346674123704.36206
 20
3120066206092.4189
 30
0.0
 11
346674123717.25806
 21
3120066206492.2109
 31
0.0
  0
LINE
  8
6
  6
CONTINUOUS
 62
     7
  5
67
 10
346674123917.36206
 20
3120066206100.5552
 30
0.0
 11
346674123929.29205
 21
3120066206470.3628
 31
0.0
  0
LINE
  8
6
  6
CONTINUOUS
 62
     7
  5
68
 10
346674123973.33301
 20
3120066206098.75
 30
0.0
 11
346674123985.33704
 21
3120066206470.8311
 31
0.0
  0
LINE
  8
6
  6
CONTINUOUS
 62
     7
  5
69
 10
346674124184.11206
 20
3120066206076.9419
 30
0.0
 11
346674124197.82001
 21
3120066206501.8999
 31
0.0
  0
LINE
  8
6
  6
CONTINUOUS
 62
     7
  5
6A
 10
346674124204.10205
 20
3120066206076.2969
 30
0.0
 11
346674124219.90002
 21
3120066206566.042
 31
0.0
  0
LINE
  8
6
  6
CONTINUOUS
 62
     7
  5
6B
 10
346674123699.20404
 20
3120066206552.8228
 30
0.0
 11
346674123939.07904
 21
3120066206545.0859
 31
0.0
  0
LINE
  8
6
  6
CONTINUOUS
 62
     7
  5
6C
 10
346674123717.25806
 20
3120066206492.2109
 30
0.0
 11
346674123914.78406
 21
3120066206485.8379
 31
0.0
  0
LINE
  8
6
  6
CONTINUOUS
 62
     7
  5
6D
 10
346674123704.36206
 20
3120066206092.4189
 30
0.0
 11
346674123901.88702
 21
3120066206086.0459
 31
0.0
  0
LINE
  8
6
  6
CONTINUOUS
 62
     7
  5
6E
 10
346674123987.84204
 20
3120066206083.2739
 30
0.0
 11
346674124184.11206
 21
3120066206076.9419
 31
0.0
  0
LINE
  8
6
  6
CONTINUOUS
 62
     7
  5
6F
 10
346674124204.10205
 20
3120066206076.2969
 30
0.0
 11
346674125488.43402
 21
3120066206034.8647
 31
0.0
  0
LINE
  8
6
  6
CONTINUOUS
 62
     7
  5
70
 10
346674121043.61603
 20
3120066206135.1851
 30
0.0
 11
346674120264.47101
 21
3120066206414.104
 31
0.0
  0
LINE
  8
6
  6
CONTINUOUS
 62
     7
  5
71
 10
346674120298.70905
 20
3120066206236.4678
 30
0.0
 11
346674120303.91803
 21
3120066206399.9829
 31
0.0
  0
LINE
  8
6
  6
CONTINUOUS
 62
     7
  5
72
 10
346674120327.73804
 20
3120066206205.5278
 30
0.0
 11
346674120535.55304
 21
3120066206198.9092
 31
0.0
  0
LINE
  8
6
  6
CONTINUOUS
 62
     7
  5
73
 10
346674120735.33606
 20
3120066206185.2471
 30
0.0
 11
346674120535.55304
 21
3120066206198.9092
 31
0.0
  0
LINE
  8
6
  6
CONTINUOUS
 62
     7
  5
74
 10
346674120735.33606
 20
3120066206185.2471
 30
0.0
 11
346674120920.22205
 21
3120066206179.3579
 31
0.0
  0
LINE
  8
6
  6
CONTINUOUS
 62
     7
  5
75
 10
346674120269.82001
 20
3120066206582.0088
 30
0.0
 11
346674121570.12305
 21
3120066206118.4121
 31
0.0
  0
LINE
  8
6
  6
CONTINUOUS
 62
     7
  5
76
 10
346674120341.11102
 20
3120066206976.2969
 30
0.0
 11
346674121677.68701
 21
3120066206933.1802
 31
0.0
  0
LINE
  8
6
  6
CONTINUOUS
 62
     7
  5
77
 10
346674120312.88904
 20
3120066206566.6538
 30
0.0
 11
346674120325.63605
 21
3120066206961.79
 31
0.0
  0
LINE
  8
6
  6
CONTINUOUS
 62
     7
  5
78
 10
346674120323.64606
 20
3120066207006.876
 30
0.0
 11
346674121056.68701
 21
3120066206983.229
 31
0.0
  0
LINE
  8
7
  6
CONTINUOUS
 62
     7
  5
79
 10
346674121034.94403
 20
3120066206309.2187
 30
0.0
 11
346674121055.72003
 21
3120066206953.2451
 31
0.0
  0
LINE
  8
6
  6
CONTINUOUS
 62
     7
  5
7A
 10
346674121056.68701
 20
3120066206983.229
 30
0.0
 11
346674121723.63
 21
3120066206961.7139
 31
0.0
  0
LINE
  8
6
  6
CONTINUOUS
 62
     7
  5
7B
 10
346674121723.63
 20
3120066206961.7139
 30
0.0
 11
346674121697.67603
 21
3120066206157.1538
 31
0.0
  0
LINE
  8
6
  6
CONTINUOUS
 62
     7
  5
7C
 10
346674121692.19501
 20
3120066206917.7051
 30
0.0
 11
346674121668.17401
 21
3120066206173.1128
 31
0.0
  0
ARC
  8
6
  6
CONTINUOUS
 62
     7
  5
7D
 10
346674121677.20264
 20
3120066206918.188
 30
0.0
 40
15.0
 50
358.1523
 51
88.1523
210
0.0
220
0.0
230
1.0
  0
ARC
  8
6
  6
CONTINUOUS
 62
     7
  5
7E
 10
346674121653.18237
 20
3120066206173.5967
 30
0.0
 40
15.0
 50
268.1523
 51
358.1523
210
0.0
220
0.0
230
1.0
  0
LINE
  8
6
  6
CONTINUOUS
 62
     7
  5
7F
 10
346674121697.67603
 20
3120066206157.1538
 30
0.0
 11
346674123684.37103
 21
3120066206093.062
 31
0.0
  0
LINE
  8
7
  6
CONTINUOUS
 62
     7
  5
80
 10
346674124192.81805
 20
3120066206346.8008
 30
0.0
 11
346674123981.55505
 21
3120066206353.6172
 31
0.0
  0
LINE
  8
7
  6
CONTINUOUS
 62
     7
  5
81
 10
346674124188.62506
 20
3120066206216.8691
 30
0.0
 11
346674123977.36401
 21
3120066206223.6841
 31
0.0
  0
LINE
  8
7
  6
CONTINUOUS
 62
     7
  5
82
 10
346674123925.58502
 20
3120066206355.4219
 30
0.0
 11
346674123713.06702
 21
3120066206362.2788
 31
0.0
  0
LINE
  8
7
  6
CONTINUOUS
 62
     7
  5
83
 10
346674123921.39301
 20
3120066206225.4897
 30
0.0
 11
346674123708.87506
 21
3120066206232.3452
 31
0.0
  0
LINE
  8
6
  6
CONTINUOUS
 62
     7
  5
84
 10
346674125488.43402
 20
3120066206034.8647
 30
0.0
 11
346674125507.77905
 21
3120066206634.5527
 31
0.0
  0
LINE
  8
6
  6
CONTINUOUS
 62
     7
  5
85
 10
346674125541.63403
 20
3120066207684.0068
 30
0.0
 11
346674125570.81506
 21
3120066208588.5361
 31
0.0
  0
LINE
  8
6
  6
CONTINUOUS
 62
     7
  5
86
 10
346674121797.19604
 20
3120066208720.4619
 30
0.0
 11
346674125575.23303
 21
3120066208598.583
 31
0.0
  0
LINE
  8
7
  6
CONTINUOUS
 62
     7
  5
87
 10
346674122646.755
 20
3120066208693.0562
 30
0.0
 11
346674122642.56305
 21
3120066208563.1221
 31
0.0
  0
LINE
  8
7
  6
CONTINUOUS
 62
     7
  5
88
 10
346674122371.89905
 20
3120066208701.9219
 30
0.0
 11
346674122367.70703
 21
3120066208571.9888
 31
0.0
  0
LINE
  8
7
  6
CONTINUOUS
 62
     7
  5
89
 10
346674122367.70703
 20
3120066208571.9888
 30
0.0
 11
346674122642.56305
 21
3120066208563.1221
 31
0.0
  0
LINE
  8
7
  6
CONTINUOUS
 62
     7
  5
8A
 10
346674120436.63702
 20
3120066210523.8062
 30
0.0
 11
346674120964.35901
 21
3120066210506.7808
 31
0.0
  0
LINE
  8
7
  6
CONTINUOUS
 62
     7
  5
8B
 10
346674120894.39404
 20
3120066210509.0381
 30
0.0
 11
346674120921.68805
 21
3120066211355.0601
 31
0.0
  0
LINE
  8
7
  6
CONTINUOUS
 62
     7
  5
8C
 10
346674120964.35901
 20
3120066210506.7808
 30
0.0
 11
346674120991.65106
 21
3120066211352.8027
 31
0.0
  0
LINE
  8
7
  6
CONTINUOUS
 62
     7
  5
8D
 10
346674120986.49103
 20
3120066211192.8857
 30
0.0
 11
346674121081.44202
 21
3120066211189.8228
 31
0.0
  0
LINE
  8
7
  6
CONTINUOUS
 62
     7
  5
8E
 10
346674121083.05402
 20
3120066211239.7969
 30
0.0
 11
346674121168.01001
 21
3120066211237.0571
 31
0.0
  0
LINE
  8
7
  6
CONTINUOUS
 62
     7
  5
8F
 10
346674121168.01001
 20
3120066211237.0571
 30
0.0
 11
346674121171.55603
 21
3120066211347.0
 31
0.0
  0
LINE
  8
7
  6
CONTINUOUS
 62
     7
  5
90
 10
346674121081.44202
 20
3120066211189.8228
 30
0.0
 11
346674121083.05402
 21
3120066211239.7969
 31
0.0
  0
LINE
  8
6
  6
CONTINUOUS
 62
     7
  5
91
 10
346674122800.71106
 20
3120066211294.4438
 30
0.0
 11
346674124809.66602
 21
3120066211229.6357
 31
0.0
  0
TEXT
  8
10
  6
CONTINUOUS
 62
   134
  5
92
 10
346674124764.43304
 20
3120066206331.3027
 30
0.0
 40
13.999
  1
UNSUBDIVIDED
 50
358.2152
  7
ROMANS
 11
346674124764.86902
 21
3120066206345.2954
 31
0.0
210
0.0
220
0.0
230
1.0
 73
     3
  0
TEXT
  8
10
  6
CONTINUOUS
 62
   134
  5
93
 10
346674125129.80304
 20
3120066210549.1641
 30
0.0
 40
13.999
  1
UNSUBDIVIDED
 50
358.2152
  7
ROMANS
 11
346674125130.23901
 21
3120066210563.1562
 31
0.0
210
0.0
220
0.0
230
1.0
 73
     3
  0
TEXT
  8
10
  6
CONTINUOUS
 62
   134
  5
94
 10
346674123157.89001
 20
3120066209739.7568
 30
0.0
 40
13.999
  1
UNSUBDIVIDED
 50
358.2152
  7
ROMANS
 11
346674123158.32605
 21
3120066209753.749
 31
0.0
210
0.0
220
0.0
230
1.0
 73
     3
  0
TEXT
  8
10
  6
CONTINUOUS
 62
   134
  5
95
 10
346674122191.41302
 20
3120066209167.6611
 30
0.0
 40
13.999
  1
UNSUBDIVIDED
 50
358.2152
  7
ROMANS
 11
346674122191.84906
 21
3120066209181.6533
 31
0.0
210
0.0
220
0.0
230
1.0
 73
     3
  0
TEXT
  8
10
  6
CONTINUOUS
 62
   134
  5
96
 10
346674122235.53302
 20
3120066210583.5278
 30
0.0
 40
13.999
  1
UNSUBDIVIDED
 50
358.2152
  7
ROMANS
 11
346674122235.96906
 21
3120066210597.52
 31
0.0
210
0.0
220
0.0
230
1.0
 73
     3
  0
TEXT
  8
10
  6
CONTINUOUS
 62
   134
  5
97
 10
346674120915.35602
 20
3120066209869.7119
 30
0.0
 40
13.999
  1
UNSUBDIVIDED
 50
358.2152
  7
ROMANS
 11
346674120915.79205
 21
3120066209883.7041
 31
0.0
210
0.0
220
0.0
230
1.0
 73
     3
  0
TEXT
  8
10
  6
CONTINUOUS
 62
   134
  5
98
 10
346674120990.43201
 20
3120066207552.9419
 30
0.0
 40
13.999
  1
UNSUBDIVIDED
 50
358.2152
  7
ROMANS
 11
346674120990.86804
 21
3120066207566.9341
 31
0.0
210
0.0
220
0.0
230
1.0
 73
     3
  0
TEXT
  8
10
  6
CONTINUOUS
 62
   134
  5
99
 10
346674122616.59705
 20
3120066206484.3618
 30
0.0
 40
13.999
  1
UNSUBDIVIDED
 50
358.2152
  7
ROMANS
 11
346674122617.03302
 21
3120066206498.354
 31
0.0
210
0.0
220
0.0
230
1.0
 73
     3
  0
TEXT
  8
10
  6
CONTINUOUS
 62
   134
  5
9A
 10
346674123869.14905
 20
3120066207995.6831
 30
0.0
 40
13.999
  1
UNSUBDIVIDED
 50
358.2152
  7
ROMANS
 11
346674123869.58502
 21
3120066208009.6753
 31
0.0
210
0.0
220
0.0
230
1.0
 73
     3
  0
LINE
  8
6
  6
CONTINUOUS
 62
     7
  5
9B
 10
346674120486.91101
 20
3120066211369.085
 30
0.0
 11
346674121879.42102
 21
3120066211324.1641
 31
0.0
  0
TEXT
  8
11
  6
CONTINUOUS
 62
     7
  5
9D
 10
346674124849.16803
 20
3120066210955.3301
 30
0.0
 40
8.0
  1
530'
 50
88.2152
  7
ROMANS
210
0.0
220
0.0
230
1.0
  0
TEXT
  8
11
  6
CONTINUOUS
 62
     7
  5
9E
 10
346674125643.79102
 20
3120066211176.2949
 30
0.0
 40
8.0
  1
40'
 50
358.2152
  7
ROMANS
210
0.0
220
0.0
230
1.0
  0
TEXT
  8
11
  6
CONTINUOUS
 62
     7
  5
9F
 10
346674125559.40002
 20
3120066208532.5859
 30
0.0
 40
8.0
  1
40'
 50
358.2152
  7
ROMANS
210
0.0
220
0.0
230
1.0
  0
TEXT
  8
11
  6
CONTINUOUS
 62
     7
  5
A0
 10
346674125536.85803
 20
3120066207727.6528
 30
0.0
 40
8.0
  1
40'
 50
358.2152
  7
ROMANS
210
0.0
220
0.0
230
1.0
  0
TEXT
  8
11
  6
CONTINUOUS
 62
     7
  5
A1
 10
346674125527.62103
 20
3120066207663.3989
 30
0.0
 40
8.0
  1
55'
 50
358.2152
  7
ROMANS
210
0.0
220
0.0
230
1.0
  0
TEXT
  8
11
  6
CONTINUOUS
 62
     7
  5
A2
 10
346674125498.15906
 20
3120066206684.8198
 30
0.0
 40
8.0
  1
55'
 50
358.2152
  7
ROMANS
210
0.0
220
0.0
230
1.0
  0
TEXT
  8
11
  6
CONTINUOUS
 62
     7
  5
A3
 10
346674125501.14905
 20
3120066206560.8252
 30
0.0
 40
8.0
  1
40'
 50
358.2152
  7
ROMANS
210
0.0
220
0.0
230
1.0
  0
TEXT
  8
11
  6
CONTINUOUS
 62
     7
  5
A4
 10
346674125485.42505
 20
3120066206056.2339
 30
0.0
 40
8.0
  1
40'
 50
358.2152
  7
ROMANS
210
0.0
220
0.0
230
1.0
  0
TEXT
  8
11
  6
CONTINUOUS
 62
     7
  5
A5
 10
346674125439.41003
 20
3120066206005.1978
 30
0.0
 40
8.0
  1
55'
 50
88.2152
  7
ROMANS
210
0.0
220
0.0
230
1.0
  0
TEXT
  8
11
  6
CONTINUOUS
 62
     7
  5
A6
 10
346674124805.75201
 20
3120066211177.8979
 30
0.0
 40
8.0
  1
60'
 50
358.2152
  7
ROMANS
210
0.0
220
0.0
230
1.0
  0
TEXT
  8
11
  6
CONTINUOUS
 62
     7
  5
A7
 10
346674122212.24902
 20
3120066208774.9409
 30
0.0
 40
8.0
  1
800'
 50
358.2152
  7
ROMANS
210
0.0
220
0.0
230
1.0
  0
TEXT
  8
11
  6
CONTINUOUS
 62
     7
  5
A8
 10
346674125620.38403
 20
3120066211230.9067
 30
0.0
 40
8.0
  1
65'
 50
88.2152
  7
ROMANS
210
0.0
220
0.0
230
1.0
  0
TEXT
  8
11
  6
CONTINUOUS
 62
     7
  5
A9
 10
346674122703.89301
 20
3120066211316.208
 30
0.0
 40
8.0
  1
65'
 50
88.2152
  7
ROMANS
210
0.0
220
0.0
230
1.0
  0
TEXT
  8
11
  6
CONTINUOUS
 62
     7
  5
AA
 10
346674120434.30804
 20
3120066211383.981
 30
0.0
 40
8.0
  1
65'
 50
88.2152
  7
ROMANS
210
0.0
220
0.0
230
1.0
  0
TEXT
  8
11
  6
CONTINUOUS
 62
     7
  5
AB
 10
346674122661.07104
 20
3120066208759.604
 30
0.0
 40
8.0
  1
60'
 50
358.2152
  7
ROMANS
210
0.0
220
0.0
230
1.0
  0
TEXT
  8
11
  6
CONTINUOUS
 62
     7
  5
AC
 10
346674122699.71906
 20
3120066210149.9829
 30
0.0
 40
8.0
  1
60'
 50
358.2152
  7
ROMANS
210
0.0
220
0.0
230
1.0
  0
TEXT
  8
11
  6
CONTINUOUS
 62
     7
  5
AD
 10
346674121837.97003
 20
3120066210176.8359
 30
0.0
 40
8.0
  1
60'
 50
358.2152
  7
ROMANS
210
0.0
220
0.0
230
1.0
  0
TEXT
  8
11
  6
CONTINUOUS
 62
     7
  5
AE
 10
346674121874.88702
 20
3120066211275.9321
 30
0.0
 40
8.0
  1
60'
 50
358.2152
  7
ROMANS
210
0.0
220
0.0
230
1.0
  0
TEXT
  8
11
  6
CONTINUOUS
 62
     7
  5
AF
 10
346674121799.33301
 20
3120066208800.0542
 30
0.0
 40
8.0
  1
60'
 50
358.2152
  7
ROMANS
210
0.0
220
0.0
230
1.0
  0
TEXT
  8
11
  6
CONTINUOUS
 62
     7
  5
B0
 10
346674121481.42303
 20
3120066211312.4639
 30
0.0
 40
8.0
  1
708.23'
 50
358.2152
  7
ROMANS
210
0.0
220
0.0
230
1.0
  0
TEXT
  8
11
  6
CONTINUOUS
 62
     7
  5
B1
 10
346674121047.07806
 20
3120066211325.3198
 30
0.0
 40
8.0
  1
180'
 50
358.2152
  7
ROMANS
210
0.0
220
0.0
230
1.0
  0
TEXT
  8
11
  6
CONTINUOUS
 62
     7
  5
B2
 10
346674120921.16406
 20
3120066211334.083
 30
0.0
 40
8.0
  1
70'
 50
358.2152
  7
ROMANS
210
0.0
220
0.0
230
1.0
  0
TEXT
  8
11
  6
CONTINUOUS
 62
     7
  5
B3
 10
346674120740.68402
 20
3120066211332.8149
 30
0.0
 40
8.0
  1
300'
 50
358.2152
  7
ROMANS
210
0.0
220
0.0
230
1.0
  0
TEXT
  8
11
  6
CONTINUOUS
 62
     7
  5
B4
 10
346674120482.54102
 20
3120066211341.8848
 30
0.0
 40
8.0
  1
200'
 50
358.2152
  7
ROMANS
210
0.0
220
0.0
230
1.0
  0
TEXT
  8
11
  6
CONTINUOUS
 62
     7
  5
B5
 10
346674120407.84906
 20
3120066211263.4932
 30
0.0
 40
8.0
  1
156.46'
 50
88.2152
  7
ROMANS
210
0.0
220
0.0
230
1.0
  0
TEXT
  8
11
  6
CONTINUOUS
 62
     7
  5
B6
 10
346674120401.42303
 20
3120066211214.3521
 30
0.0
 40
8.0
  1
64.74'
 50
358.2152
  7
ROMANS
210
0.0
220
0.0
230
1.0
  0
TEXT
  8
11
  6
CONTINUOUS
 62
     7
  5
B7
 10
346674120503.78802
 20
3120066211207.127
 30
0.0
 40
8.0
  1
135.26'
 50
358.2152
  7
ROMANS
210
0.0
220
0.0
230
1.0
  0
TEXT
  8
11
  6
CONTINUOUS
 62
     7
  5
B8
 10
346674120469.44104
 20
3120066211161.4229
 30
0.0
 40
8.0
  1
78'
 50
88.2152
  7
ROMANS
210
0.0
220
0.0
230
1.0
  0
TEXT
  8
11
  6
CONTINUOUS
 62
     7
  5
B9
 10
346674120445.67603
 20
3120066210719.8101
 30
0.0
 40
8.0
  1
430'
 50
88.2152
  7
ROMANS
210
0.0
220
0.0
230
1.0
  0
INSERT
  8
11
  6
CONTINUOUS
 62
     7
  5
C1
  2
*D0
 10
346674120455.28503
 20
3120066211129.2959
 30
0.0
 70
     0
 71
     0
  0
TEXT
  8
11
  6
CONTINUOUS
 62
     7
  5
C2
 10
346674120413.04901
 20
3120066211171.0381
 30
0.0
 40
8.0
  1
65'
 50
358.2152
  7
ROMANS
210
0.0
220
0.0
230
1.0
  0
TEXT
  8
11
  6
CONTINUOUS
 62
     7
  5
C3
 10
346674120388.47406
 20
3120066210546.375
 30
0.0
 40
8.0
  1
55'
 50
358.2152
  7
ROMANS
210
0.0
220
0.0
230
1.0
  0
TEXT
  8
11
  6
CONTINUOUS
 62
     7
  5
C4
 10
346674120607.65503
 20
3120066211251.1147
 30
0.0
 40
8.0
  1
156.46'
 50
88.2152
  7
ROMANS
210
0.0
220
0.0
230
1.0
  0
TEXT
  8
11
  6
CONTINUOUS
 62
     7
  5
C5
 10
346674120877.44403
 20
3120066210894.1348
 30
0.0
 40
8.0
  1
846.46'
 50
88.2152
  7
ROMANS
210
0.0
220
0.0
230
1.0
  0
TEXT
  8
11
  6
CONTINUOUS
 62
     7
  5
C6
 10
346674120636.64001
 20
3120066210516.2261
 30
0.0
 40
8.0
  1
445'
 50
358.2152
  7
ROMANS
210
0.0
220
0.0
230
1.0
  0
TEXT
  8
11
  6
CONTINUOUS
 62
     7
  5
C7
 10
346674120978.11102
 20
3120066211255.667
 30
0.0
 40
8.0
  1
160'
 50
88.2152
  7
ROMANS
210
0.0
220
0.0
230
1.0
  0
TEXT
  8
11
  6
CONTINUOUS
 62
     7
  5
C8
 10
346674121138.55402
 20
3120066211255.0391
 30
0.0
 40
8.0
  1
110'
 50
88.2152
  7
ROMANS
210
0.0
220
0.0
230
1.0
  0
TEXT
  8
11
  6
CONTINUOUS
 62
     7
  5
C9
 10
346674121051.51202
 20
3120066211201.0488
 30
0.0
 40
8.0
  1
50'
 50
88.2152
  7
ROMANS
210
0.0
220
0.0
230
1.0
  0
TEXT
  8
11
  6
CONTINUOUS
 62
     7
  5
CA
 10
346674121005.15704
 20
3120066211187.8228
 30
0.0
 40
8.0
  1
95'
 50
358.2152
  7
ROMANS
210
0.0
220
0.0
230
1.0
  0
TEXT
  8
11
  6
CONTINUOUS
 62
     7
  5
CB
 10
346674121094.32104
 20
3120066211235.8311
 30
0.0
 40
8.0
  1
85'
 50
358.2152
  7
ROMANS
210
0.0
220
0.0
230
1.0
  0
TEXT
  8
11
  6
CONTINUOUS
 62
     7
  5
CC
 10
346674120387.38306
 20
3120066210626.0728
 30
0.0
 40
8.0
  1
185'
 50
88.2152
  7
ROMANS
210
0.0
220
0.0
230
1.0
  0
TEXT
  8
11
  6
CONTINUOUS
 62
     7
  5
CD
 10
346674120911.13104
 20
3120066206995.7202
 30
0.0
 40
8.0
  1
1449.81'
 50
358.2152
  7
ROMANS
210
0.0
220
0.0
230
1.0
  0
TEXT
  8
11
  6
CONTINUOUS
 62
     7
  5
CE
 10
346674120349.95905
 20
3120066206985.563
 30
0.0
 40
8.0
  1
30'
 50
88.2152
  7
ROMANS
210
0.0
220
0.0
230
1.0
  0
TEXT
  8
11
  6
CONTINUOUS
 62
     7
  5
CF
 10
346674120316.61603
 20
3120066206965.2187
 30
0.0
 40
8.0
  1
R=15'
 50
313.2152
  7
ROMANS
210
0.0
220
0.0
230
1.0
  0
TEXT
  8
11
  6
CONTINUOUS
 62
     7
  5
D0
 10
346674120662.10504
 20
3120066206950.2368
 30
0.0
 40
8.0
  1
710'
 50
358.2152
  7
ROMANS
210
0.0
220
0.0
230
1.0
  0
TEXT
  8
11
  6
CONTINUOUS
 62
     7
  5
D1
 10
346674120315.44501
 20
3120066206729.2671
 30
0.0
 40
8.0
  1
409.62'
 50
88.2152
  7
ROMANS
210
0.0
220
0.0
230
1.0
  0
TEXT
  8
11
  6
CONTINUOUS
 62
     7
  5
D2
 10
346674120275.51001
 20
3120066206932.9888
 30
0.0
 40
8.0
  1
55'
 50
358.2152
  7
ROMANS
210
0.0
220
0.0
230
1.0
  0
TEXT
  8
11
  6
CONTINUOUS
 62
     7
  5
D3
 10
346674120266.58606
 20
3120066206584.085
 30
0.0
 40
8.0
  1
55'
 50
358.2152
  7
ROMANS
210
0.0
220
0.0
230
1.0
  0
TEXT
  8
11
  6
CONTINUOUS
 62
     7
  5
D4
 10
346674121022.66101
 20
3120066206599.4038
 30
0.0
 40
8.0
  1
658.64'
 50
88.2152
  7
ROMANS
210
0.0
220
0.0
230
1.0
  0
TEXT
  8
11
  6
CONTINUOUS
 62
     7
  5
D5
 10
346674121326.83606
 20
3120066206928.6948
 30
0.0
 40
8.0
  1
625'
 50
358.2152
  7
ROMANS
210
0.0
220
0.0
230
1.0
  0
TEXT
  8
11
  6
CONTINUOUS
 62
     7
  5
D6
 10
346674121644.89203
 20
3120066206899.5581
 30
0.0
 40
8.0
  1
R=15'
 50
43.2152
  7
ROMANS
210
0.0
220
0.0
230
1.0
  0
TEXT
  8
11
  6
CONTINUOUS
 62
     7
  5
D7
 10
346674121616.76605
 20
3120066206194.4771
 30
0.0
 40
8.0
  1
R=15'
 50
313.2152
  7
ROMANS
210
0.0
220
0.0
230
1.0
  0
TEXT
  8
11
  6
CONTINUOUS
 62
     7
  5
D8
 10
346674121464.25006
 20
3120066206172.959
 30
0.0
 40
8.0
  1
264.52'
 50
358.2152
  7
ROMANS
210
0.0
220
0.0
230
1.0
  0
TEXT
  8
11
  6
CONTINUOUS
 62
     7
  5
D9
 10
346674121659.479
 20
3120066206518.4912
 30
0.0
 40
8.0
  1
745'
 50
88.2152
  7
ROMANS
210
0.0
220
0.0
230
1.0
  0
TEXT
  8
11
  6
CONTINUOUS
 62
     7
  5
DA
 10
346674121687.37604
 20
3120066206516.7432
 30
0.0
 40
8.0
  1
805'
 50
88.2152
  7
ROMANS
210
0.0
220
0.0
230
1.0
  0
TEXT
  8
11
  6
CONTINUOUS
 62
     7
  5
DB
 10
346674121659.40503
 20
3120066206195.189
 30
0.0
 40
8.0
  1
30'
 50
358.2152
  7
ROMANS
210
0.0
220
0.0
230
1.0
  0
TEXT
  8
11
  6
CONTINUOUS
 62
     7
  5
DC
 10
346674121618.74701
 20
3120066206128.2588
 30
0.0
 40
8.0
  1
55'
 50
88.2152
  7
ROMANS
210
0.0
220
0.0
230
1.0
  0
TEXT
  8
11
  6
CONTINUOUS
 62
     7
  5
DD
 10
346674121680.78101
 20
3120066206902.0659
 30
0.0
 40
8.0
  1
30'
 50
358.2152
  7
ROMANS
210
0.0
220
0.0
230
1.0
  0
TEXT
  8
11
  6
CONTINUOUS
 62
     7
  5
DE
 10
346674121648.82605
 20
3120066206945.231
 30
0.0
 40
8.0
  1
30'
 50
88.2152
  7
ROMANS
210
0.0
220
0.0
230
1.0
  0
TEXT
  8
11
  6
CONTINUOUS
 62
     7
  5
DF
 10
346674120308.57904
 20
3120066206230.1509
 30
0.0
 40
8.0
  1
R=30'
 50
43.2152
  7
ROMANS
210
0.0
220
0.0
230
1.0
  0
TEXT
  8
11
  6
CONTINUOUS
 62
     7
  5
E0
 10
346674120306.69006
 20
3120066206291.0352
 30
0.0
 40
8.0
  1
142.25'
 50
88.2152
  7
ROMANS
210
0.0
220
0.0
230
1.0
  0
TEXT
  8
11
  6
CONTINUOUS
 62
     7
  5
E1
 10
346674120295.06604
 20
3120066206483.458
 30
0.0
 40
8.0
  1
1
 50
70.325867
  7
ROMANS
 72
     1
 11
346674120295.51483
 21
3120066206484.7134
 31
0.0
210
0.0
220
0.0
230
1.0
  0
TEXT
  8
11
  6
CONTINUOUS
 62
     7
  5
E2
 10
346674120297.39703
 20
3120066206491.1641
 30
0.0
 40
8.0
  1
6
 50
70.325867
  7
ROMANS
 72
     1
 11
346674120298.24542
 21
3120066206493.5366
 31
0.0
210
0.0
220
0.0
230
1.0
  0
TEXT
  8
11
  6
CONTINUOUS
 62
     7
  5
E3
 10
346674120300.73706
 20
3120066206499.856
 30
0.0
 40
8.0
  1
0
 50
70.325867
  7
ROMANS
 72
     1
 11
346674120301.62952
 21
3120066206502.3521
 31
0.0
210
0.0
220
0.0
230
1.0
  0
TEXT
  8
11
  6
CONTINUOUS
 62
     7
  5
E4
 10
346674120303.16705
 20
3120066206506.708
 30
0.0
 40
8.0
  1
'
 50
70.325867
  7
ROMANS
 72
     1
 11
346674120303.61584
 21
3120066206507.9634
 31
0.0
210
0.0
220
0.0
230
1.0
  0
TEXT
  8
11
  6
CONTINUOUS
 62
     7
  5
E5
 10
346674120668.13605
 20
3120066206265.1777
 30
0.0
 40
8.0
  1
5
 50
70.326472
  7
ROMANS
 72
     1
 11
346674120668.92517
 21
3120066206267.3853
 31
0.0
210
0.0
220
0.0
230
1.0
  0
TEXT
  8
11
  6
CONTINUOUS
 62
     7
  5
E6
 10
346674120670.72205
 20
3120066206272.4141
 30
0.0
 40
8.0
  1
0
 50
70.326472
  7
ROMANS
 72
     1
 11
346674120671.6145
 21
3120066206274.9102
 31
0.0
210
0.0
220
0.0
230
1.0
  0
TEXT
  8
11
  6
CONTINUOUS
 62
     7
  5
E7
 10
346674120673.86102
 20
3120066206281.1929
 30
0.0
 40
8.0
  1
'
 50
70.326472
  7
ROMANS
 72
     1
 11
346674120674.31012
 21
3120066206282.4492
 31
0.0
210
0.0
220
0.0
230
1.0
  0
TEXT
  8
11
  6
CONTINUOUS
 62
     7
  5
E8
 10
346674120987.98004
 20
3120066206233.855
 30
0.0
 40
8.0
  1
1
 50
70.325867
  7
ROMANS
 72
     1
 11
346674120988.42883
 21
3120066206235.1104
 31
0.0
210
0.0
220
0.0
230
1.0
  0
TEXT
  8
11
  6
CONTINUOUS
 62
     7
  5
E9
 10
346674120990.27106
 20
3120066206240.2622
 30
0.0
 40
8.0
  1
6
 50
70.325867
  7
ROMANS
 72
     1
 11
346674120991.11945
 21
3120066206242.6348
 31
0.0
210
0.0
220
0.0
230
1.0
  0
TEXT
  8
11
  6
CONTINUOUS
 62
     7
  5
EA
 10
346674120992.92102
 20
3120066206247.6758
 30
0.0
 40
8.0
  1
0
 50
70.325867
  7
ROMANS
 72
     1
 11
346674120993.81354
 21
3120066206250.1724
 31
0.0
210
0.0
220
0.0
230
1.0
  0
TEXT
  8
11
  6
CONTINUOUS
 62
     7
  5
EB
 10
346674120996.06104
 20
3120066206256.4551
 30
0.0
 40
8.0
  1
'
 50
70.325867
  7
ROMANS
 72
     1
 11
346674120996.50983
 21
3120066206257.71
 31
0.0
210
0.0
220
0.0
230
1.0
  0
TEXT
  8
11
  6
CONTINUOUS
 62
     7
  5
EC
 10
346674120818.52301
 20
3120066206153.4629
 30
0.0
 40
8.0
  1
55'
 50
88.2152
  7
ROMANS
210
0.0
220
0.0
230
1.0
  0
TEXT
  8
11
  6
CONTINUOUS
 62
     7
  5
ED
 10
346674120257.47601
 20
3120066206252.7891
 30
0.0
 40
8.0
  1
55'
 50
358.2152
  7
ROMANS
210
0.0
220
0.0
230
1.0
  0
TEXT
  8
11
  6
CONTINUOUS
 62
     7
  5
EE
 10
346674122034.88904
 20
3120066208690.7002
 30
0.0
 40
8.0
  1
574.96'
 50
358.2152
  7
ROMANS
210
0.0
220
0.0
230
1.0
  0
TEXT
  8
11
  6
CONTINUOUS
 62
     7
  5
EF
 10
346674122480.74402
 20
3120066208679.1318
 30
0.0
 40
8.0
  1
275'
 50
358.2152
  7
ROMANS
210
0.0
220
0.0
230
1.0
  0
TEXT
  8
11
  6
CONTINUOUS
 62
     7
  5
F0
 10
346674122362.06604
 20
3120066208618.8149
 30
0.0
 40
8.0
  1
130'
 50
88.2152
  7
ROMANS
210
0.0
220
0.0
230
1.0
  0
TEXT
  8
11
  6
CONTINUOUS
 62
     7
  5
F1
 10
346674125539.98901
 20
3120066208480.1108
 30
0.0
 40
8.0
  1
210'
 50
88.2152
  7
ROMANS
210
0.0
220
0.0
230
1.0
  0
TEXT
  8
11
  6
CONTINUOUS
 62
     7
  5
F2
 10
346674125535.14404
 20
3120066208127.7378
 30
0.0
 40
8.0
  1
696'
 50
88.2152
  7
ROMANS
210
0.0
220
0.0
230
1.0
  0
TEXT
  8
11
  6
CONTINUOUS
 62
     7
  5
F3
 10
346674125294.36804
 20
3120066207689.0752
 30
0.0
 40
8.0
  1
14.14'
 50
313.2152
  7
ROMANS
210
0.0
220
0.0
230
1.0
  0
TEXT
  8
11
  6
CONTINUOUS
 62
     7
  5
F4
 10
346674125382.94006
 20
3120066207683.1138
 30
0.0
 40
8.0
  1
210.42'
 50
358.2152
  7
ROMANS
210
0.0
220
0.0
230
1.0
  0
TEXT
  8
11
  6
CONTINUOUS
 62
     7
  5
F5
 10
346674125502.18903
 20
3120066207605.2432
 30
0.0
 40
8.0
  1
150'
 50
88.2152
  7
ROMANS
210
0.0
220
0.0
230
1.0
  0
TEXT
  8
11
  6
CONTINUOUS
 62
     7
  5
F6
 10
346674125498.37805
 20
3120066207458.6211
 30
0.0
 40
8.0
  1
150'
 50
88.2152
  7
ROMANS
210
0.0
220
0.0
230
1.0
  0
TEXT
  8
11
  6
CONTINUOUS
 62
     7
  5
F7
 10
346674125492.51904
 20
3120066207303.5781
 30
0.0
 40
8.0
  1
150'
 50
88.2152
  7
ROMANS
210
0.0
220
0.0
230
1.0
  0
TEXT
  8
11
  6
CONTINUOUS
 62
     7
  5
F8
 10
346674125487.492
 20
3120066207153.9409
 30
0.0
 40
8.0
  1
150'
 50
88.2152
  7
ROMANS
210
0.0
220
0.0
230
1.0
  0
TEXT
  8
11
  6
CONTINUOUS
 62
     7
  5
F9
 10
346674125482.79205
 20
3120066207006.3428
 30
0.0
 40
8.0
  1
150'
 50
88.2152
  7
ROMANS
210
0.0
220
0.0
230
1.0
  0
TEXT
  8
11
  6
CONTINUOUS
 62
     7
  5
FA
 10
346674125479.30701
 20
3120066206849.6978
 30
0.0
 40
8.0
  1
150'
 50
88.2152
  7
ROMANS
210
0.0
220
0.0
230
1.0
  0
TEXT
  8
11
  6
CONTINUOUS
 62
     7
  5
FB
 10
346674125474.52704
 20
3120066206699.5078
 30
0.0
 40
8.0
  1
150'
 50
88.2152
  7
ROMANS
210
0.0
220
0.0
230
1.0
  0
TEXT
  8
11
  6
CONTINUOUS
 62
     7
  5
FC
 10
346674125383.78906
 20
3120066207531.5781
 30
0.0
 40
8.0
  1
220.42'
 50
358.2152
  7
ROMANS
210
0.0
220
0.0
230
1.0
  0
TEXT
  8
11
  6
CONTINUOUS
 62
     7
  5
FD
 10
346674125348.40106
 20
3120066206655.666
 30
0.0
 40
8.0
  1
220.42'
 50
358.2152
  7
ROMANS
210
0.0
220
0.0
230
1.0
  0
TEXT
  8
11
  6
CONTINUOUS
 62
     7
  5
FE
 10
346674125267.59003
 20
3120066207182.5791
 30
0.0
 40
8.0
  1
1040'
 50
88.2152
  7
ROMANS
210
0.0
220
0.0
230
1.0
  0
TEXT
  8
11
  6
CONTINUOUS
 62
     7
  5
FF
 10
346674125476.78802
 20
3120066206304.9321
 30
0.0
 40
8.0
  1
600'
 50
88.2152
  7
ROMANS
210
0.0
220
0.0
230
1.0
  0
TEXT
  8
11
  6
CONTINUOUS
 62
     7
  5
100
 10
346674124190.88403
 20
3120066206302.9292
 30
0.0
 40
8.0
  1
490'
 50
88.2152
  7
ROMANS
210
0.0
220
0.0
230
1.0
  0
TEXT
  8
11
  6
CONTINUOUS
 62
     7
  5
101
 10
346674123689.58502
 20
3120066206301.9912
 30
0.0
 40
8.0
  1
460'
 50
88.2152
  7
ROMANS
210
0.0
220
0.0
230
1.0
  0
TEXT
  8
11
  6
CONTINUOUS
 62
     7
  5
102
 10
346674123803.12201
 20
3120066206563.3008
 30
0.0
 40
8.0
  1
240'
 50
358.2152
  7
ROMANS
210
0.0
220
0.0
230
1.0
  0
TEXT
  8
11
  6
CONTINUOUS
 62
     7
  5
103
 10
346674124051.78302
 20
3120066206560.9438
 30
0.0
 40
8.0
  1
R
 50
3.252194
  7
ROMANS
 72
     1
 11
346674124054.29895
 21
3120066206561.0869
 31
0.0
210
0.0
220
0.0
230
1.0
  0
TEXT
  8
11
  6
CONTINUOUS
 62
     7
  5
104
 10
346674124058.95306
 20
3120066206561.3511
 30
0.0
 40
8.0
  1
=
 50
3.252194
  7
ROMANS
 72
     1
 11
346674124062.28064
 21
3120066206561.54
 31
0.0
210
0.0
220
0.0
230
1.0
  0
TEXT
  8
11
  6
CONTINUOUS
 62
     7
  5
105
 10
346674124068.88403
 20
3120066206562.0439
 30
0.0
 40
8.0
  1
1
 50
4.405689
  7
ROMANS
 72
     1
 11
346674124070.21307
 21
3120066206562.1465
 31
0.0
210
0.0
220
0.0
230
1.0
  0
TEXT
  8
11
  6
CONTINUOUS
 62
     7
  5
106
 10
346674124075.85602
 20
3120066206562.582
 30
0.0
 40
8.0
  1
5
 50
4.405689
  7
ROMANS
 72
     1
 11
346674124078.19312
 21
3120066206562.7622
 31
0.0
210
0.0
220
0.0
230
1.0
  0
TEXT
  8
11
  6
CONTINUOUS
 62
     7
  5
107
 10
346674124083.83203
 20
3120066206563.1958
 30
0.0
 40
8.0
  1
7
 50
4.405689
  7
ROMANS
 72
     1
 11
346674124086.15814
 21
3120066206563.375
 31
0.0
210
0.0
220
0.0
230
1.0
  0
TEXT
  8
11
  6
CONTINUOUS
 62
     7
  5
108
 10
346674124091.80804
 20
3120066206563.811
 30
0.0
 40
8.0
  1
9
 50
4.405689
  7
ROMANS
 72
     1
 11
346674124094.13416
 21
3120066206563.9902
 31
0.0
210
0.0
220
0.0
230
1.0
  0
TEXT
  8
11
  6
CONTINUOUS
 62
     7
  5
109
 10
346674124100.71802
 20
3120066206564.6309
 30
0.0
 40
8.0
  1
'
 50
5.559183
  7
ROMANS
 72
     1
 11
346674124102.04474
 21
3120066206564.7603
 31
0.0
210
0.0
220
0.0
230
1.0
  0
TEXT
  8
11
  6
CONTINUOUS
 62
     7
  5
10A
 10
346674124056.46204
 20
3120066206547.187
 30
0.0
 40
8.0
  1
2
 50
3.252194
  7
ROMANS
 72
     1
 11
346674124058.3374
 21
3120066206555.3066
 31
0.0
210
0.0
220
0.0
230
1.0
 73
     3
  0
TEXT
  8
11
  6
CONTINUOUS
 62
     7
  5
10B
 10
346674124064.66803
 20
3120066206547.6768
 30
0.0
 40
8.0
  1
8
 50
4.405689
  7
ROMANS
 72
     1
 11
346674124066.37958
 21
3120066206555.8325
 31
0.0
210
0.0
220
0.0
230
1.0
 73
     3
  0
TEXT
  8
11
  6
CONTINUOUS
 62
     7
  5
10C
 10
346674124073.65002
 20
3120066206548.3701
 30
0.0
 40
8.0
  1
1
 50
4.405689
  7
ROMANS
 72
     1
 11
346674124074.36456
 21
3120066206556.4487
 31
0.0
210
0.0
220
0.0
230
1.0
 73
     3
  0
TEXT
  8
11
  6
CONTINUOUS
 62
     7
  5
10D
 10
346674124081.62604
 20
3120066206548.9849
 30
0.0
 40
8.0
  1
.
 50
4.405689
  7
ROMANS
 72
     1
 11
346674124082.32959
 21
3120066206557.063
 31
0.0
210
0.0
220
0.0
230
1.0
 73
     3
  0
TEXT
  8
11
  6
CONTINUOUS
 62
     7
  5
10E
 10
346674124088.40906
 20
3120066206549.5068
 30
0.0
 40
8.0
  1
6
 50
4.405689
  7
ROMANS
 72
     1
 11
346674124090.30707
 21
3120066206557.6768
 31
0.0
210
0.0
220
0.0
230
1.0
 73
     3
  0
TEXT
  8
11
  6
CONTINUOUS
 62
     7
  5
10F
 10
346674124097.79504
 20
3120066206550.2808
 30
0.0
 40
8.0
  1
'
 50
5.559183
  7
ROMANS
 72
     1
 11
346674124098.3468
 21
3120066206558.3726
 31
0.0
210
0.0
220
0.0
230
1.0
 73
     3
  0
TEXT
  8
11
  6
CONTINUOUS
 62
     7
  5
110
 10
346674123729.37305
 20
3120066206523.0298
 30
0.0
 40
8.0
  1
60'
 50
88.2152
  7
ROMANS
210
0.0
220
0.0
230
1.0
  0
TEXT
  8
11
  6
CONTINUOUS
 62
     7
  5
111
 10
346674124175.71503
 20
3120066206532.1099
 30
0.0
 40
8.0
  1
60'
 50
88.2152
  7
ROMANS
210
0.0
220
0.0
230
1.0
  0
TEXT
  8
11
  6
CONTINUOUS
 62
     7
  5
112
 10
346674123924.24902
 20
3120066206129.4668
 30
0.0
 40
8.0
  1
56'
 50
358.2152
  7
ROMANS
210
0.0
220
0.0
230
1.0
  0
TEXT
  8
11
  6
CONTINUOUS
 62
     7
  5
113
 10
346674123933.95502
 20
3120066206463.2681
 30
0.0
 40
8.0
  1
56'
 50
358.2152
  7
ROMANS
210
0.0
220
0.0
230
1.0
  0
TEXT
  8
11
  6
CONTINUOUS
 62
     7
  5
114
 10
346674123781.61401
 20
3120066206482.9092
 30
0.0
 40
8.0
  1
197.63'
 50
358.2152
  7
ROMANS
210
0.0
220
0.0
230
1.0
  0
TEXT
  8
11
  6
CONTINUOUS
 62
     7
  5
115
 10
346674123770.49701
 20
3120066206104.564
 30
0.0
 40
8.0
  1
197.63'
 50
358.2152
  7
ROMANS
210
0.0
220
0.0
230
1.0
  0
TEXT
  8
11
  6
CONTINUOUS
 62
     7
  5
116
 10
346674123782.65405
 20
3120066206373.6689
 30
0.0
 40
8.0
  1
212.63'
 50
358.2152
  7
ROMANS
210
0.0
220
0.0
230
1.0
  0
TEXT
  8
11
  6
CONTINUOUS
 62
     7
  5
117
 10
346674123778.60303
 20
3120066206244.0171
 30
0.0
 40
8.0
  1
212.63'
 50
358.2152
  7
ROMANS
210
0.0
220
0.0
230
1.0
  0
TEXT
  8
11
  6
CONTINUOUS
 62
     7
  5
118
 10
346674123714.117
 20
3120066206420.7817
 30
0.0
 40
8.0
  1
130'
 50
88.2152
  7
ROMANS
210
0.0
220
0.0
230
1.0
  0
TEXT
  8
11
  6
CONTINUOUS
 62
     7
  5
119
 10
346674123907.91205
 20
3120066206413.7002
 30
0.0
 40
8.0
  1
115'
 50
88.2152
  7
ROMANS
210
0.0
220
0.0
230
1.0
  0
TEXT
  8
11
  6
CONTINUOUS
 62
     7
  5
11A
 10
346674123903.02203
 20
3120066206289.5708
 30
0.0
 40
8.0
  1
130'
 50
88.2152
  7
ROMANS
210
0.0
220
0.0
230
1.0
  0
TEXT
  8
11
  6
CONTINUOUS
 62
     7
  5
11B
 10
346674123899.78802
 20
3120066206153.022
 30
0.0
 40
8.0
  1
125'
 50
88.2152
  7
ROMANS
210
0.0
220
0.0
230
1.0
  0
TEXT
  8
11
  6
CONTINUOUS
 62
     7
  5
11C
 10
346674123705.16101
 20
3120066206155.6729
 30
0.0
 40
8.0
  1
140'
 50
88.2152
  7
ROMANS
210
0.0
220
0.0
230
1.0
  0
TEXT
  8
11
  6
CONTINUOUS
 62
     7
  5
11D
 10
346674123884.59601
 20
3120066206454.3027
 30
0.0
 40
8.0
  1
R=15'
 50
43.2152
  7
ROMANS
210
0.0
220
0.0
230
1.0
  0
TEXT
  8
11
  6
CONTINUOUS
 62
     7
  5
11E
 10
346674123973.21002
 20
3120066206102.3081
 30
0.0
 40
8.0
  1
R=15'
 50
43.2152
  7
ROMANS
210
0.0
220
0.0
230
1.0
  0
TEXT
  8
11
  6
CONTINUOUS
 62
     7
  5
11F
 10
346674123977.07605
 20
3120066206480.541
 30
0.0
 40
8.0
  1
R=15'
 50
313.2152
  7
ROMANS
210
0.0
220
0.0
230
1.0
  0
TEXT
  8
11
  6
CONTINUOUS
 62
     7
  5
120
 10
346674123866.84204
 20
3120066206127.1899
 30
0.0
 40
8.0
  1
R=15'
 50
313.2152
  7
ROMANS
210
0.0
220
0.0
230
1.0
  0
TEXT
  8
11
  6
CONTINUOUS
 62
     7
  5
121
 10
346674124174.43201
 20
3120066206401.3062
 30
0.0
 40
8.0
  1
155.18'
 50
88.2152
  7
ROMANS
210
0.0
220
0.0
230
1.0
  0
TEXT
  8
11
  6
CONTINUOUS
 62
     7
  5
122
 10
346674123980.38202
 20
3120066206400.5552
 30
0.0
 40
8.0
  1
117.28'
 50
88.2152
  7
ROMANS
210
0.0
220
0.0
230
1.0
  0
TEXT
  8
11
  6
CONTINUOUS
 62
     7
  5
123
 10
346674123977.70203
 20
3120066206281.397
 30
0.0
 40
8.0
  1
130'
 50
88.2152
  7
ROMANS
210
0.0
220
0.0
230
1.0
  0
TEXT
  8
11
  6
CONTINUOUS
 62
     7
  5
124
 10
346674124166.27704
 20
3120066206139.5981
 30
0.0
 40
8.0
  1
140'
 50
88.2152
  7
ROMANS
210
0.0
220
0.0
230
1.0
  0
TEXT
  8
11
  6
CONTINUOUS
 62
     7
  5
125
 10
346674123973.32703
 20
3120066206151.792
 30
0.0
 40
8.0
  1
125'
 50
88.2152
  7
ROMANS
210
0.0
220
0.0
230
1.0
  0
TEXT
  8
11
  6
CONTINUOUS
 62
     7
  5
126
 10
346674124063.69104
 20
3120066206363.8809
 30
0.0
 40
8.0
  1
211.37'
 50
358.2152
  7
ROMANS
210
0.0
220
0.0
230
1.0
  0
TEXT
  8
11
  6
CONTINUOUS
 62
     7
  5
127
 10
346674124061.71301
 20
3120066206234.5088
 30
0.0
 40
8.0
  1
211.37'
 50
358.2152
  7
ROMANS
210
0.0
220
0.0
230
1.0
  0
TEXT
  8
11
  6
CONTINUOUS
 62
     7
  5
128
 10
346674124046.73804
 20
3120066206096.6509
 30
0.0
 40
8.0
  1
196.37'
 50
358.2152
  7
ROMANS
210
0.0
220
0.0
230
1.0
  0
TEXT
  8
11
  6
CONTINUOUS
 62
     7
  5
129
 10
346674124061.16003
 20
3120066206501.3379
 30
0.0
 40
8.0
  1
R
 50
4.205692
  7
ROMANS
 72
     1
 11
346674124063.67322
 21
3120066206501.5229
 31
0.0
210
0.0
220
0.0
230
1.0
  0
TEXT
  8
11
  6
CONTINUOUS
 62
     7
  5
12A
 10
346674124068.32104
 20
3120066206501.8647
 30
0.0
 40
8.0
  1
=
 50
4.205692
  7
ROMANS
 72
     1
 11
346674124071.64508
 21
3120066206502.1094
 31
0.0
210
0.0
220
0.0
230
1.0
  0
TEXT
  8
11
  6
CONTINUOUS
 62
     7
  5
12B
 10
346674124078.31104
 20
3120066206502.5991
 30
0.0
 40
8.0
  1
1
 50
4.205692
  7
ROMANS
 72
     1
 11
346674124079.64044
 21
3120066206502.6968
 31
0.0
210
0.0
220
0.0
230
1.0
  0
TEXT
  8
11
  6
CONTINUOUS
 62
     7
  5
12C
 10
346674124085.28406
 20
3120066206503.1118
 30
0.0
 40
8.0
  1
5
 50
4.205692
  7
ROMANS
 72
     1
 11
346674124087.6217
 21
3120066206503.2837
 31
0.0
210
0.0
220
0.0
230
1.0
  0
TEXT
  8
11
  6
CONTINUOUS
 62
     7
  5
12D
 10
346674124094.20605
 20
3120066206503.7852
 30
0.0
 40
8.0
  1
1
 50
5.337875
  7
ROMANS
 72
     1
 11
346674124095.53326
 21
3120066206503.9092
 31
0.0
210
0.0
220
0.0
230
1.0
  0
TEXT
  8
11
  6
CONTINUOUS
 62
     7
  5
12E
 10
346674124101.16901
 20
3120066206504.436
 30
0.0
 40
8.0
  1
9
 50
5.337875
  7
ROMANS
 72
     1
 11
346674124103.49194
 21
3120066206504.6528
 31
0.0
210
0.0
220
0.0
230
1.0
  0
TEXT
  8
11
  6
CONTINUOUS
 62
     7
  5
12F
 10
346674124110.13806
 20
3120066206505.2739
 30
0.0
 40
8.0
  1
'
 50
5.337875
  7
ROMANS
 72
     1
 11
346674124111.46527
 21
3120066206505.3979
 31
0.0
210
0.0
220
0.0
230
1.0
  0
TEXT
  8
11
  6
CONTINUOUS
 62
     7
  5
130
 10
346674124060.30505
 20
3120066206487.271
 30
0.0
 40
8.0
  1
1
 50
3.073508
  7
ROMANS
 72
     1
 11
346674124061.20819
 21
3120066206495.3311
 31
0.0
210
0.0
220
0.0
230
1.0
 73
     3
  0
TEXT
  8
11
  6
CONTINUOUS
 62
     7
  5
131
 10
346674124067.49805
 20
3120066206487.7651
 30
0.0
 40
8.0
  1
9
 50
4.205692
  7
ROMANS
 72
     1
 11
346674124069.23804
 21
3120066206495.9146
 31
0.0
210
0.0
220
0.0
230
1.0
 73
     3
  0
TEXT
  8
11
  6
CONTINUOUS
 62
     7
  5
132
 10
346674124075.47705
 20
3120066206488.3521
 30
0.0
 40
8.0
  1
8
 50
4.205692
  7
ROMANS
 72
     1
 11
346674124077.21704
 21
3120066206496.5015
 31
0.0
210
0.0
220
0.0
230
1.0
 73
     3
  0
TEXT
  8
11
  6
CONTINUOUS
 62
     7
  5
133
 10
346674124084.46002
 20
3120066206489.0132
 30
0.0
 40
8.0
  1
.
 50
4.205692
  7
ROMANS
 72
     1
 11
346674124085.19177
 21
3120066206497.0884
 31
0.0
210
0.0
220
0.0
230
1.0
 73
     3
  0
TEXT
  8
11
  6
CONTINUOUS
 62
     7
  5
134
 10
346674124091.43304
 20
3120066206489.5259
 30
0.0
 40
8.0
  1
5
 50
4.205692
  7
ROMANS
 72
     1
 11
346674124093.18402
 21
3120066206497.6763
 31
0.0
210
0.0
220
0.0
230
1.0
 73
     3
  0
TEXT
  8
11
  6
CONTINUOUS
 62
     7
  5
135
 10
346674124099.62006
 20
3120066206490.23
 30
0.0
 40
8.0
  1
3
 50
5.337875
  7
ROMANS
 72
     1
 11
346674124101.19867
 21
3120066206498.4121
 31
0.0
210
0.0
220
0.0
230
1.0
 73
     3
  0
TEXT
  8
11
  6
CONTINUOUS
 62
     7
  5
136
 10
346674124108.58801
 20
3120066206491.0679
 30
0.0
 40
8.0
  1
'
 50
5.337875
  7
ROMANS
 72
     1
 11
346674124109.17102
 21
3120066206499.1572
 31
0.0
210
0.0
220
0.0
230
1.0
 73
     3
  0
TEXT
  8
11
  6
CONTINUOUS
 62
     7
  5
137
 10
346674120331.58203
 20
3120066206172.2539
 30
0.0
 40
8.0
  1
65'
 50
88.2152
  7
ROMANS
210
0.0
220
0.0
230
1.0
  0
TEXT
  8
11
  6
CONTINUOUS
 62
     7
  5
138
 10
346674120412.70306
 20
3120066206216.5122
 30
0.0
 40
8.0
  1
210'
 50
358.2152
  7
ROMANS
210
0.0
220
0.0
230
1.0
  0
TEXT
  8
11
  6
CONTINUOUS
 62
     7
  5
139
 10
346674120743.14203
 20
3120066206198.7002
 30
0.0
 40
8.0
  1
125'
 50
358.2152
  7
ROMANS
210
0.0
220
0.0
230
1.0
  0
TEXT
  8
19
  6
CONTINUOUS
 62
     1
  5
13C
 10
346674125530.73505
 20
3120066206377.4639
 30
0.0
 40
24.0
  1
UPLAND AVE.
 50
88.1523
  7
ROMANC
210
0.0
220
0.0
230
1.0
  0
TEXT
  8
19
  6
CONTINUOUS
 62
     1
  5
13D
 10
346674120439.68005
 20
3120066210708.4639
 30
0.0
 40
24.0
  1
ALCOVE AVE.
 50
88.1523
  7
ROMANC
210
0.0
220
0.0
230
1.0
  0
TEXT
  8
19
  6
CONTINUOUS
 62
     1
  5
13E
 10
346674120297.16101
 20
3120066206613.564
 30
0.0
 40
24.0
  1
ALCOVE AVE.
 50
88.1523
  7
ROMANC
210
0.0
220
0.0
230
1.0
  0
TEXT
  8
19
  6
CONTINUOUS
 62
     1
  5
13F
 10
346674123960.08502
 20
3120066206164.4658
 30
0.0
 40
24.0
  1
VIOLA AVE.
 50
88.1523
  7
ROMANC
210
0.0
220
0.0
230
1.0
  0
TEXT
  8
19
  6
CONTINUOUS
 62
     1
  5
140
 10
346674121697.56506
 20
3120066206262.4741
 30
0.0
 40
24.0
  1
YUMA AVE.
 50
88.1523
  7
ROMANC
210
0.0
220
0.0
230
1.0
  0
TEXT
  8
19
  6
CONTINUOUS
 62
     1
  5
141
 10
346674122707.68604
 20
3120066208876.564
 30
0.0
 40
24.0
  1
WAUSAU AVE.
 50
88.1523
  7
ROMANC
210
0.0
220
0.0
230
1.0
  0
TEXT
  8
19
  6
CONTINUOUS
 62
     1
  5
142
 10
346674122768.69904
 20
3120066210894.4668
 30
0.0
 40
24.0
  1
WAUSAU AVE.
 50
88.1523
  7
ROMANC
210
0.0
220
0.0
230
1.0
  0
TEXT
  8
19
  6
CONTINUOUS
 62
     1
  5
143
 10
346674121913.49103
 20
3120066210983.3872
 30
0.0
 40
24.0
  1
YUMA AVE.
 50
88.1523
  7
ROMANC
210
0.0
220
0.0
230
1.0
  0
TEXT
  8
19
  6
CONTINUOUS
 62
     1
  5
144
 10
346674121845.89502
 20
3120066208888.0107
 30
0.0
 40
24.0
  1
YUMA AVE.
 50
88.1523
  7
ROMANC
210
0.0
220
0.0
230
1.0
  0
TEXT
  8
19
  6
CONTINUOUS
 62
     1
  5
145
 10
346674124839.59503
 20
3120066210758.0527
 30
0.0
 40
24.0
  1
URBANA PLACE
 50
88.1523
  7
ROMANC
210
0.0
220
0.0
230
1.0
  0
TEXT
  8
15
  6
CONTINUOUS
 62
    30
  5
147
 10
346674120463.29602
 20
3120066206679.4961
 30
0.0
 40
50.0
  1
ROLLING 
 50
28.1523
  7
ROMANC
210
0.0
220
0.0
230
1.0
  0
TEXT
  8
15
  6
CONTINUOUS
 62
    30
  5
148
 10
346674121308.96802
 20
3120066206343.0288
 30
0.0
 40
50.0
  1
PLAINS
 50
28.1523
  7
ROMANC
210
0.0
220
0.0
230
1.0
  0
TEXT
  8
15
  6
CONTINUOUS
 62
    30
  5
149
 10
346674125304.33105
 20
3120066207137.8179
 30
0.0
 40
30.0
  1
TURNBOW
 50
28.1523
  7
ROMANC
210
0.0
220
0.0
230
1.0
  0
TEXT
  8
15
  6
CONTINUOUS
 62
    30
  5
14A
 10
346674123734.56903
 20
3120066206282.8911
 30
0.0
 40
20.0
  1
WILDERLAND
 50
28.1523
  7
ROMANC
210
0.0
220
0.0
230
1.0
  0
TEXT
  8
15
  6
CONTINUOUS
 62
    30
  5
14B
 10
346674124009.66504
 20
3120066206211.4731
 30
0.0
 40
20.0
  1
PARK
 50
28.1523
  7
ROMANC
210
0.0
220
0.0
230
1.0
  0
TEXT
  8
15
  6
CONTINUOUS
 62
    30
  5
14C
 10
346674120567.46802
 20
3120066211011.9878
 30
0.0
 40
50.0
  1
TEXAS 
 50
28.1523
  7
ROMANC
210
0.0
220
0.0
230
1.0
  0
TEXT
  8
15
  6
CONTINUOUS
 62
    30
  5
14D
 10
346674120670.78906
 20
3120066210707.2012
 30
0.0
 40
50.0
  1
WEST
 50
28.1523
  7
ROMANC
210
0.0
220
0.0
230
1.0
  0
TEXT
  8
15
  6
CONTINUOUS
 62
    30
  5
14E
 10
346674122403.60101
 20
3120066208591.999
 30
0.0
 40
20.0
  1
GARNER
 50
28.1523
  7
ROMANC
210
0.0
220
0.0
230
1.0
  0
TEXT
  8
15
  6
CONTINUOUS
 62
    30
  5
14F
 10
346674122449.77106
 20
3120066208565.5107
 30
0.0
 40
20.0
  1
(UNRECORDED)
 50
28.1523
  7
ROMANC
210
0.0
220
0.0
230
1.0
  0
TEXT
  8
15
  6
CONTINUOUS
 62
    30
  5
150
 10
346674121005.74902
 20
3120066211214.8271
 30
0.0
 40
20.0
  1
DREASHER
 50
28.1523
  7
ROMANC
210
0.0
220
0.0
230
1.0
  0
TEXT
  8
11
  6
CONTINUOUS
 62
     7
  5
151
 10
346674122733.85303
 20
3120066211249.166
 30
0.0
 40
8.0
  1
60'
 50
358.2152
  7
ROMANS
210
0.0
220
0.0
230
1.0
  0
TEXT
  8
11
  6
CONTINUOUS
 62
     7
  5
152
 10
346674122748.29303
 20
3120066209981.3672
 30
0.0
 40
8.0
  1
2544'
 50
88.2152
  7
ROMANS
 72
     4
 11
346674122744.83484
 21
3120066209998.8159
 31
0.0
210
0.0
220
0.0
230
1.0
  0
TEXT
  8
11
  6
CONTINUOUS
 62
     7
  5
153
 10
346674122669.39001
 20
3120066209983.8262
 30
0.0
 40
8.0
  1
2544'
 50
88.2152
  7
ROMANS
 72
     4
 11
346674122665.93182
 21
3120066210001.2749
 31
0.0
210
0.0
220
0.0
230
1.0
  0
TEXT
  8
11
  6
CONTINUOUS
 62
     7
  5
154
 10
346674121888.72302
 20
3120066210023.2358
 30
0.0
 40
8.0
  1
2544'
 50
88.2152
  7
ROMANS
 72
     4
 11
346674121885.26483
 21
3120066210040.6851
 31
0.0
210
0.0
220
0.0
230
1.0
  0
TEXT
  8
11
  6
CONTINUOUS
 62
     7
  5
155
 10
346674121809.86401
 20
3120066210009.8921
 30
0.0
 40
8.0
  1
2604'
 50
88.2152
  7
ROMANS
 72
     4
 11
346674121806.40582
 21
3120066210027.3413
 31
0.0
210
0.0
220
0.0
230
1.0
  0
TEXT
  8
11
  6
CONTINUOUS
 62
     7
  5
156
 10
346674123528.31104
 20
3120066211250.2998
 30
0.0
 40
8.0
  1
2000'
 50
358.2152
  7
ROMANS
 72
     4
 11
346674123545.76019
 21
3120066211253.7583
 31
0.0
210
0.0
220
0.0
230
1.0
  0
TEXT
  8
11
  6
CONTINUOUS
 62
     7
  5
157
 10
346674125266.27905
 20
3120066211198.4092
 30
0.0
 40
8.0
  1
590'
 50
358.2152
  7
ROMANS
 72
     4
 11
346674125279.73016
 21
3120066211201.9917
 31
0.0
210
0.0
220
0.0
230
1.0
  0
POLYLINE
  8
1
  6
HIDDEN
 62
   253
  5
159
 66
     1
 10
0.0
 20
0.0
 30
0.0
 70
     1
  0
VERTEX
  8
1
  6
HIDDEN
 62
   253
  5
15A
 10
346674125688.27203
 20
3120066211296.73
 30
0.0
  0
VERTEX
  8
1
  6
HIDDEN
 62
   253
  5
15B
 10
346674120423.21405
 20
3120066211456.9131
 30
0.0
  0
VERTEX
  8
1
  6
HIDDEN
 62
   253
  5
15C
 10
346674120251.88
 20
3120066206168.8428
 30
0.0
  0
VERTEX
  8
1
  6
HIDDEN
 62
   253
  5
15D
 10
346674125517.98206
 20
3120066206001.7642
 30
0.0
  0
SEQEND
  8
1
  6
HIDDEN
 62
   253
  5
15E
  0
LINE
  8
7
  6
CONTINUOUS
 62
     7
  5
15F
 10
346674125069.53101
 20
3120066211221.252
 30
0.0
 11
346674125063.88904
 21
3120066211046.3428
 31
0.0
  0
LINE
  8
7
  6
CONTINUOUS
 62
     7
  5
160
 10
346674125063.88904
 20
3120066211046.3428
 30
0.0
 11
346674124983.93005
 21
3120066211048.9229
 31
0.0
  0
LINE
  8
7
  6
CONTINUOUS
 62
     7
  5
161
 10
346674124983.93005
 20
3120066211048.9229
 30
0.0
 11
346674124989.57306
 21
3120066211223.832
 31
0.0
  0
TEXT
  8
11
  6
CONTINUOUS
 62
     7
  5
162
 10
346674124994.32501
 20
3120066211207.7539
 30
0.0
 40
8.0
  1
80'
 50
358.2152
  7
ROMANS
 72
     4
 11
346674125003.77808
 21
3120066211211.4614
 31
0.0
210
0.0
220
0.0
230
1.0
  0
TEXT
  8
11
  6
CONTINUOUS
 62
     7
  5
163
 10
346674124989.492
 20
3120066211052.6592
 30
0.0
 40
8.0
  1
80'
 50
358.2152
  7
ROMANS
 72
     4
 11
346674124998.94507
 21
3120066211056.3662
 31
0.0
210
0.0
220
0.0
230
1.0
  0
TEXT
  8
11
  6
CONTINUOUS
 62
     7
  5
164
 10
346674124972.70306
 20
3120066211116.5107
 30
0.0
 40
8.0
  1
160'
 50
88.2152
  7
ROMANS
 72
     4
 11
346674124969.12024
 21
3120066211129.9619
 31
0.0
210
0.0
220
0.0
230
1.0
  0
TEXT
  8
11
  6
CONTINUOUS
 62
     7
  5
165
 10
346674125038.57306
 20
3120066211119.52
 30
0.0
 40
8.0
  1
160'
 50
88.2152
  7
ROMANS
 72
     4
 11
346674125034.99023
 21
3120066211132.9712
 31
0.0
210
0.0
220
0.0
230
1.0
  0
TEXT
  8
10
  6
CONTINUOUS
 62
   134
  5
166
 10
346674124997.07202
 20
3120066211127.0449
 30
0.0
 40
13.999
  1
1
 50
358.2152
  7
ROMANS
 72
     4
 11
346674124999.62195
 21
3120066211133.9687
 31
0.0
210
0.0
220
0.0
230
1.0
  0
TEXT
  8
15
  6
CONTINUOUS
 62
    30
  5
167
 10
346674124990.65002
 20
3120066211061.811
 30
0.0
 40
10.0
  1
CARLISLE
 50
28.1523
  7
ROMANC
 72
     4
 11
346674125022.86224
 21
3120066211084.7192
 31
0.0
210
0.0
220
0.0
230
1.0
  0
TEXT
  8
11
  6
CONTINUOUS
 62
     7
  5
168
 10
346674120898.01306
 20
3120066210507.2808
 30
0.0
 40
8.0
  1
70'
 50
358.2152
  7
ROMANS
210
0.0
220
0.0
230
1.0
  0
TEXT
  8
11
  6
CONTINUOUS
 62
     7
  5
169
 10
346674120946.54706
 20
3120066210889.3672
 30
0.0
 40
8.0
  1
846.46'
 50
88.2152
  7
ROMANS
210
0.0
220
0.0
230
1.0
  0
TEXT
  8
10
  6
CONTINUOUS
 62
   134
  5
16A
 10
346674120915.71503
 20
3120066210975.1987
 30
0.0
 40
13.999
  1
1
 50
358.2152
  7
ROMANS
 11
346674120916.15106
 21
3120066210989.1914
 31
0.0
210
0.0
220
0.0
230
1.0
 73
     3
  0
TEXT
  8
15
  6
CONTINUOUS
 62
    30
  5
16B
 10
346674120914.61005
 20
3120066210996.8701
 30
0.0
 40
15.0
  1
EPCON
 50
28.1523
  7
ROMANC
 72
     4
 11
346674120945.74677
 21
3120066211022.0381
 31
0.0
210
0.0
220
0.0
230
1.0
  0
LINE
  8
14
  6
CONTINUOUS
 62
     7
  5
16D
 10
346674120921.68805
 20
3120066211355.0601
 30
0.0
 11
346674120894.39404
 21
3120066210509.0381
 31
0.0
  0
LINE
  8
14
  6
CONTINUOUS
 62
     7
  5
16E
 10
346674120991.65106
 20
3120066211352.8027
 30
0.0
 11
346674120986.49103
 21
3120066211192.8857
 31
0.0
  0
LINE
  8
7
  6
CONTINUOUS
 62
     7
  5
16F
 10
346674122141.05505
 20
3120066211315.7241
 30
0.0
 11
346674122123.979
 21
3120066210786.4102
 31
0.0
  0
LINE
  8
7
  6
CONTINUOUS
 62
     7
  5
170
 10
346674122123.979
 20
3120066210786.4102
 30
0.0
 11
346674122323.87506
 21
3120066210779.9609
 31
0.0
  0
LINE
  8
7
  6
CONTINUOUS
 62
     7
  5
171
 10
346674122323.87506
 20
3120066210779.9609
 30
0.0
 11
346674122335.53406
 21
3120066211141.3921
 31
0.0
  0
LINE
  8
7
  6
CONTINUOUS
 62
     7
  5
172
 10
346674122335.53406
 20
3120066211141.3921
 30
0.0
 11
346674122247.58105
 21
3120066211144.23
 31
0.0
  0
LINE
  8
7
  6
CONTINUOUS
 62
     7
  5
173
 10
346674122247.58105
 20
3120066211144.23
 30
0.0
 11
346674122252.99603
 21
3120066211312.1138
 31
0.0
  0
TEXT
  8
11
  6
CONTINUOUS
 62
     7
  5
174
 10
346674122159.06506
 20
3120066211291.1099
 30
0.0
 40
8.0
  1
112'
 50
358.2152
  7
ROMANS
 72
     4
 11
346674122172.51617
 21
3120066211294.6929
 31
0.0
210
0.0
220
0.0
230
1.0
  0
TEXT
  8
11
  6
CONTINUOUS
 62
     7
  5
175
 10
346674122181.87201
 20
3120066210783.9487
 30
0.0
 40
8.0
  1
200'
 50
358.2152
  7
ROMANS
 72
     4
 11
346674122195.32312
 21
3120066210787.5317
 31
0.0
210
0.0
220
0.0
230
1.0
  0
TEXT
  8
11
  6
CONTINUOUS
 62
     7
  5
176
 10
346674122261.67603
 20
3120066211143.4521
 30
0.0
 40
8.0
  1
88'
 50
358.2152
  7
ROMANS
 72
     4
 11
346674122271.12909
 21
3120066211147.1592
 31
0.0
210
0.0
220
0.0
230
1.0
  0
TEXT
  8
11
  6
CONTINUOUS
 62
     7
  5
177
 10
346674122102.43304
 20
3120066211021.2378
 30
0.0
 40
8.0
  1
529.59'
 50
88.2152
  7
ROMANS
 72
     4
 11
346674122099.224
 21
3120066211046.6831
 31
0.0
210
0.0
220
0.0
230
1.0
  0
TEXT
  8
11
  6
CONTINUOUS
 62
     7
  5
178
 10
346674122316.15302
 20
3120066210933.356
 30
0.0
 40
8.0
  1
361.62'
 50
88.2152
  7
ROMANS
 72
     4
 11
346674122312.94397
 21
3120066210958.8013
 31
0.0
210
0.0
220
0.0
230
1.0
  0
TEXT
  8
11
  6
CONTINUOUS
 62
     7
  5
179
 10
346674122237.10205
 20
3120066211211.9082
 30
0.0
 40
8.0
  1
168'
 50
88.2152
  7
ROMANS
 72
     4
 11
346674122233.51923
 21
3120066211225.3589
 31
0.0
210
0.0
220
0.0
230
1.0
  0
TEXT
  8
15
  6
CONTINUOUS
 62
    30
  5
17A
 10
346674122145.81702
 20
3120066211066.9067
 30
0.0
 40
40.5
  1
J.A.M.
 50
358.1523
  7
ROMANC
 72
     4
 11
346674122237.62451
 21
3120066211084.2061
 31
0.0
210
0.0
220
0.0
230
1.0
  0
TEXT
  8
15
  6
CONTINUOUS
 62
    30
  5
17B
 10
346674122151.26501
 20
3120066210853.5039
 30
0.0
 40
40.5
  1
ADD.
 50
358.1523
  7
ROMANC
 72
     4
 11
346674122224.42621
 21
3120066210871.4043
 31
0.0
210
0.0
220
0.0
230
1.0
  0
LINE
  8
6
  6
CONTINUOUS
 62
     7
  5
17C
 10
346674125621.53302
 20
3120066210033.8359
 30
0.0
 11
346674125349.67505
 21
3120066210042.6069
 31
0.0
  0
LINE
  8
6
  6
CONTINUOUS
 62
     7
  5
17D
 10
346674125606.05701
 20
3120066210019.3291
 30
0.0
 11
346674125599.479
 21
3120066209815.4341
 31
0.0
  0
LINE
  8
6
  6
CONTINUOUS
 62
     7
  5
17E
 10
346674125614.47205
 20
3120066209814.9512
 30
0.0
 11
346674125484.53906
 21
3120066209819.1431
 31
0.0
  0
LINE
  8
6
  6
CONTINUOUS
 62
     7
  5
17F
 10
346674125484.53906
 20
3120066209819.1431
 30
0.0
 11
346674125484.66803
 21
3120066209823.1411
 31
0.0
  0
LINE
  8
6
  6
CONTINUOUS
 62
     7
  5
180
 10
346674125484.66803
 20
3120066209823.1411
 30
0.0
 11
346674125327.75006
 21
3120066209828.2031
 31
0.0
  0
LINE
  8
6
  6
CONTINUOUS
 62
     7
  5
181
 10
346674125327.75006
 20
3120066209828.2031
 30
0.0
 11
346674125334.19806
 21
3120066210028.0991
 31
0.0
  0
ARC
  8
6
  6
CONTINUOUS
 62
     7
  5
182
 10
346674125349.19043
 20
3120066210027.6147
 30
0.0
 40
15.0
 50
88.1523
 51
178.1523
210
0.0
220
0.0
230
1.0
  0
ARC
  8
6
  6
CONTINUOUS
 62
     7
  5
183
 10
346674125591.06458
 20
3120066210019.812
 30
0.0
 40
15.0
 50
358.1523
 51
88.1523
210
0.0
220
0.0
230
1.0
  0
LINE
  8
6
  6
CONTINUOUS
 62
     7
  5
184
 10
346674125622.49902
 20
3120066210063.8208
 30
0.0
 11
346674124832.91101
 21
3120066210089.293
 31
0.0
  0
LINE
  8
6
  6
CONTINUOUS
 62
     7
  5
185
 10
346674124831.94305
 20
3120066210059.3091
 30
0.0
 11
346674125349.67505
 21
3120066210042.6069
 31
0.0
  0
LINE
  8
6
  6
CONTINUOUS
 62
     7
  5
186
 10
346674125577.19904
 20
3120066208659.5518
 30
0.0
 11
346674125614.47205
 21
3120066209814.9512
 31
0.0
  0
LINE
  8
6
  6
CONTINUOUS
 62
     7
  5
187
 10
346674125621.53302
 20
3120066210033.8359
 30
0.0
 11
346674125659.22406
 21
3120066211202.228
 31
0.0
  0
LINE
  8
6
  6
CONTINUOUS
 62
     7
  5
188
 10
346674125596.87506
 20
3120066209269.4849
 30
0.0
 11
346674124807.28503
 21
3120066209294.957
 31
0.0
  0
LINE
  8
6
  6
CONTINUOUS
 62
     7
  5
189
 10
346674124806.57605
 20
3120066209272.9678
 30
0.0
 11
346674125596.16504
 21
3120066209247.4961
 31
0.0
  0
LINE
  8
6
  6
CONTINUOUS
 62
     7
  5
18A
 10
346674125071.81903
 20
3120066210051.5708
 30
0.0
 11
346674125047.16101
 21
3120066209287.2187
 31
0.0
  0
LINE
  8
6
  6
CONTINUOUS
 62
     7
  5
18B
 10
346674125111.79803
 20
3120066210050.2808
 30
0.0
 11
346674125087.14105
 21
3120066209285.9292
 31
0.0
  0
LINE
  8
6
  6
CONTINUOUS
 62
     7
  5
18C
 10
346674124941.88702
 20
3120066210055.7607
 30
0.0
 11
346674124917.229
 21
3120066209291.4102
 31
0.0
  0
LINE
  8
6
  6
CONTINUOUS
 62
     7
  5
18D
 10
346674124921.89606
 20
3120066210056.4067
 30
0.0
 11
346674124897.23901
 21
3120066209292.0542
 31
0.0
  0
LINE
  8
6
  6
CONTINUOUS
 62
     7
  5
18E
 10
346674125306.69702
 20
3120066210043.9932
 30
0.0
 11
346674125282.03906
 21
3120066209279.6401
 31
0.0
  0
LINE
  8
6
  6
CONTINUOUS
 62
     7
  5
18F
 10
346674125286.70703
 20
3120066210044.6382
 30
0.0
 11
346674125262.04901
 21
3120066209280.2852
 31
0.0
  0
TEXT
  8
11
  6
CONTINUOUS
 62
     7
  5
190
 10
346674125147.41803
 20
3120066210080.2212
 30
0.0
 40
8.0
  1
800'
 50
358.2152
  7
ROMANS
 72
     1
 11
346674125160.74457
 21
3120066210079.8057
 31
0.0
210
0.0
220
0.0
230
1.0
  0
TEXT
  8
11
  6
CONTINUOUS
 62
     7
  5
191
 10
346674124819.04504
 20
3120066210063.5249
 30
0.0
 40
8.0
  1
30'
 50
88.2152
  7
ROMANS
 72
     1
 11
346674124811.3396
 21
3120066210073.1025
 31
0.0
210
0.0
220
0.0
230
1.0
 73
     3
  0
TEXT
  8
11
  6
CONTINUOUS
 62
     7
  5
192
 10
346674124880.65704
 20
3120066209630.8779
 30
0.0
 40
8.0
  1
764.75'
 50
88.2152
  7
ROMANS
 72
     1
 11
346674124873.44995
 21
3120066209656.4478
 31
0.0
210
0.0
220
0.0
230
1.0
 73
     3
  0
TEXT
  8
11
  6
CONTINUOUS
 62
     7
  5
193
 10
346674124918.14001
 20
3120066209628.7471
 30
0.0
 40
8.0
  1
764.75'
 50
88.2152
  7
ROMANS
 72
     1
 11
346674124910.93292
 21
3120066209654.3169
 31
0.0
210
0.0
220
0.0
230
1.0
 73
     3
  0
TEXT
  8
11
  6
CONTINUOUS
 62
     7
  5
194
 10
346674125030.71002
 20
3120066209626.2021
 30
0.0
 40
8.0
  1
764.75'
 50
88.2152
  7
ROMANS
 72
     1
 11
346674125023.50293
 21
3120066209651.772
 31
0.0
210
0.0
220
0.0
230
1.0
 73
     3
  0
TEXT
  8
11
  6
CONTINUOUS
 62
     7
  5
195
 10
346674125088.36304
 20
3120066209622.479
 30
0.0
 40
8.0
  1
764.75'
 50
88.2152
  7
ROMANS
 72
     1
 11
346674125081.15594
 21
3120066209648.0488
 31
0.0
210
0.0
220
0.0
230
1.0
 73
     3
  0
TEXT
  8
11
  6
CONTINUOUS
 62
     7
  5
196
 10
346674125244.90906
 20
3120066209609.896
 30
0.0
 40
8.0
  1
764.75'
 50
88.2152
  7
ROMANS
 72
     1
 11
346674125237.7019
 21
3120066209635.4658
 31
0.0
210
0.0
220
0.0
230
1.0
 73
     3
  0
TEXT
  8
11
  6
CONTINUOUS
 62
     7
  5
197
 10
346674125283.47504
 20
3120066209611.583
 30
0.0
 40
8.0
  1
764.75'
 50
88.2152
  7
ROMANS
 72
     1
 11
346674125276.26794
 21
3120066209637.1528
 31
0.0
210
0.0
220
0.0
230
1.0
 73
     3
  0
TEXT
  8
11
  6
CONTINUOUS
 62
     7
  5
198
 10
346674125146.54004
 20
3120066209249.0952
 30
0.0
 40
8.0
  1
800'
 50
358.2152
  7
ROMANS
 72
     1
 11
346674125160.11572
 21
3120066209256.6758
 31
0.0
210
0.0
220
0.0
230
1.0
 73
     3
  0
TEXT
  8
11
  6
CONTINUOUS
 62
     7
  5
199
 10
346674124797.30005
 20
3120066209272.959
 30
0.0
 40
8.0
  1
22'
 50
88.2152
  7
ROMANS
 72
     1
 11
346674124789.5946
 21
3120066209282.5366
 31
0.0
210
0.0
220
0.0
230
1.0
 73
     3
  0
TEXT
  8
11
  6
CONTINUOUS
 62
     7
  5
19A
 10
346674125567.78906
 20
3120066209249.9141
 30
0.0
 40
8.0
  1
22'
 50
88.2152
  7
ROMANS
 72
     1
 11
346674125560.08362
 21
3120066209259.4917
 31
0.0
210
0.0
220
0.0
230
1.0
 73
     3
  0
TEXT
  8
11
  6
CONTINUOUS
 62
     7
  5
19B
 10
346674124874.60602
 20
3120066209293.5869
 30
0.0
 40
8.0
  1
20'
 50
358.2152
  7
ROMANS
 72
     1
 11
346674124883.93451
 21
3120066209293.2964
 31
0.0
210
0.0
220
0.0
230
1.0
  0
TEXT
  8
11
  6
CONTINUOUS
 62
     7
  5
19C
 10
346674125240.12103
 20
3120066209282.1968
 30
0.0
 40
8.0
  1
20'
 50
358.2152
  7
ROMANS
 72
     1
 11
346674125249.44952
 21
3120066209281.9062
 31
0.0
210
0.0
220
0.0
230
1.0
  0
TEXT
  8
11
  6
CONTINUOUS
 62
     7
  5
19D
 10
346674125033.31604
 20
3120066209288.6411
 30
0.0
 40
8.0
  1
40'
 50
358.2152
  7
ROMANS
 72
     1
 11
346674125042.64453
 21
3120066209288.3501
 31
0.0
210
0.0
220
0.0
230
1.0
  0
TEXT
  8
11
  6
CONTINUOUS
 62
     7
  5
19E
 10
346674125059.48102
 20
3120066210035.7568
 30
0.0
 40
8.0
  1
40'
 50
358.2152
  7
ROMANS
 72
     1
 11
346674125068.80951
 21
3120066210035.4663
 31
0.0
210
0.0
220
0.0
230
1.0
  0
TEXT
  8
11
  6
CONTINUOUS
 62
     7
  5
19F
 10
346674125266.31506
 20
3120066210030.126
 30
0.0
 40
8.0
  1
20'
 50
358.2152
  7
ROMANS
 72
     1
 11
346674125275.64349
 21
3120066210029.8354
 31
0.0
210
0.0
220
0.0
230
1.0
  0
TEXT
  8
11
  6
CONTINUOUS
 62
     7
  5
1A0
 10
346674124901.64203
 20
3120066210037.6357
 30
0.0
 40
8.0
  1
20'
 50
358.2152
  7
ROMANS
 72
     1
 11
346674124910.97052
 21
3120066210037.3452
 31
0.0
210
0.0
220
0.0
230
1.0
  0
TEXT
  8
11
  6
CONTINUOUS
 62
     7
  5
1A1
 10
346674125591.45905
 20
3120066210040.4189
 30
0.0
 40
8.0
  1
30'
 50
88.2152
  7
ROMANS
 72
     1
 11
346674125583.7536
 21
3120066210049.9966
 31
0.0
210
0.0
220
0.0
230
1.0
 73
     3
  0
TEXT
  8
11
  6
CONTINUOUS
 62
     7
  5
1A2
 10
346674125524.92102
 20
3120066209805.3301
 30
0.0
 40
8.0
  1
140'
 50
358.2152
  7
ROMANS
 72
     1
 11
346674125538.4967
 21
3120066209812.9106
 31
0.0
210
0.0
220
0.0
230
1.0
 73
     3
  0
TEXT
  8
11
  6
CONTINUOUS
 62
     7
  5
1A3
 10
346674125509.005
 20
3120066209819.833
 30
0.0
 40
8.0
  1
115'
 50
358.2152
  7
ROMANS
 72
     1
 11
346674125522.33154
 21
3120066209819.4175
 31
0.0
210
0.0
220
0.0
230
1.0
  0
TEXT
  8
11
  6
CONTINUOUS
 62
     7
  5
1A4
 10
346674125369.65704
 20
3120066209828.1768
 30
0.0
 40
8.0
  1
157'
 50
358.2152
  7
ROMANS
 72
     1
 11
346674125382.98358
 21
3120066209827.7617
 31
0.0
210
0.0
220
0.0
230
1.0
  0
TEXT
  8
11
  6
CONTINUOUS
 62
     7
  5
1A5
 10
346674125430.74506
 20
3120066210027.3711
 30
0.0
 40
8.0
  1
242'
 50
358.2152
  7
ROMANS
 72
     1
 11
346674125444.32074
 21
3120066210034.9517
 31
0.0
210
0.0
220
0.0
230
1.0
 73
     3
  0
TEXT
  8
11
  6
CONTINUOUS
 62
     7
  5
1A6
 10
346674125317.99902
 20
3120066209913.9268
 30
0.0
 40
8.0
  1
200'
 50
88.2152
  7
ROMANS
 72
     1
 11
346674125310.41815
 21
3120066209927.5024
 31
0.0
210
0.0
220
0.0
230
1.0
 73
     3
  0
TEXT
  8
11
  6
CONTINUOUS
 62
     7
  5
1A7
 10
346674125574.69403
 20
3120066209911.707
 30
0.0
 40
8.0
  1
204'
 50
88.2152
  7
ROMANS
 72
     1
 11
346674125575.10931
 21
3120066209925.0337
 31
0.0
210
0.0
220
0.0
230
1.0
  0
TEXT
  8
11
  6
CONTINUOUS
 62
     7
  5
1A8
 10
346674125600.85602
 20
3120066209992.3638
 30
0.0
 40
8.0
  1
55'
 50
358.2152
  7
ROMANS
 72
     4
 11
346674125610.30908
 21
3120066209996.0713
 31
0.0
210
0.0
220
0.0
230
1.0
  0
TEXT
  8
11
  6
CONTINUOUS
 62
     7
  5
1A9
 10
346674125596.96002
 20
3120066209836.4468
 30
0.0
 40
8.0
  1
55'
 50
358.2152
  7
ROMANS
 72
     4
 11
346674125606.41309
 21
3120066209840.1543
 31
0.0
210
0.0
220
0.0
230
1.0
  0
TEXT
  8
11
  6
CONTINUOUS
 62
     7
  5
1AA
 10
346674125601.11401
 20
3120066209753.4819
 30
0.0
 40
8.0
  1
40'
 50
358.2152
  7
ROMANS
 72
     4
 11
346674125610.56708
 21
3120066209757.1895
 31
0.0
210
0.0
220
0.0
230
1.0
  0
TEXT
  8
11
  6
CONTINUOUS
 62
     7
  5
1AB
 10
346674125612.00201
 20
3120066210071.9629
 30
0.0
 40
8.0
  1
40'
 50
358.2152
  7
ROMANS
 72
     4
 11
346674125621.45508
 21
3120066210075.6704
 31
0.0
210
0.0
220
0.0
230
1.0
  0
TEXT
  8
15
  6
CONTINUOUS
 62
    30
  5
1AC
 10
346674125396.84204
 20
3120066209857.8501
 30
0.0
 40
25.0
  1
 THERESA
 50
33.1523
  7
ROMANC
 72
     4
 11
346674125478.5849
 21
3120066209926.1743
 31
0.0
210
0.0
220
0.0
230
1.0
  0
TEXT
  8
15
  6
CONTINUOUS
 62
    30
  5
1AD
 10
346674125412.79303
 20
3120066209957.21
 30
0.0
 40
25.0
  1
ST.
 50
33.1523
  7
ROMANC
 72
     4
 11
346674125428.61737
 21
3120066209982.4766
 31
0.0
210
0.0
220
0.0
230
1.0
  0
TEXT
  8
15
  6
CONTINUOUS
 62
    30
  5
1AE
 10
346674125505.65802
 20
3120066209837.5508
 30
0.0
 40
25.0
  1
ADD.
 50
33.1523
  7
ROMANC
 72
     4
 11
346674125536.31458
 21
3120066209872.5059
 31
0.0
210
0.0
220
0.0
230
1.0
  0
TEXT
  8
10
  6
CONTINUOUS
 62
   134
  5
1AF
 10
346674125362.58502
 20
3120066209926.4429
 30
0.0
 40
13.999
  1
TRACT     A
 50
358.2152
  7
ROMANS
 72
     4
 11
346674125437.42786
 21
3120066209931.1143
 31
0.0
210
0.0
220
0.0
230
1.0
  0
LINE
  8
6
  6
CONTINUOUS
 62
     7
  5
1B0
 10
346674124805.67303
 20
3120066209244.9819
 30
0.0
 11
346674125580.27002
 21
3120066209219.9941
 31
0.0
  0
TEXT
  8
11
  6
CONTINUOUS
 62
     7
  5
1B1
 10
346674125550.70605
 20
3120066209227.4331
 30
0.0
 40
8.0
  1
28'
 50
88.2152
  7
ROMANS
 72
     1
 11
346674125543.00061
 21
3120066209237.0107
 31
0.0
210
0.0
220
0.0
230
1.0
 73
     3
  0
TEXT
  8
11
  6
CONTINUOUS
 62
     7
  5
1B2
 10
346674124797.05804
 20
3120066209248.04
 30
0.0
 40
8.0
  1
28'
 50
88.2152
  7
ROMANS
 72
     1
 11
346674124789.3526
 21
3120066209257.6177
 31
0.0
210
0.0
220
0.0
230
1.0
 73
     3
  0
TEXT
  8
11
  6
CONTINUOUS
 62
     7
  5
1B3
 10
346674125150.43402
 20
3120066209220.1919
 30
0.0
 40
8.0
  1
775'
 50
358.2152
  7
ROMANS
 72
     1
 11
346674125164.0097
 21
3120066209227.7729
 31
0.0
210
0.0
220
0.0
230
1.0
 73
     3
  0
TEXT
  8
19
  6
CONTINUOUS
 62
     1
  5
1B4
 10
346674124791.98706
 20
3120066209312.665
 30
0.0
 40
24.0
  1
URBANA PLACE
 50
88.1523
  7
ROMANC
210
0.0
220
0.0
230
1.0
  0
LINE
  8
6
  6
CONTINUOUS
 62
     7
  5
1B5
 10
346674124775.03705
 20
3120066210156.1938
 30
0.0
 11
346674123775.55701
 21
3120066210188.437
 31
0.0
  0
LINE
  8
6
  6
CONTINUOUS
 62
     7
  5
1B6
 10
346674124774.23102
 20
3120066210131.207
 30
0.0
 11
346674124624.30902
 21
3120066210136.0439
 31
0.0
  0
LINE
  8
6
  6
CONTINUOUS
 62
     7
  5
1B7
 10
346674124758.28705
 20
3120066209636.9629
 30
0.0
 11
346674124608.36603
 21
3120066209641.8008
 31
0.0
  0
LINE
  8
6
  6
CONTINUOUS
 62
     7
  5
1B8
 10
346674124756.67603
 20
3120066209586.9888
 30
0.0
 11
346674124606.75305
 21
3120066209591.8271
 31
0.0
  0
LINE
  8
6
  6
CONTINUOUS
 62
     7
  5
1B9
 10
346674124740.73102
 20
3120066209092.7461
 30
0.0
 11
346674124590.81006
 21
3120066209097.583
 31
0.0
  0
LINE
  8
6
  6
CONTINUOUS
 62
     7
  5
1BA
 10
346674124590.81006
 20
3120066209097.583
 30
0.0
 11
346674124594.03302
 21
3120066209197.5317
 31
0.0
  0
LINE
  8
6
  6
CONTINUOUS
 62
     7
  5
1BB
 10
346674124594.03302
 20
3120066209197.5317
 30
0.0
 11
346674124597.25806
 21
3120066209297.479
 31
0.0
  0
LINE
  8
6
  6
CONTINUOUS
 62
     7
  5
1BC
 10
346674124597.25806
 20
3120066209297.479
 30
0.0
 11
346674124600.48206
 21
3120066209397.4277
 31
0.0
  0
LINE
  8
6
  6
CONTINUOUS
 62
     7
  5
1BD
 10
346674124600.48206
 20
3120066209397.4277
 30
0.0
 11
346674124603.70605
 21
3120066209497.376
 31
0.0
  0
LINE
  8
6
  6
CONTINUOUS
 62
     7
  5
1BE
 10
346674124603.70605
 20
3120066209497.376
 30
0.0
 11
346674124606.75305
 21
3120066209591.8271
 31
0.0
  0
LINE
  8
6
  6
CONTINUOUS
 62
     7
  5
1BF
 10
346674124608.36603
 20
3120066209641.8008
 30
0.0
 11
346674124611.41205
 21
3120066209736.251
 31
0.0
  0
LINE
  8
6
  6
CONTINUOUS
 62
     7
  5
1C0
 10
346674124611.41205
 20
3120066209736.251
 30
0.0
 11
346674124614.63605
 21
3120066209836.1987
 31
0.0
  0
LINE
  8
6
  6
CONTINUOUS
 62
     7
  5
1C1
 10
346674124614.63605
 20
3120066209836.1987
 30
0.0
 11
346674124617.86102
 21
3120066209936.147
 31
0.0
  0
LINE
  8
6
  6
CONTINUOUS
 62
     7
  5
1C2
 10
346674124617.86102
 20
3120066209936.147
 30
0.0
 11
346674124621.08606
 21
3120066210036.0962
 31
0.0
  0
LINE
  8
6
  6
CONTINUOUS
 62
     7
  5
1C3
 10
346674124621.08606
 20
3120066210036.0962
 30
0.0
 11
346674124624.30902
 21
3120066210136.0439
 31
0.0
  0
TEXT
  8
10
  6
CONTINUOUS
 62
   134
  5
1C4
 10
346674124666.85901
 20
3120066210076.2681
 30
0.0
 40
13.999
  1
1
 50
358.2152
  7
ROMANS
 72
     4
 11
346674124669.40894
 21
3120066210083.1919
 31
0.0
210
0.0
220
0.0
230
1.0
  0
TEXT
  8
10
  6
CONTINUOUS
 62
   134
  5
1C5
 10
346674124662.93903
 20
3120066209976.1758
 30
0.0
 40
13.999
  1
2
 50
358.2152
  7
ROMANS
 72
     4
 11
346674124667.2381
 21
3120066209983.0454
 31
0.0
210
0.0
220
0.0
230
1.0
  0
TEXT
  8
10
  6
CONTINUOUS
 62
   134
  5
1C6
 10
346674124658.82703
 20
3120066209875.127
 30
0.0
 40
13.999
  1
3
 50
358.2152
  7
ROMANS
 72
     4
 11
346674124663.1261
 21
3120066209881.9966
 31
0.0
210
0.0
220
0.0
230
1.0
  0
TEXT
  8
10
  6
CONTINUOUS
 62
   134
  5
1C7
 10
346674124657.81104
 20
3120066209780.7271
 30
0.0
 40
13.999
  1
4
 50
358.2152
  7
ROMANS
 72
     4
 11
346674124662.11005
 21
3120066209787.5962
 31
0.0
210
0.0
220
0.0
230
1.0
  0
TEXT
  8
10
  6
CONTINUOUS
 62
   134
  5
1C8
 10
346674124654.78101
 20
3120066209683.498
 30
0.0
 40
13.999
  1
5
 50
358.2152
  7
ROMANS
 72
     4
 11
346674124659.09808
 21
3120066209690.3667
 31
0.0
210
0.0
220
0.0
230
1.0
  0
TEXT
  8
10
  6
CONTINUOUS
 62
   134
  5
1C9
 10
346674124649.92303
 20
3120066209534.0361
 30
0.0
 40
13.999
  1
1
 50
358.2152
  7
ROMANS
 72
     4
 11
346674124652.4729
 21
3120066209540.96
 31
0.0
210
0.0
220
0.0
230
1.0
  0
TEXT
  8
10
  6
CONTINUOUS
 62
   134
  5
1CA
 10
346674124645.13
 20
3120066209436.8618
 30
0.0
 40
13.999
  1
2
 50
358.2152
  7
ROMANS
 72
     4
 11
346674124649.42908
 21
3120066209443.7314
 31
0.0
210
0.0
220
0.0
230
1.0
  0
TEXT
  8
10
  6
CONTINUOUS
 62
   134
  5
1CB
 10
346674124643.00201
 20
3120066209337.6792
 30
0.0
 40
13.999
  1
3
 50
358.2152
  7
ROMANS
 72
     4
 11
346674124647.30109
 21
3120066209344.5483
 31
0.0
210
0.0
220
0.0
230
1.0
  0
TEXT
  8
10
  6
CONTINUOUS
 62
   134
  5
1CC
 10
346674124642.79901
 20
3120066209238.436
 30
0.0
 40
13.999
  1
4
 50
358.2152
  7
ROMANS
 72
     4
 11
346674124647.09808
 21
3120066209245.3052
 31
0.0
210
0.0
220
0.0
230
1.0
  0
TEXT
  8
10
  6
CONTINUOUS
 62
   134
  5
1CD
 10
346674124636.77606
 20
3120066209137.8701
 30
0.0
 40
13.999
  1
5
 50
358.2152
  7
ROMANS
 72
     4
 11
346674124641.09308
 21
3120066209144.7388
 31
0.0
210
0.0
220
0.0
230
1.0
  0
LINE
  8
6
  6
CONTINUOUS
 62
     7
  5
1CE
 10
346674124750.40503
 20
3120066209392.5918
 30
0.0
 11
346674124600.48206
 21
3120066209397.4277
 31
0.0
  0
LINE
  8
6
  6
CONTINUOUS
 62
     7
  5
1CF
 10
346674124747.17902
 20
3120066209292.6431
 30
0.0
 11
346674124597.25806
 21
3120066209297.479
 31
0.0
  0
LINE
  8
6
  6
CONTINUOUS
 62
     7
  5
1D0
 10
346674124743.95605
 20
3120066209192.6948
 30
0.0
 11
346674124594.03302
 21
3120066209197.5317
 31
0.0
  0
LINE
  8
6
  6
CONTINUOUS
 62
     7
  5
1D1
 10
346674124753.62805
 20
3120066209492.5391
 30
0.0
 11
346674124603.70605
 21
3120066209497.376
 31
0.0
  0
LINE
  8
6
  6
CONTINUOUS
 62
     7
  5
1D2
 10
346674124771.00702
 20
3120066210031.2588
 30
0.0
 11
346674124621.08606
 21
3120066210036.0962
 31
0.0
  0
LINE
  8
6
  6
CONTINUOUS
 62
     7
  5
1D3
 10
346674124767.78302
 20
3120066209931.311
 30
0.0
 11
346674124617.86102
 21
3120066209936.147
 31
0.0
  0
LINE
  8
6
  6
CONTINUOUS
 62
     7
  5
1D4
 10
346674124764.56006
 20
3120066209831.3628
 30
0.0
 11
346674124614.63605
 21
3120066209836.1987
 31
0.0
  0
LINE
  8
6
  6
CONTINUOUS
 62
     7
  5
1D5
 10
346674124761.33405
 20
3120066209731.4141
 30
0.0
 11
346674124611.41205
 21
3120066209736.251
 31
0.0
  0
LINE
  8
6
  6
CONTINUOUS
 62
     7
  5
1D6
 10
346674124586.76306
 20
3120066209592.4712
 30
0.0
 11
346674124436.84204
 21
3120066209597.3081
 31
0.0
  0
LINE
  8
6
  6
CONTINUOUS
 62
     7
  5
1D7
 10
346674124570.81903
 20
3120066209098.228
 30
0.0
 11
346674124420.89703
 21
3120066209103.064
 31
0.0
  0
LINE
  8
6
  6
CONTINUOUS
 62
     7
  5
1D8
 10
346674124420.89703
 20
3120066209103.064
 30
0.0
 11
346674124424.12201
 21
3120066209203.0122
 31
0.0
  0
LINE
  8
6
  6
CONTINUOUS
 62
     7
  5
1D9
 10
346674124424.12201
 20
3120066209203.0122
 30
0.0
 11
346674124427.34503
 21
3120066209302.9609
 31
0.0
  0
LINE
  8
6
  6
CONTINUOUS
 62
     7
  5
1DA
 10
346674124427.34503
 20
3120066209302.9609
 30
0.0
 11
346674124430.57104
 21
3120066209402.9092
 31
0.0
  0
LINE
  8
6
  6
CONTINUOUS
 62
     7
  5
1DB
 10
346674124430.57104
 20
3120066209402.9092
 30
0.0
 11
346674124433.79504
 21
3120066209502.8569
 31
0.0
  0
LINE
  8
6
  6
CONTINUOUS
 62
     7
  5
1DC
 10
346674124433.79504
 20
3120066209502.8569
 30
0.0
 11
346674124436.84204
 21
3120066209597.3081
 31
0.0
  0
LINE
  8
6
  6
CONTINUOUS
 62
     7
  5
1DD
 10
346674124580.492
 20
3120066209398.0728
 30
0.0
 11
346674124430.57104
 21
3120066209402.9092
 31
0.0
  0
LINE
  8
6
  6
CONTINUOUS
 62
     7
  5
1DE
 10
346674124577.26904
 20
3120066209298.124
 30
0.0
 11
346674124427.34503
 21
3120066209302.9609
 31
0.0
  0
LINE
  8
6
  6
CONTINUOUS
 62
     7
  5
1DF
 10
346674124574.04401
 20
3120066209198.1768
 30
0.0
 11
346674124424.12201
 21
3120066209203.0122
 31
0.0
  0
LINE
  8
6
  6
CONTINUOUS
 62
     7
  5
1E0
 10
346674124583.71704
 20
3120066209498.021
 30
0.0
 11
346674124433.79504
 21
3120066209502.8569
 31
0.0
  0
LINE
  8
6
  6
CONTINUOUS
 62
     7
  5
1E1
 10
346674124586.76306
 20
3120066209592.4712
 30
0.0
 11
346674124583.71704
 21
3120066209498.021
 31
0.0
  0
LINE
  8
6
  6
CONTINUOUS
 62
     7
  5
1E2
 10
346674124583.71704
 20
3120066209498.021
 30
0.0
 11
346674124580.492
 21
3120066209398.0728
 31
0.0
  0
LINE
  8
6
  6
CONTINUOUS
 62
     7
  5
1E3
 10
346674124580.492
 20
3120066209398.0728
 30
0.0
 11
346674124577.26904
 21
3120066209298.124
 31
0.0
  0
LINE
  8
6
  6
CONTINUOUS
 62
     7
  5
1E4
 10
346674124577.26904
 20
3120066209298.124
 30
0.0
 11
346674124574.04401
 21
3120066209198.1768
 31
0.0
  0
LINE
  8
6
  6
CONTINUOUS
 62
     7
  5
1E5
 10
346674124574.04401
 20
3120066209198.1768
 30
0.0
 11
346674124570.81903
 21
3120066209098.228
 31
0.0
  0
LINE
  8
6
  6
CONTINUOUS
 62
     7
  5
1E6
 10
346674124604.32104
 20
3120066210136.689
 30
0.0
 11
346674124454.39905
 21
3120066210141.5249
 31
0.0
  0
LINE
  8
6
  6
CONTINUOUS
 62
     7
  5
1E7
 10
346674124588.37506
 20
3120066209642.4448
 30
0.0
 11
346674124438.45306
 21
3120066209647.2817
 31
0.0
  0
LINE
  8
6
  6
CONTINUOUS
 62
     7
  5
1E8
 10
346674124438.45306
 20
3120066209647.2817
 30
0.0
 11
346674124441.50006
 21
3120066209741.7319
 31
0.0
  0
LINE
  8
6
  6
CONTINUOUS
 62
     7
  5
1E9
 10
346674124441.50006
 20
3120066209741.7319
 30
0.0
 11
346674124444.72601
 21
3120066209841.6802
 31
0.0
  0
LINE
  8
6
  6
CONTINUOUS
 62
     7
  5
1EA
 10
346674124444.72601
 20
3120066209841.6802
 30
0.0
 11
346674124447.94904
 21
3120066209941.6289
 31
0.0
  0
LINE
  8
6
  6
CONTINUOUS
 62
     7
  5
1EB
 10
346674124447.94904
 20
3120066209941.6289
 30
0.0
 11
346674124451.17303
 21
3120066210041.5762
 31
0.0
  0
LINE
  8
6
  6
CONTINUOUS
 62
     7
  5
1EC
 10
346674124451.17303
 20
3120066210041.5762
 30
0.0
 11
346674124454.39905
 21
3120066210141.5249
 31
0.0
  0
LINE
  8
6
  6
CONTINUOUS
 62
     7
  5
1ED
 10
346674124601.09503
 20
3120066210036.7412
 30
0.0
 11
346674124451.17303
 21
3120066210041.5762
 31
0.0
  0
LINE
  8
6
  6
CONTINUOUS
 62
     7
  5
1EE
 10
346674124597.87201
 20
3120066209936.792
 30
0.0
 11
346674124447.94904
 21
3120066209941.6289
 31
0.0
  0
LINE
  8
6
  6
CONTINUOUS
 62
     7
  5
1EF
 10
346674124594.64703
 20
3120066209836.8437
 30
0.0
 11
346674124444.72601
 21
3120066209841.6802
 31
0.0
  0
LINE
  8
6
  6
CONTINUOUS
 62
     7
  5
1F0
 10
346674124591.42303
 20
3120066209736.896
 30
0.0
 11
346674124441.50006
 21
3120066209741.7319
 31
0.0
  0
LINE
  8
6
  6
CONTINUOUS
 62
     7
  5
1F1
 10
346674124404.42401
 20
3120066210143.1357
 30
0.0
 11
346674124254.50201
 21
3120066210147.9741
 31
0.0
  0
LINE
  8
6
  6
CONTINUOUS
 62
     7
  5
1F2
 10
346674124388.48004
 20
3120066209648.894
 30
0.0
 11
346674124238.55804
 21
3120066209653.73
 31
0.0
  0
LINE
  8
6
  6
CONTINUOUS
 62
     7
  5
1F3
 10
346674124238.55804
 20
3120066209653.73
 30
0.0
 11
346674124241.604
 21
3120066209748.1812
 31
0.0
  0
LINE
  8
6
  6
CONTINUOUS
 62
     7
  5
1F4
 10
346674124241.604
 20
3120066209748.1812
 30
0.0
 11
346674124244.82904
 21
3120066209848.1289
 31
0.0
  0
LINE
  8
6
  6
CONTINUOUS
 62
     7
  5
1F5
 10
346674124244.82904
 20
3120066209848.1289
 30
0.0
 11
346674124248.05304
 21
3120066209948.0771
 31
0.0
  0
LINE
  8
6
  6
CONTINUOUS
 62
     7
  5
1F6
 10
346674124248.05304
 20
3120066209948.0771
 30
0.0
 11
346674124251.27802
 21
3120066210048.0259
 31
0.0
  0
LINE
  8
6
  6
CONTINUOUS
 62
     7
  5
1F7
 10
346674124251.27802
 20
3120066210048.0259
 30
0.0
 11
346674124254.50201
 21
3120066210147.9741
 31
0.0
  0
TEXT
  8
10
  6
CONTINUOUS
 62
   134
  5
1F8
 10
346674124297.03906
 20
3120066210087.791
 30
0.0
 40
13.999
  1
1
 50
358.2152
  7
ROMANS
 72
     4
 11
346674124299.58893
 21
3120066210094.7148
 31
0.0
210
0.0
220
0.0
230
1.0
  0
TEXT
  8
10
  6
CONTINUOUS
 62
   134
  5
1F9
 10
346674124293.11902
 20
3120066209987.7002
 30
0.0
 40
13.999
  1
2
 50
358.2152
  7
ROMANS
 72
     4
 11
346674124297.41809
 21
3120066209994.5693
 31
0.0
210
0.0
220
0.0
230
1.0
  0
TEXT
  8
10
  6
CONTINUOUS
 62
   134
  5
1FA
 10
346674124289.00604
 20
3120066209886.6509
 30
0.0
 40
13.999
  1
3
 50
358.2152
  7
ROMANS
 72
     4
 11
346674124293.30505
 21
3120066209893.5205
 31
0.0
210
0.0
220
0.0
230
1.0
  0
TEXT
  8
10
  6
CONTINUOUS
 62
   134
  5
1FB
 10
346674124287.99103
 20
3120066209792.251
 30
0.0
 40
13.999
  1
4
 50
358.2152
  7
ROMANS
 72
     4
 11
346674124292.2901
 21
3120066209799.1206
 31
0.0
210
0.0
220
0.0
230
1.0
  0
TEXT
  8
10
  6
CONTINUOUS
 62
   134
  5
1FC
 10
346674124284.96106
 20
3120066209695.022
 30
0.0
 40
13.999
  1
5
 50
358.2152
  7
ROMANS
 72
     4
 11
346674124289.27808
 21
3120066209701.8906
 31
0.0
210
0.0
220
0.0
230
1.0
  0
LINE
  8
6
  6
CONTINUOUS
 62
     7
  5
1FD
 10
346674124401.19904
 20
3120066210043.189
 30
0.0
 11
346674124251.27802
 21
3120066210048.0259
 31
0.0
  0
LINE
  8
6
  6
CONTINUOUS
 62
     7
  5
1FE
 10
346674124397.97601
 20
3120066209943.2412
 30
0.0
 11
346674124248.05304
 21
3120066209948.0771
 31
0.0
  0
LINE
  8
6
  6
CONTINUOUS
 62
     7
  5
1FF
 10
346674124394.75104
 20
3120066209843.293
 30
0.0
 11
346674124244.82904
 21
3120066209848.1289
 31
0.0
  0
LINE
  8
6
  6
CONTINUOUS
 62
     7
  5
200
 10
346674124391.52704
 20
3120066209743.3437
 30
0.0
 11
346674124241.604
 21
3120066209748.1812
 31
0.0
  0
LINE
  8
6
  6
CONTINUOUS
 62
     7
  5
201
 10
346674124604.32104
 20
3120066210136.689
 30
0.0
 11
346674124601.09503
 21
3120066210036.7412
 31
0.0
  0
LINE
  8
6
  6
CONTINUOUS
 62
     7
  5
202
 10
346674124601.09503
 20
3120066210036.7412
 30
0.0
 11
346674124597.87201
 21
3120066209936.792
 31
0.0
  0
LINE
  8
6
  6
CONTINUOUS
 62
     7
  5
203
 10
346674124597.87201
 20
3120066209936.792
 30
0.0
 11
346674124594.64703
 21
3120066209836.8437
 31
0.0
  0
LINE
  8
6
  6
CONTINUOUS
 62
     7
  5
204
 10
346674124591.42303
 20
3120066209736.896
 30
0.0
 11
346674124588.37506
 21
3120066209642.4448
 31
0.0
  0
LINE
  8
6
  6
CONTINUOUS
 62
     7
  5
205
 10
346674124594.64703
 20
3120066209836.8437
 30
0.0
 11
346674124591.42303
 21
3120066209736.896
 31
0.0
  0
LINE
  8
6
  6
CONTINUOUS
 62
     7
  5
206
 10
346674124404.42401
 20
3120066210143.1357
 30
0.0
 11
346674124401.19904
 21
3120066210043.189
 31
0.0
  0
LINE
  8
6
  6
CONTINUOUS
 62
     7
  5
207
 10
346674124401.19904
 20
3120066210043.189
 30
0.0
 11
346674124397.97601
 21
3120066209943.2412
 31
0.0
  0
LINE
  8
6
  6
CONTINUOUS
 62
     7
  5
208
 10
346674124397.97601
 20
3120066209943.2412
 30
0.0
 11
346674124394.75104
 21
3120066209843.293
 31
0.0
  0
LINE
  8
6
  6
CONTINUOUS
 62
     7
  5
209
 10
346674124394.75104
 20
3120066209843.293
 30
0.0
 11
346674124391.52704
 21
3120066209743.3437
 31
0.0
  0
LINE
  8
6
  6
CONTINUOUS
 62
     7
  5
20A
 10
346674124391.52704
 20
3120066209743.3437
 30
0.0
 11
346674124388.48004
 21
3120066209648.894
 31
0.0
  0
LINE
  8
6
  6
CONTINUOUS
 62
     7
  5
20B
 10
346674124386.86804
 20
3120066209598.9189
 30
0.0
 11
346674124236.94604
 21
3120066209603.7559
 31
0.0
  0
LINE
  8
6
  6
CONTINUOUS
 62
     7
  5
20C
 10
346674124370.92505
 20
3120066209104.6768
 30
0.0
 11
346674124221.00104
 21
3120066209109.5132
 31
0.0
  0
LINE
  8
6
  6
CONTINUOUS
 62
     7
  5
20D
 10
346674124221.00104
 20
3120066209109.5132
 30
0.0
 11
346674124224.22601
 21
3120066209209.4619
 31
0.0
  0
LINE
  8
6
  6
CONTINUOUS
 62
     7
  5
20E
 10
346674124224.22601
 20
3120066209209.4619
 30
0.0
 11
346674124227.45001
 21
3120066209309.4092
 31
0.0
  0
LINE
  8
6
  6
CONTINUOUS
 62
     7
  5
20F
 10
346674124227.45001
 20
3120066209309.4092
 30
0.0
 11
346674124230.67401
 21
3120066209409.3579
 31
0.0
  0
LINE
  8
6
  6
CONTINUOUS
 62
     7
  5
210
 10
346674124230.67401
 20
3120066209409.3579
 30
0.0
 11
346674124233.90002
 21
3120066209509.3062
 31
0.0
  0
LINE
  8
6
  6
CONTINUOUS
 62
     7
  5
211
 10
346674124233.90002
 20
3120066209509.3062
 30
0.0
 11
346674124236.94604
 21
3120066209603.7559
 31
0.0
  0
TEXT
  8
10
  6
CONTINUOUS
 62
   134
  5
212
 10
346674124280.10303
 20
3120066209545.5601
 30
0.0
 40
13.999
  1
1
 50
358.2152
  7
ROMANS
 72
     4
 11
346674124282.65289
 21
3120066209552.4839
 31
0.0
210
0.0
220
0.0
230
1.0
  0
TEXT
  8
10
  6
CONTINUOUS
 62
   134
  5
213
 10
346674124275.31006
 20
3120066209448.3857
 30
0.0
 40
13.999
  1
2
 50
358.2152
  7
ROMANS
 72
     4
 11
346674124279.60907
 21
3120066209455.2554
 31
0.0
210
0.0
220
0.0
230
1.0
  0
TEXT
  8
10
  6
CONTINUOUS
 62
   134
  5
214
 10
346674124273.18201
 20
3120066209349.2031
 30
0.0
 40
13.999
  1
3
 50
358.2152
  7
ROMANS
 72
     4
 11
346674124277.48108
 21
3120066209356.0723
 31
0.0
210
0.0
220
0.0
230
1.0
  0
TEXT
  8
10
  6
CONTINUOUS
 62
   134
  5
215
 10
346674124272.97803
 20
3120066209249.959
 30
0.0
 40
13.999
  1
4
 50
358.2152
  7
ROMANS
 72
     4
 11
346674124277.2771
 21
3120066209256.8286
 31
0.0
210
0.0
220
0.0
230
1.0
  0
TEXT
  8
10
  6
CONTINUOUS
 62
   134
  5
216
 10
346674124266.95502
 20
3120066209149.394
 30
0.0
 40
13.999
  1
5
 50
358.2152
  7
ROMANS
 72
     4
 11
346674124271.27203
 21
3120066209156.2627
 31
0.0
210
0.0
220
0.0
230
1.0
  0
LINE
  8
6
  6
CONTINUOUS
 62
     7
  5
217
 10
346674124380.59601
 20
3120066209404.522
 30
0.0
 11
346674124230.67401
 21
3120066209409.3579
 31
0.0
  0
LINE
  8
6
  6
CONTINUOUS
 62
     7
  5
218
 10
346674124377.37201
 20
3120066209304.5728
 30
0.0
 11
346674124227.45001
 21
3120066209309.4092
 31
0.0
  0
LINE
  8
6
  6
CONTINUOUS
 62
     7
  5
219
 10
346674124374.14801
 20
3120066209204.625
 30
0.0
 11
346674124224.22601
 21
3120066209209.4619
 31
0.0
  0
LINE
  8
6
  6
CONTINUOUS
 62
     7
  5
21A
 10
346674124383.82104
 20
3120066209504.4678
 30
0.0
 11
346674124233.90002
 21
3120066209509.3062
 31
0.0
  0
LINE
  8
6
  6
CONTINUOUS
 62
     7
  5
21B
 10
346674124386.86804
 20
3120066209598.9189
 30
0.0
 11
346674124383.82104
 21
3120066209504.4678
 31
0.0
  0
LINE
  8
6
  6
CONTINUOUS
 62
     7
  5
21C
 10
346674124383.82104
 20
3120066209504.4678
 30
0.0
 11
346674124380.59601
 21
3120066209404.522
 31
0.0
  0
LINE
  8
6
  6
CONTINUOUS
 62
     7
  5
21D
 10
346674124380.59601
 20
3120066209404.522
 30
0.0
 11
346674124377.37201
 21
3120066209304.5728
 31
0.0
  0
LINE
  8
6
  6
CONTINUOUS
 62
     7
  5
21E
 10
346674124377.37201
 20
3120066209304.5728
 30
0.0
 11
346674124374.14801
 21
3120066209204.625
 31
0.0
  0
LINE
  8
6
  6
CONTINUOUS
 62
     7
  5
21F
 10
346674124374.14801
 20
3120066209204.625
 30
0.0
 11
346674124370.92505
 21
3120066209104.6768
 31
0.0
  0
TEXT
  8
10
  6
CONTINUOUS
 62
   134
  5
220
 10
346674124470.00305
 20
3120066209144.0308
 30
0.0
 40
13.999
  1
6
 50
358.2152
  7
ROMANS
 72
     4
 11
346674124474.62988
 21
3120066209150.8901
 31
0.0
210
0.0
220
0.0
230
1.0
  0
TEXT
  8
10
  6
CONTINUOUS
 62
   134
  5
221
 10
346674124470.53705
 20
3120066209243.2642
 30
0.0
 40
13.999
  1
7
 50
358.2152
  7
ROMANS
 72
     4
 11
346674124474.83606
 21
3120066209250.1333
 31
0.0
210
0.0
220
0.0
230
1.0
  0
TEXT
  8
10
  6
CONTINUOUS
 62
   134
  5
222
 10
346674124471.64203
 20
3120066209340.5518
 30
0.0
 40
13.999
  1
8
 50
358.2152
  7
ROMANS
 72
     4
 11
346674124475.9411
 21
3120066209347.4214
 31
0.0
210
0.0
220
0.0
230
1.0
  0
TEXT
  8
10
  6
CONTINUOUS
 62
   134
  5
223
 10
346674124475.78503
 20
3120066209442.563
 30
0.0
 40
13.999
  1
9
 50
358.2152
  7
ROMANS
 72
     4
 11
346674124480.08405
 21
3120066209449.4326
 31
0.0
210
0.0
220
0.0
230
1.0
  0
TEXT
  8
10
  6
CONTINUOUS
 62
   134
  5
224
 10
346674124468.43402
 20
3120066209540.1162
 30
0.0
 40
13.999
  1
10
 50
358.2152
  7
ROMANS
 72
     4
 11
346674124480.2854
 21
3120066209546.75
 31
0.0
210
0.0
220
0.0
230
1.0
  0
TEXT
  8
10
  6
CONTINUOUS
 62
   134
  5
225
 10
346674124485.06201
 20
3120066209687.8228
 30
0.0
 40
13.999
  1
6
 50
358.2152
  7
ROMANS
 72
     4
 11
346674124489.6889
 21
3120066209694.6821
 31
0.0
210
0.0
220
0.0
230
1.0
  0
TEXT
  8
10
  6
CONTINUOUS
 62
   134
  5
226
 10
346674124484.54303
 20
3120066209784.1978
 30
0.0
 40
13.999
  1
7
 50
358.2152
  7
ROMANS
 72
     4
 11
346674124488.8421
 21
3120066209791.0674
 31
0.0
210
0.0
220
0.0
230
1.0
  0
TEXT
  8
10
  6
CONTINUOUS
 62
   134
  5
227
 10
346674124486.70105
 20
3120066209884.3452
 30
0.0
 40
13.999
  1
8
 50
358.2152
  7
ROMANS
 72
     4
 11
346674124491.00006
 21
3120066209891.2144
 31
0.0
210
0.0
220
0.0
230
1.0
  0
TEXT
  8
10
  6
CONTINUOUS
 62
   134
  5
228
 10
346674124490.75305
 20
3120066209983.4687
 30
0.0
 40
13.999
  1
9
 50
358.2152
  7
ROMANS
 72
     4
 11
346674124495.05206
 21
3120066209990.3384
 31
0.0
210
0.0
220
0.0
230
1.0
  0
TEXT
  8
10
  6
CONTINUOUS
 62
   134
  5
229
 10
346674124483.43304
 20
3120066210081.9829
 30
0.0
 40
13.999
  1
10
 50
358.2152
  7
ROMANS
 72
     4
 11
346674124495.28442
 21
3120066210088.6172
 31
0.0
210
0.0
220
0.0
230
1.0
  0
LINE
  8
6
  6
CONTINUOUS
 62
     7
  5
22A
 10
346674124218.56805
 20
3120066209654.375
 30
0.0
 11
346674124234.51202
 21
3120066210148.6182
 31
0.0
  0
LINE
  8
6
  6
CONTINUOUS
 62
     7
  5
22B
 10
346674124201.01202
 20
3120066209110.1582
 30
0.0
 11
346674124216.95605
 21
3120066209604.4009
 31
0.0
  0
LINE
  8
6
  6
CONTINUOUS
 62
     7
  5
22C
 10
346674123741.25104
 20
3120066209124.9897
 30
0.0
 11
346674123757.19604
 21
3120066209619.2329
 31
0.0
  0
LINE
  8
6
  6
CONTINUOUS
 62
     7
  5
22D
 10
346674123758.80701
 20
3120066209669.207
 30
0.0
 11
346674123774.75104
 21
3120066210163.4502
 31
0.0
  0
LINE
  8
6
  6
CONTINUOUS
 62
     7
  5
22E
 10
346674123774.75104
 20
3120066210163.4502
 30
0.0
 11
346674124234.51202
 21
3120066210148.6182
 31
0.0
  0
LINE
  8
6
  6
CONTINUOUS
 62
     7
  5
22F
 10
346674123758.80701
 20
3120066209669.207
 30
0.0
 11
346674124218.56805
 21
3120066209654.375
 31
0.0
  0
LINE
  8
6
  6
CONTINUOUS
 62
     7
  5
230
 10
346674123757.19604
 20
3120066209619.2329
 30
0.0
 11
346674124216.95605
 21
3120066209604.4009
 31
0.0
  0
LINE
  8
6
  6
CONTINUOUS
 62
     7
  5
231
 10
346674123741.25104
 20
3120066209124.9897
 30
0.0
 11
346674124201.01202
 21
3120066209110.1582
 31
0.0
  0
LINE
  8
6
  6
CONTINUOUS
 62
     7
  5
232
 10
346674123774.75104
 20
3120066210163.4502
 30
0.0
 11
346674123775.55701
 21
3120066210188.437
 31
0.0
  0
TEXT
  8
11
  6
CONTINUOUS
 62
     7
  5
233
 10
346674124649.38702
 20
3120066209641.02
 30
0.0
 40
8.0
  1
150'
 50
358.2152
  7
ROMANS
 72
     1
 11
346674124662.71356
 21
3120066209640.6045
 31
0.0
210
0.0
220
0.0
230
1.0
  0
TEXT
  8
11
  6
CONTINUOUS
 62
     7
  5
234
 10
346674124649.45404
 20
3120066209735.563
 30
0.0
 40
8.0
  1
150'
 50
358.2152
  7
ROMANS
 72
     1
 11
346674124662.78058
 21
3120066209735.1479
 31
0.0
210
0.0
220
0.0
230
1.0
  0
TEXT
  8
11
  6
CONTINUOUS
 62
     7
  5
235
 10
346674124655.92102
 20
3120066210035.5078
 30
0.0
 40
8.0
  1
150'
 50
358.2152
  7
ROMANS
 72
     1
 11
346674124669.24756
 21
3120066210035.0928
 31
0.0
210
0.0
220
0.0
230
1.0
  0
TEXT
  8
11
  6
CONTINUOUS
 62
     7
  5
236
 10
346674124487.16602
 20
3120066210040.7661
 30
0.0
 40
8.0
  1
150'
 50
358.2152
  7
ROMANS
 72
     1
 11
346674124500.49255
 21
3120066210040.3506
 31
0.0
210
0.0
220
0.0
230
1.0
  0
TEXT
  8
11
  6
CONTINUOUS
 62
     7
  5
237
 10
346674124480.69904
 20
3120066209740.8218
 30
0.0
 40
8.0
  1
150'
 50
358.2152
  7
ROMANS
 72
     1
 11
346674124494.02557
 21
3120066209740.4067
 31
0.0
210
0.0
220
0.0
230
1.0
  0
TEXT
  8
11
  6
CONTINUOUS
 62
     7
  5
238
 10
346674124476.79706
 20
3120066209646.3979
 30
0.0
 40
8.0
  1
150'
 50
358.2152
  7
ROMANS
 72
     1
 11
346674124490.12354
 21
3120066209645.9829
 31
0.0
210
0.0
220
0.0
230
1.0
  0
TEXT
  8
11
  6
CONTINUOUS
 62
     7
  5
239
 10
346674124275.44202
 20
3120066209652.6719
 30
0.0
 40
8.0
  1
150'
 50
358.2152
  7
ROMANS
 72
     1
 11
346674124288.76855
 21
3120066209652.2568
 31
0.0
210
0.0
220
0.0
230
1.0
  0
TEXT
  8
11
  6
CONTINUOUS
 62
     7
  5
23A
 10
346674124273.59204
 20
3120066209747.2759
 30
0.0
 40
8.0
  1
150'
 50
358.2152
  7
ROMANS
 72
     1
 11
346674124286.91858
 21
3120066209746.8608
 31
0.0
210
0.0
220
0.0
230
1.0
  0
TEXT
  8
11
  6
CONTINUOUS
 62
     7
  5
23B
 10
346674124287.729
 20
3120066210046.981
 30
0.0
 40
8.0
  1
150'
 50
358.2152
  7
ROMANS
 72
     1
 11
346674124301.05554
 21
3120066210046.5659
 31
0.0
210
0.0
220
0.0
230
1.0
  0
TEXT
  8
11
  6
CONTINUOUS
 62
     7
  5
23C
 10
346674124271.92706
 20
3120066209508.2109
 30
0.0
 40
8.0
  1
150'
 50
358.2152
  7
ROMANS
 72
     1
 11
346674124285.25354
 21
3120066209507.7959
 31
0.0
210
0.0
220
0.0
230
1.0
  0
TEXT
  8
11
  6
CONTINUOUS
 62
     7
  5
23D
 10
346674124473.28204
 20
3120066209501.937
 30
0.0
 40
8.0
  1
150'
 50
358.2152
  7
ROMANS
 72
     1
 11
346674124486.60858
 21
3120066209501.5215
 31
0.0
210
0.0
220
0.0
230
1.0
  0
TEXT
  8
11
  6
CONTINUOUS
 62
     7
  5
23E
 10
346674124647.78906
 20
3120066209496.499
 30
0.0
 40
8.0
  1
150'
 50
358.2152
  7
ROMANS
 72
     1
 11
346674124661.11554
 21
3120066209496.0835
 31
0.0
210
0.0
220
0.0
230
1.0
  0
TEXT
  8
11
  6
CONTINUOUS
 62
     7
  5
23F
 10
346674124634.61005
 20
3120066209196.7642
 30
0.0
 40
8.0
  1
150'
 50
358.2152
  7
ROMANS
 72
     1
 11
346674124647.93658
 21
3120066209196.3486
 31
0.0
210
0.0
220
0.0
230
1.0
  0
TEXT
  8
11
  6
CONTINUOUS
 62
     7
  5
240
 10
346674124460.10303
 20
3120066209202.2021
 30
0.0
 40
8.0
  1
150'
 50
358.2152
  7
ROMANS
 72
     1
 11
346674124473.42957
 21
3120066209201.7866
 31
0.0
210
0.0
220
0.0
230
1.0
  0
TEXT
  8
11
  6
CONTINUOUS
 62
     7
  5
241
 10
346674124459.86505
 20
3120066209102.1611
 30
0.0
 40
8.0
  1
150'
 50
358.2152
  7
ROMANS
 72
     1
 11
346674124473.19159
 21
3120066209101.7456
 31
0.0
210
0.0
220
0.0
230
1.0
  0
TEXT
  8
11
  6
CONTINUOUS
 62
     7
  5
242
 10
346674124642.04205
 20
3120066209096.4839
 30
0.0
 40
8.0
  1
150'
 50
358.2152
  7
ROMANS
 72
     1
 11
346674124655.36859
 21
3120066209096.0688
 31
0.0
210
0.0
220
0.0
230
1.0
  0
TEXT
  8
11
  6
CONTINUOUS
 62
     7
  5
243
 10
346674124257.55103
 20
3120066209108.4648
 30
0.0
 40
8.0
  1
150'
 50
358.2152
  7
ROMANS
 72
     1
 11
346674124270.87756
 21
3120066209108.0498
 31
0.0
210
0.0
220
0.0
230
1.0
  0
TEXT
  8
11
  6
CONTINUOUS
 62
     7
  5
244
 10
346674124256.83002
 20
3120066209208.5361
 30
0.0
 40
8.0
  1
150'
 50
358.2152
  7
ROMANS
 72
     1
 11
346674124270.15656
 21
3120066209208.1206
 31
0.0
210
0.0
220
0.0
230
1.0
  0
TEXT
  8
11
  6
CONTINUOUS
 62
     7
  5
245
 10
346674124716.25006
 20
3120066209128.6699
 30
0.0
 40
8.0
  1
100'
 50
88.2152
  7
ROMANS
 72
     1
 11
346674124716.66528
 21
3120066209141.9966
 31
0.0
210
0.0
220
0.0
230
1.0
  0
TEXT
  8
11
  6
CONTINUOUS
 62
     7
  5
246
 10
346674124719.50806
 20
3120066209233.2241
 30
0.0
 40
8.0
  1
100'
 50
88.2152
  7
ROMANS
 72
     1
 11
346674124719.92328
 21
3120066209246.5503
 31
0.0
210
0.0
220
0.0
230
1.0
  0
TEXT
  8
11
  6
CONTINUOUS
 62
     7
  5
247
 10
346674124722.64606
 20
3120066209333.9419
 30
0.0
 40
8.0
  1
100'
 50
88.2152
  7
ROMANS
 72
     1
 11
346674124723.06128
 21
3120066209347.2686
 31
0.0
210
0.0
220
0.0
230
1.0
  0
TEXT
  8
11
  6
CONTINUOUS
 62
     7
  5
248
 10
346674124725.30603
 20
3120066209419.313
 30
0.0
 40
8.0
  1
100'
 50
88.2152
  7
ROMANS
 72
     1
 11
346674124725.72131
 21
3120066209432.6396
 31
0.0
210
0.0
220
0.0
230
1.0
  0
TEXT
  8
11
  6
CONTINUOUS
 62
     7
  5
249
 10
346674124736.07202
 20
3120066209764.8062
 30
0.0
 40
8.0
  1
100'
 50
88.2152
  7
ROMANS
 72
     1
 11
346674124736.4873
 21
3120066209778.1323
 31
0.0
210
0.0
220
0.0
230
1.0
  0
TEXT
  8
11
  6
CONTINUOUS
 62
     7
  5
24A
 10
346674124739.27106
 20
3120066209867.4419
 30
0.0
 40
8.0
  1
100'
 50
88.2152
  7
ROMANS
 72
     1
 11
346674124739.68628
 21
3120066209880.7686
 31
0.0
210
0.0
220
0.0
230
1.0
  0
TEXT
  8
11
  6
CONTINUOUS
 62
     7
  5
24B
 10
346674124742.26001
 20
3120066209963.3638
 30
0.0
 40
8.0
  1
100'
 50
88.2152
  7
ROMANS
 72
     1
 11
346674124742.67529
 21
3120066209976.6904
 31
0.0
210
0.0
220
0.0
230
1.0
  0
TEXT
  8
11
  6
CONTINUOUS
 62
     7
  5
24C
 10
346674124745.12903
 20
3120066210055.4502
 30
0.0
 40
8.0
  1
100'
 50
88.2152
  7
ROMANS
 72
     1
 11
346674124745.54431
 21
3120066210068.7764
 31
0.0
210
0.0
220
0.0
230
1.0
  0
TEXT
  8
11
  6
CONTINUOUS
 62
     7
  5
24D
 10
346674124440.29803
 20
3120066210075.5518
 30
0.0
 40
8.0
  1
100'
 50
88.2152
  7
ROMANS
 72
     1
 11
346674124440.71332
 21
3120066210088.8784
 31
0.0
210
0.0
220
0.0
230
1.0
  0
TEXT
  8
11
  6
CONTINUOUS
 62
     7
  5
24E
 10
346674124439.22302
 20
3120066209979.187
 30
0.0
 40
8.0
  1
100'
 50
88.2152
  7
ROMANS
 72
     1
 11
346674124439.63831
 21
3120066209992.5137
 31
0.0
210
0.0
220
0.0
230
1.0
  0
TEXT
  8
11
  6
CONTINUOUS
 62
     7
  5
24F
 10
346674124436.04205
 20
3120066209877.105
 30
0.0
 40
8.0
  1
100'
 50
88.2152
  7
ROMANS
 72
     1
 11
346674124436.45728
 21
3120066209890.4316
 31
0.0
210
0.0
220
0.0
230
1.0
  0
TEXT
  8
11
  6
CONTINUOUS
 62
     7
  5
250
 10
346674124431.95801
 20
3120066209776.978
 30
0.0
 40
8.0
  1
100'
 50
88.2152
  7
ROMANS
 72
     1
 11
346674124432.37329
 21
3120066209790.3047
 31
0.0
210
0.0
220
0.0
230
1.0
  0
TEXT
  8
11
  6
CONTINUOUS
 62
     7
  5
251
 10
346674124364.57306
 20
3120066209779.0771
 30
0.0
 40
8.0
  1
100'
 50
88.2152
  7
ROMANS
 72
     1
 11
346674124364.98828
 21
3120066209792.4033
 31
0.0
210
0.0
220
0.0
230
1.0
  0
TEXT
  8
11
  6
CONTINUOUS
 62
     7
  5
252
 10
346674124367.69403
 20
3120066209879.2349
 30
0.0
 40
8.0
  1
100'
 50
88.2152
  7
ROMANS
 72
     1
 11
346674124368.10931
 21
3120066209892.5615
 31
0.0
210
0.0
220
0.0
230
1.0
  0
TEXT
  8
11
  6
CONTINUOUS
 62
     7
  5
253
 10
346674124372.59003
 20
3120066209974.5161
 30
0.0
 40
8.0
  1
100'
 50
88.2152
  7
ROMANS
 72
     1
 11
346674124373.00531
 21
3120066209987.8423
 31
0.0
210
0.0
220
0.0
230
1.0
  0
TEXT
  8
11
  6
CONTINUOUS
 62
     7
  5
254
 10
346674124374.98804
 20
3120066210082.4067
 30
0.0
 40
8.0
  1
100'
 50
88.2152
  7
ROMANS
 72
     1
 11
346674124375.40332
 21
3120066210095.7334
 31
0.0
210
0.0
220
0.0
230
1.0
  0
TEXT
  8
11
  6
CONTINUOUS
 62
     7
  5
255
 10
346674124242.05206
 20
3120066210083.6567
 30
0.0
 40
8.0
  1
100'
 50
88.2152
  7
ROMANS
 72
     1
 11
346674124242.46729
 21
3120066210096.9834
 31
0.0
210
0.0
220
0.0
230
1.0
  0
TEXT
  8
11
  6
CONTINUOUS
 62
     7
  5
256
 10
346674124574.25702
 20
3120066210076.1978
 30
0.0
 40
8.0
  1
100'
 50
88.2152
  7
ROMANS
 72
     1
 11
346674124574.6723
 21
3120066210089.5244
 31
0.0
210
0.0
220
0.0
230
1.0
  0
TEXT
  8
11
  6
CONTINUOUS
 62
     7
  5
257
 10
346674124610.77802
 20
3120066210073.1318
 30
0.0
 40
8.0
  1
100'
 50
88.2152
  7
ROMANS
 72
     1
 11
346674124611.1933
 21
3120066210086.4585
 31
0.0
210
0.0
220
0.0
230
1.0
  0
TEXT
  8
11
  6
CONTINUOUS
 62
     7
  5
258
 10
346674124353.01202
 20
3120066209438.9839
 30
0.0
 40
8.0
  1
100'
 50
88.2152
  7
ROMANS
 72
     1
 11
346674124353.42731
 21
3120066209452.3105
 31
0.0
210
0.0
220
0.0
230
1.0
  0
TEXT
  8
11
  6
CONTINUOUS
 62
     7
  5
259
 10
346674124350.91302
 20
3120066209340.7241
 30
0.0
 40
8.0
  1
100'
 50
88.2152
  7
ROMANS
 72
     1
 11
346674124351.32831
 21
3120066209354.0503
 31
0.0
210
0.0
220
0.0
230
1.0
  0
TEXT
  8
11
  6
CONTINUOUS
 62
     7
  5
25A
 10
346674124347.82202
 20
3120066209241.5298
 30
0.0
 40
8.0
  1
100'
 50
88.2152
  7
ROMANS
 72
     1
 11
346674124348.2373
 21
3120066209254.8564
 31
0.0
210
0.0
220
0.0
230
1.0
  0
TEXT
  8
11
  6
CONTINUOUS
 62
     7
  5
25B
 10
346674124345.72406
 20
3120066209143.27
 30
0.0
 40
8.0
  1
100'
 50
88.2152
  7
ROMANS
 72
     1
 11
346674124346.13928
 21
3120066209156.5967
 31
0.0
210
0.0
220
0.0
230
1.0
  0
TEXT
  8
11
  6
CONTINUOUS
 62
     7
  5
25C
 10
346674124212.90802
 20
3120066209148.3721
 30
0.0
 40
8.0
  1
100'
 50
88.2152
  7
ROMANS
 72
     1
 11
346674124213.3233
 21
3120066209161.6987
 31
0.0
210
0.0
220
0.0
230
1.0
  0
TEXT
  8
11
  6
CONTINUOUS
 62
     7
  5
25D
 10
346674124412.17706
 20
3120066209142.1631
 30
0.0
 40
8.0
  1
100'
 50
88.2152
  7
ROMANS
 72
     1
 11
346674124412.59229
 21
3120066209155.4897
 31
0.0
210
0.0
220
0.0
230
1.0
  0
TEXT
  8
11
  6
CONTINUOUS
 62
     7
  5
25E
 10
346674124546.88806
 20
3120066209136.0371
 30
0.0
 40
8.0
  1
100'
 50
88.2152
  7
ROMANS
 72
     1
 11
346674124547.30328
 21
3120066209149.3633
 31
0.0
210
0.0
220
0.0
230
1.0
  0
TEXT
  8
11
  6
CONTINUOUS
 62
     7
  5
25F
 10
346674124582.50604
 20
3120066209134.9268
 30
0.0
 40
8.0
  1
100'
 50
88.2152
  7
ROMANS
 72
     1
 11
346674124582.92133
 21
3120066209148.2534
 31
0.0
210
0.0
220
0.0
230
1.0
  0
TEXT
  8
11
  6
CONTINUOUS
 62
     7
  5
260
 10
346674124414.27502
 20
3120066209240.4238
 30
0.0
 40
8.0
  1
100'
 50
88.2152
  7
ROMANS
 72
     1
 11
346674124414.69031
 21
3120066209253.7505
 31
0.0
210
0.0
220
0.0
230
1.0
  0
TEXT
  8
11
  6
CONTINUOUS
 62
     7
  5
261
 10
346674124417.45605
 20
3120066209342.5059
 30
0.0
 40
8.0
  1
100'
 50
88.2152
  7
ROMANS
 72
     1
 11
346674124417.87128
 21
3120066209355.8325
 31
0.0
210
0.0
220
0.0
230
1.0
  0
TEXT
  8
11
  6
CONTINUOUS
 62
     7
  5
262
 10
346674124421.44904
 20
3120066209439.7441
 30
0.0
 40
8.0
  1
100'
 50
88.2152
  7
ROMANS
 72
     1
 11
346674124421.86432
 21
3120066209453.0703
 31
0.0
210
0.0
220
0.0
230
1.0
  0
TEXT
  8
11
  6
CONTINUOUS
 62
     7
  5
263
 10
346674124728.27301
 20
3120066209514.5171
 30
0.0
 40
8.0
  1
94.50'
 50
88.2152
  7
ROMANS
 72
     1
 11
346674124728.93744
 21
3120066209535.8398
 31
0.0
210
0.0
220
0.0
230
1.0
  0
TEXT
  8
11
  6
CONTINUOUS
 62
     7
  5
264
 10
346674124730.95502
 20
3120066209600.5708
 30
0.0
 40
8.0
  1
50'
 50
88.2152
  7
ROMANS
 72
     1
 11
346674124731.24573
 21
3120066209609.8994
 31
0.0
210
0.0
220
0.0
230
1.0
  0
TEXT
  8
11
  6
CONTINUOUS
 62
     7
  5
265
 10
346674124595.48804
 20
3120066209520.583
 30
0.0
 40
8.0
  1
94.50'
 50
88.2152
  7
ROMANS
 72
     1
 11
346674124596.15247
 21
3120066209541.9058
 31
0.0
210
0.0
220
0.0
230
1.0
  0
TEXT
  8
11
  6
CONTINUOUS
 62
     7
  5
266
 10
346674124558.966
 20
3120066209523.6489
 30
0.0
 40
8.0
  1
94.50'
 50
88.2152
  7
ROMANS
 72
     1
 11
346674124559.63049
 21
3120066209544.9717
 31
0.0
210
0.0
220
0.0
230
1.0
  0
TEXT
  8
11
  6
CONTINUOUS
 62
     7
  5
267
 10
346674124424.25604
 20
3120066209529.7749
 30
0.0
 40
8.0
  1
94.50'
 50
88.2152
  7
ROMANS
 72
     1
 11
346674124424.92047
 21
3120066209551.0977
 31
0.0
210
0.0
220
0.0
230
1.0
  0
TEXT
  8
11
  6
CONTINUOUS
 62
     7
  5
268
 10
346674124358.70502
 20
3120066209528.9248
 30
0.0
 40
8.0
  1
94.50'
 50
88.2152
  7
ROMANS
 72
     1
 11
346674124359.36945
 21
3120066209550.2476
 31
0.0
210
0.0
220
0.0
230
1.0
  0
TEXT
  8
11
  6
CONTINUOUS
 62
     7
  5
269
 10
346674124224.92706
 20
3120066209534.0581
 30
0.0
 40
8.0
  1
94.50'
 50
88.2152
  7
ROMANS
 72
     1
 11
346674124225.59149
 21
3120066209555.3809
 31
0.0
210
0.0
220
0.0
230
1.0
  0
TEXT
  8
11
  6
CONTINUOUS
 62
     7
  5
26A
 10
346674124231.32306
 20
3120066209677.106
 30
0.0
 40
8.0
  1
94.50'
 50
88.2152
  7
ROMANS
 72
     1
 11
346674124231.98749
 21
3120066209698.4287
 31
0.0
210
0.0
220
0.0
230
1.0
  0
TEXT
  8
11
  6
CONTINUOUS
 62
     7
  5
26B
 10
346674124362.27301
 20
3120066209673.9888
 30
0.0
 40
8.0
  1
94.50'
 50
88.2152
  7
ROMANS
 72
     1
 11
346674124362.93744
 21
3120066209695.3115
 31
0.0
210
0.0
220
0.0
230
1.0
  0
TEXT
  8
11
  6
CONTINUOUS
 62
     7
  5
26C
 10
346674124428.69604
 20
3120066209671.9189
 30
0.0
 40
8.0
  1
94.50'
 50
88.2152
  7
ROMANS
 72
     1
 11
346674124429.36047
 21
3120066209693.2417
 31
0.0
210
0.0
220
0.0
230
1.0
  0
TEXT
  8
11
  6
CONTINUOUS
 62
     7
  5
26D
 10
346674124562.56403
 20
3120066209669.6758
 30
0.0
 40
8.0
  1
94.50'
 50
88.2152
  7
ROMANS
 72
     1
 11
346674124563.22845
 21
3120066209690.9985
 31
0.0
210
0.0
220
0.0
230
1.0
  0
TEXT
  8
11
  6
CONTINUOUS
 62
     7
  5
26E
 10
346674124598.12305
 20
3120066209666.6401
 30
0.0
 40
8.0
  1
94.50'
 50
88.2152
  7
ROMANS
 72
     1
 11
346674124598.78748
 21
3120066209687.9624
 31
0.0
210
0.0
220
0.0
230
1.0
  0
TEXT
  8
11
  6
CONTINUOUS
 62
     7
  5
26F
 10
346674124730.93805
 20
3120066209661.5381
 30
0.0
 40
8.0
  1
94.50'
 50
88.2152
  7
ROMANS
 72
     1
 11
346674124731.60248
 21
3120066209682.8608
 31
0.0
210
0.0
220
0.0
230
1.0
  0
TEXT
  8
11
  6
CONTINUOUS
 62
     7
  5
270
 10
346674124238.04706
 20
3120066209614.9658
 30
0.0
 40
8.0
  1
50'
 50
88.2152
  7
ROMANS
 72
     1
 11
346674124238.33771
 21
3120066209624.2944
 31
0.0
210
0.0
220
0.0
230
1.0
  0
TEXT
  8
11
  6
CONTINUOUS
 62
     7
  5
271
 10
346674123764.86005
 20
3120066209634.5249
 30
0.0
 40
8.0
  1
50'
 50
88.2152
  7
ROMANS
 72
     1
 11
346674123765.1507
 21
3120066209643.8535
 31
0.0
210
0.0
220
0.0
230
1.0
  0
TEXT
  8
11
  6
CONTINUOUS
 62
     7
  5
272
 10
346674124396.33606
 20
3120066210113.186
 30
0.0
 40
8.0
  1
50'
 50
358.2152
  7
ROMANS
 72
     4
 11
346674124405.78906
 21
3120066210116.8936
 31
0.0
210
0.0
220
0.0
230
1.0
  0
TEXT
  8
11
  6
CONTINUOUS
 62
     7
  5
273
 10
346674124382.32202
 20
3120066209663.4429
 30
0.0
 40
8.0
  1
50'
 50
358.2152
  7
ROMANS
 72
     4
 11
346674124391.77509
 21
3120066209667.1504
 31
0.0
210
0.0
220
0.0
230
1.0
  0
TEXT
  8
11
  6
CONTINUOUS
 62
     7
  5
274
 10
346674124365.30505
 20
3120066209117.2861
 30
0.0
 40
8.0
  1
50'
 50
358.2152
  7
ROMANS
 72
     4
 11
346674124374.75812
 21
3120066209120.9932
 31
0.0
210
0.0
220
0.0
230
1.0
  0
TEXT
  8
11
  6
CONTINUOUS
 62
     7
  5
275
 10
346674124180.65704
 20
3120066209128.8237
 30
0.0
 40
8.0
  1
20'
 50
358.2152
  7
ROMANS
 72
     4
 11
346674124190.11011
 21
3120066209132.5312
 31
0.0
210
0.0
220
0.0
230
1.0
  0
TEXT
  8
11
  6
CONTINUOUS
 62
     7
  5
276
 10
346674124551.27704
 20
3120066209117.2749
 30
0.0
 40
8.0
  1
20'
 50
358.2152
  7
ROMANS
 72
     4
 11
346674124560.7301
 21
3120066209120.9824
 31
0.0
210
0.0
220
0.0
230
1.0
  0
TEXT
  8
11
  6
CONTINUOUS
 62
     7
  5
277
 10
346674124195.41705
 20
3120066209572.0391
 30
0.0
 40
8.0
  1
20'
 50
358.2152
  7
ROMANS
 72
     4
 11
346674124204.87012
 21
3120066209575.7466
 31
0.0
210
0.0
220
0.0
230
1.0
  0
TEXT
  8
11
  6
CONTINUOUS
 62
     7
  5
278
 10
346674124565.94806
 20
3120066209557.6021
 30
0.0
 40
8.0
  1
20'
 50
358.2152
  7
ROMANS
 72
     4
 11
346674124575.40106
 21
3120066209561.3096
 31
0.0
210
0.0
220
0.0
230
1.0
  0
TEXT
  8
11
  6
CONTINUOUS
 62
     7
  5
279
 10
346674124568.01703
 20
3120066209654.8989
 30
0.0
 40
8.0
  1
20'
 50
358.2152
  7
ROMANS
 72
     4
 11
346674124577.47009
 21
3120066209658.6064
 31
0.0
210
0.0
220
0.0
230
1.0
  0
TEXT
  8
11
  6
CONTINUOUS
 62
     7
  5
27A
 10
346674124199.41101
 20
3120066209669.2769
 30
0.0
 40
8.0
  1
20'
 50
358.2152
  7
ROMANS
 72
     4
 11
346674124208.86407
 21
3120066209672.9844
 31
0.0
210
0.0
220
0.0
230
1.0
  0
TEXT
  8
11
  6
CONTINUOUS
 62
     7
  5
27B
 10
346674124212.45105
 20
3120066210118.6841
 30
0.0
 40
8.0
  1
20'
 50
358.2152
  7
ROMANS
 72
     4
 11
346674124221.90411
 21
3120066210122.3911
 31
0.0
210
0.0
220
0.0
230
1.0
  0
TEXT
  8
11
  6
CONTINUOUS
 62
     7
  5
27C
 10
346674124582.92206
 20
3120066210102.3198
 30
0.0
 40
8.0
  1
20'
 50
358.2152
  7
ROMANS
 72
     4
 11
346674124592.37506
 21
3120066210106.0273
 31
0.0
210
0.0
220
0.0
230
1.0
  0
TEXT
  8
11
  6
CONTINUOUS
 62
     7
  5
27D
 10
346674123954.98004
 20
3120066210142.1299
 30
0.0
 40
8.0
  1
460'
 50
358.2152
  7
ROMANS
 72
     4
 11
346674123968.43115
 21
3120066210145.7129
 31
0.0
210
0.0
220
0.0
230
1.0
  0
TEXT
  8
11
  6
CONTINUOUS
 62
     7
  5
27E
 10
346674123952.60602
 20
3120066209664.0718
 30
0.0
 40
8.0
  1
460'
 50
358.2152
  7
ROMANS
 72
     4
 11
346674123966.05713
 21
3120066209667.6548
 31
0.0
210
0.0
220
0.0
230
1.0
  0
TEXT
  8
11
  6
CONTINUOUS
 62
     7
  5
27F
 10
346674123947.67804
 20
3120066209598.6738
 30
0.0
 40
8.0
  1
460'
 50
358.2152
  7
ROMANS
 72
     4
 11
346674123961.12915
 21
3120066209602.2568
 31
0.0
210
0.0
220
0.0
230
1.0
  0
TEXT
  8
11
  6
CONTINUOUS
 62
     7
  5
280
 10
346674123938.50806
 20
3120066209118.8979
 30
0.0
 40
8.0
  1
460'
 50
358.2152
  7
ROMANS
 72
     4
 11
346674123951.95917
 21
3120066209122.481
 31
0.0
210
0.0
220
0.0
230
1.0
  0
TEXT
  8
11
  6
CONTINUOUS
 62
     7
  5
281
 10
346674123739.05701
 20
3120066209339.1802
 30
0.0
 40
8.0
  1
494.50'
 50
88.2152
  7
ROMANS
 72
     4
 11
346674123735.84796
 21
3120066209364.6255
 31
0.0
210
0.0
220
0.0
230
1.0
  0
TEXT
  8
11
  6
CONTINUOUS
 62
     7
  5
282
 10
346674124181.09406
 20
3120066209331.1899
 30
0.0
 40
8.0
  1
494.50'
 50
88.2152
  7
ROMANS
 72
     4
 11
346674124177.88501
 21
3120066209356.6353
 31
0.0
210
0.0
220
0.0
230
1.0
  0
TEXT
  8
11
  6
CONTINUOUS
 62
     7
  5
283
 10
346674123753.91602
 20
3120066209846.833
 30
0.0
 40
8.0
  1
494.50'
 50
88.2152
  7
ROMANS
 72
     4
 11
346674123750.70697
 21
3120066209872.2783
 31
0.0
210
0.0
220
0.0
230
1.0
  0
TEXT
  8
11
  6
CONTINUOUS
 62
     7
  5
284
 10
346674124198.42102
 20
3120066209825.271
 30
0.0
 40
8.0
  1
494.50'
 50
88.2152
  7
ROMANS
 72
     4
 11
346674124195.21198
 21
3120066209850.7163
 31
0.0
210
0.0
220
0.0
230
1.0
  0
TEXT
  8
19
  6
CONTINUOUS
 62
     1
  5
285
 10
346674125080.17902
 20
3120066209342.1191
 30
0.0
 40
24.0
  1
URBANA               AVE.
 50
88.1523
  7
ROMANC
 72
     4
 11
346674125079.18579
 21
3120066209683.5044
 31
0.0
210
0.0
220
0.0
230
1.0
  0
TEXT
  8
15
  6
CONTINUOUS
 62
    30
  5
286
 10
346674124073.20404
 20
3120066209689.6172
 30
0.0
 40
50.0
  1
PARKDALE
 50
33.1523
  7
ROMANC
 72
     4
 11
346674124243.61194
 21
3120066209830.7871
 31
0.0
210
0.0
220
0.0
230
1.0
  0
TEXT
  8
15
  6
CONTINUOUS
 62
    30
  5
287
 10
346674124288.84906
 20
3120066209179.1758
 30
0.0
 40
50.0
  1
ADDITION
 50
33.1523
  7
ROMANC
 72
     4
 11
346674124438.32642
 21
3120066209306.6743
 31
0.0
210
0.0
220
0.0
230
1.0
  0
LINE
  8
6
  6
CONTINUOUS
 62
     7
  5
288
 10
346674123793.11401
 20
3120066210732.6538
 30
0.0
 11
346674124792.59406
 21
3120066210700.4111
 31
0.0
  0
LINE
  8
6
  6
CONTINUOUS
 62
     7
  5
289
 10
346674124792.59406
 20
3120066210700.4111
 30
0.0
 11
346674124792.30304
 21
3120066210691.415
 31
0.0
  0
LINE
  8
6
  6
CONTINUOUS
 62
     7
  5
28A
 10
346674124792.30304
 20
3120066210691.415
 30
0.0
 11
346674124762.32001
 21
3120066210692.3828
 31
0.0
  0
LINE
  8
6
  6
CONTINUOUS
 62
     7
  5
28B
 10
346674124762.32001
 20
3120066210692.3828
 30
0.0
 11
346674124761.35303
 21
3120066210662.3979
 31
0.0
  0
LINE
  8
6
  6
CONTINUOUS
 62
     7
  5
28C
 10
346674124761.35303
 20
3120066210662.3979
 30
0.0
 11
346674124791.33606
 21
3120066210661.4312
 31
0.0
  0
LINE
  8
6
  6
CONTINUOUS
 62
     7
  5
28D
 10
346674124791.33606
 20
3120066210661.4312
 30
0.0
 11
346674124790.36902
 21
3120066210631.4468
 31
0.0
  0
LINE
  8
6
  6
CONTINUOUS
 62
     7
  5
28E
 10
346674124790.36902
 20
3120066210631.4468
 30
0.0
 11
346674124640.44702
 21
3120066210636.2832
 31
0.0
  0
LINE
  8
6
  6
CONTINUOUS
 62
     7
  5
28F
 10
346674124640.44702
 20
3120066210636.2832
 30
0.0
 11
346674124625.93805
 21
3120066210186.5181
 31
0.0
  0
LINE
  8
6
  6
CONTINUOUS
 62
     7
  5
290
 10
346674124625.93805
 20
3120066210186.5181
 30
0.0
 11
346674124775.86005
 21
3120066210181.6802
 31
0.0
  0
LINE
  8
6
  6
CONTINUOUS
 62
     7
  5
291
 10
346674124775.86005
 20
3120066210181.6802
 30
0.0
 11
346674124775.05505
 21
3120066210156.6938
 31
0.0
  0
LINE
  8
6
  6
CONTINUOUS
 62
     7
  5
292
 10
346674124175.36603
 20
3120066210176.04
 30
0.0
 11
346674124182.07202
 21
3120066210383.9312
 31
0.0
  0
LINE
  8
6
  6
CONTINUOUS
 62
     7
  5
293
 10
346674124182.07202
 20
3120066210383.9312
 30
0.0
 11
346674123782.28003
 21
3120066210396.8291
 31
0.0
  0
LINE
  8
6
  6
CONTINUOUS
 62
     7
  5
294
 10
346674123793.11401
 20
3120066210732.6538
 30
0.0
 11
346674123782.28003
 21
3120066210396.8291
 31
0.0
  0
TEXT
  8
22
  6
CONTINUOUS
 62
     3
  5
296
 10
346674124216.57501
 20
3120066210544.8701
 30
0.0
 40
8.0
  1
CITY  PROPERTY
 50
358.1523
  7
ROMANS
 72
     4
 11
346674124271.25861
 21
3120066210547.1079
 31
0.0
210
0.0
220
0.0
230
1.0
  0
TEXT
  8
22
  6
CONTINUOUS
 62
     3
  5
297
 10
346674124186.53503
 20
3120066210523.6851
 30
0.0
 40
8.0
  1
(VOL. 3308    PG. 177.)
 50
358.1523
  7
ROMANS
 72
     4
 11
346674124276.61719
 21
3120066210524.7812
 31
0.0
210
0.0
220
0.0
230
1.0
  0
TEXT
  8
11
  6
CONTINUOUS
 62
     7
  5
298
 10
346674124182.88605
 20
3120066210721.48
 30
0.0
 40
8.0
  1
1000'
 50
358.2152
  7
ROMANS
 72
     1
 11
346674124200.45978
 21
3120066210728.936
 31
0.0
210
0.0
220
0.0
230
1.0
 73
     3
  0
TEXT
  8
11
  6
CONTINUOUS
 62
     7
  5
299
 10
346674124741.11902
 20
3120066210649.6519
 30
0.0
 40
8.0
  1
30'
 50
358.2152
  7
ROMANS
 72
     1
 11
346674124750.69666
 21
3120066210657.3574
 31
0.0
210
0.0
220
0.0
230
1.0
 73
     3
  0
TEXT
  8
11
  6
CONTINUOUS
 62
     7
  5
29A
 10
346674124679.89105
 20
3120066210635.5518
 30
0.0
 40
8.0
  1
150'
 50
358.2152
  7
ROMANS
 72
     1
 11
346674124693.21759
 21
3120066210635.1367
 31
0.0
210
0.0
220
0.0
230
1.0
  0
TEXT
  8
11
  6
CONTINUOUS
 62
     7
  5
29B
 10
346674124606.73401
 20
3120066210422.293
 30
0.0
 40
8.0
  1
450'
 50
88.2152
  7
ROMANS
 72
     4
 11
346674124603.15125
 21
3120066210435.7441
 31
0.0
210
0.0
220
0.0
230
1.0
  0
TEXT
  8
11
  6
CONTINUOUS
 62
     7
  5
29C
 10
346674124745.93103
 20
3120066210160.8398
 30
0.0
 40
8.0
  1
25'
 50
88.2152
  7
ROMANS
 72
     4
 11
346674124742.22363
 21
3120066210170.293
 31
0.0
210
0.0
220
0.0
230
1.0
  0
TEXT
  8
11
  6
CONTINUOUS
 62
     7
  5
29D
 10
346674124168.54401
 20
3120066210267.3501
 30
0.0
 40
8.0
  1
208'
 50
88.2152
  7
ROMANS
 72
     4
 11
346674124164.96124
 21
3120066210280.8013
 31
0.0
210
0.0
220
0.0
230
1.0
  0
TEXT
  8
11
  6
CONTINUOUS
 62
     7
  5
29E
 10
346674123775.466
 20
3120066210553.8252
 30
0.0
 40
8.0
  1
336'
 50
88.2152
  7
ROMANS
 72
     4
 11
346674123771.88324
 21
3120066210567.2759
 31
0.0
210
0.0
220
0.0
230
1.0
  0
TEXT
  8
11
  6
CONTINUOUS
 62
     7
  5
29F
 10
346674124354.24701
 20
3120066210169.6201
 30
0.0
 40
8.0
  1
600'
 50
358.2152
  7
ROMANS
 72
     4
 11
346674124367.69812
 21
3120066210173.2026
 31
0.0
210
0.0
220
0.0
230
1.0
  0
TEXT
  8
11
  6
CONTINUOUS
 62
     7
  5
2A0
 10
346674124665.36304
 20
3120066210171.4858
 30
0.0
 40
8.0
  1
150'
 50
358.2152
  7
ROMANS
 72
     4
 11
346674124678.81415
 21
3120066210175.0688
 31
0.0
210
0.0
220
0.0
230
1.0
  0
TEXT
  8
11
  6
CONTINUOUS
 62
     7
  5
2A1
 10
346674123941.76501
 20
3120066210393.1621
 30
0.0
 40
8.0
  1
400'
 50
358.2152
  7
ROMANS
 72
     4
 11
346674123955.21613
 21
3120066210396.7446
 31
0.0
210
0.0
220
0.0
230
1.0
  0
LINE
  8
21
  6
DASHDOT
 62
     7
  5
2A3
 10
346674123792.79102
 20
3120066210722.6592
 30
0.0
 11
346674124181.59003
 21
3120066210710.1172
 31
0.0
  0
LINE
  8
21
  6
DASHDOT
 62
     7
  5
2A4
 10
346674124181.59003
 20
3120066210710.1172
 30
0.0
 11
346674124176.75305
 21
3120066210560.1948
 31
0.0
  0
LINE
  8
21
  6
DASHDOT
 62
     7
  5
2A5
 10
346674124176.75305
 20
3120066210560.1948
 30
0.0
 11
346674124198.74103
 21
3120066210559.4849
 31
0.0
  0
LINE
  8
21
  6
DASHDOT
 62
     7
  5
2A6
 10
346674124198.74103
 20
3120066210559.4849
 30
0.0
 11
346674124203.57703
 21
3120066210709.4067
 31
0.0
  0
LINE
  8
21
  6
DASHDOT
 62
     7
  5
2A7
 10
346674124203.57703
 20
3120066210709.4067
 30
0.0
 11
346674124792.27106
 21
3120066210690.416
 31
0.0
  0
TEXT
  8
22
  6
CONTINUOUS
 62
     3
  5
2A8
 10
346674124420.57104
 20
3120066210688.3359
 30
0.0
 40
8.0
  1
10'  EASEMENT VOL. 3308   PG. 183
 50
358.1523
  7
ROMANS
 72
     4
 11
346674124550.96521
 21
3120066210688.1313
 31
0.0
210
0.0
220
0.0
230
1.0
  0
LINE
  8
6
  6
CONTINUOUS
 62
     7
  5
2A9
 10
346674125580.27002
 20
3120066209219.9941
 30
0.0
 11
346674125581.17303
 21
3120066209247.98
 31
0.0
  0
LINE
  8
6
  6
CONTINUOUS
 62
     7
  5
2AA
 10
346674125571.07703
 20
3120066208935.022
 30
0.0
 11
346674124796.48004
 21
3120066208960.0098
 31
0.0
  0
LINE
  8
6
  6
CONTINUOUS
 62
     7
  5
2AB
 10
346674125569.27203
 20
3120066208879.0508
 30
0.0
 11
346674124794.67505
 21
3120066208904.04
 31
0.0
  0
LINE
  8
6
  6
CONTINUOUS
 62
     7
  5
2AC
 10
346674125576.01501
 20
3120066209088.063
 30
0.0
 11
346674124801.41803
 21
3120066209113.0508
 31
0.0
  0
LINE
  8
6
  6
CONTINUOUS
 62
     7
  5
2AD
 10
346674125575.37006
 20
3120066209068.0728
 30
0.0
 11
346674124800.77301
 21
3120066209093.062
 31
0.0
  0
LINE
  8
6
  6
CONTINUOUS
 62
     7
  5
2AE
 10
346674124787.57806
 20
3120066208684.0249
 30
0.0
 11
346674124831.94305
 21
3120066210059.3091
 31
0.0
  0
LINE
  8
6
  6
CONTINUOUS
 62
     7
  5
2AF
 10
346674124832.91101
 20
3120066210089.293
 30
0.0
 11
346674124869.63501
 21
3120066211227.7012
 31
0.0
  0
LINE
  8
6
  6
CONTINUOUS
 62
     7
  5
2B0
 10
346674124790.40002
 20
3120066208771.5488
 30
0.0
 11
346674125564.99701
 21
3120066208746.561
 31
0.0
  0
LINE
  8
6
  6
CONTINUOUS
 62
     7
  5
2B1
 10
346674124789.755
 20
3120066208751.5591
 30
0.0
 11
346674125564.35303
 21
3120066208726.5698
 31
0.0
  0
TEXT
  8
22
  6
CONTINUOUS
 62
     3
  5
2B2
 10
346674125581.75403
 20
3120066208907.2349
 30
0.0
 40
8.0
  1
STRIP 2
 50
88.1523
  7
ROMANS
 72
     4
 11
346674125578.60516
 21
3120066208933.6831
 31
0.0
210
0.0
220
0.0
230
1.0
  0
LINE
  8
6
  6
CONTINUOUS
 62
     7
  5
2B3
 10
346674125577.16602
 20
3120066208658.5518
 30
0.0
 11
346674124787.57806
 21
3120066208684.0249
 31
0.0
  0
LINE
  8
6
  6
CONTINUOUS
 62
     7
  5
2B4
 10
346674124787.57806
 20
3120066208684.0249
 30
0.0
 11
346674124785.64301
 21
3120066208624.0552
 31
0.0
  0
LINE
  8
6
  6
CONTINUOUS
 62
     7
  5
2B5
 10
346674125580.27002
 20
3120066209219.9941
 30
0.0
 11
346674125562.17505
 21
3120066208659.0352
 31
0.0
  0
TEXT
  8
22
  6
CONTINUOUS
 62
     3
  5
2B6
 10
346674125585.51703
 20
3120066209035.7632
 30
0.0
 40
8.0
  1
(VOL. 873  PG. 445.)
 50
88.1523
  7
ROMANS
 72
     4
 11
346674125584.03406
 21
3120066209113.8516
 31
0.0
210
0.0
220
0.0
230
1.0
  0
TEXT
  8
10
  6
CONTINUOUS
 62
   134
  5
2B7
 10
346674124925.04303
 20
3120066210061.626
 30
0.0
 40
8.0
  1
STRIP 1
 50
358.2152
  7
ROMANS
 72
     4
 11
346674124950.48834
 21
3120066210064.835
 31
0.0
210
0.0
220
0.0
230
1.0
  0
TEXT
  8
10
  6
CONTINUOUS
 62
   134
  5
2B8
 10
346674124893.02502
 20
3120066209427.2178
 30
0.0
 40
8.0
  1
STRIP  4
 50
88.2152
  7
ROMANS
 72
     4
 11
346674124889.97174
 21
3120066209457.6606
 31
0.0
210
0.0
220
0.0
230
1.0
  0
TEXT
  8
10
  6
CONTINUOUS
 62
   134
  5
2B9
 10
346674125057.37506
 20
3120066209541.4722
 30
0.0
 40
8.0
  1
STRIP  3
 50
88.2152
  7
ROMANS
 72
     4
 11
346674125054.32172
 21
3120066209571.915
 31
0.0
210
0.0
220
0.0
230
1.0
  0
TEXT
  8
10
  6
CONTINUOUS
 62
   134
  5
2BA
 10
346674125257.51801
 20
3120066209413.9331
 30
0.0
 40
8.0
  1
STRIP  5
 50
88.2152
  7
ROMANS
 72
     4
 11
346674125254.46503
 21
3120066209444.3867
 31
0.0
210
0.0
220
0.0
230
1.0
  0
TEXT
  8
10
  6
CONTINUOUS
 62
   134
  5
2BB
 10
346674124912.96106
 20
3120066209273.563
 30
0.0
 40
8.0
  1
STRIP 2
 50
358.2152
  7
ROMANS
 72
     4
 11
346674124939.40582
 21
3120066209276.7407
 31
0.0
210
0.0
220
0.0
230
1.0
  0
TEXT
  8
10
  6
CONTINUOUS
 62
   134
  5
2BC
 10
346674124915.34906
 20
3120066209247.5879
 30
0.0
 40
8.0
  1
STRIP 1
 50
358.2152
  7
ROMANS
 72
     4
 11
346674124940.79431
 21
3120066209250.7969
 31
0.0
210
0.0
220
0.0
230
1.0
  0
TEXT
  8
10
  6
CONTINUOUS
 62
   134
  5
2BD
 10
346674124559.49701
 20
3120066209337.458
 30
0.0
 40
24.0
  1
2
 50
358.2152
  7
ROMANC
 72
     4
 11
346674124567.89886
 21
3120066209349.2021
 31
0.0
210
0.0
220
0.0
230
1.0
  0
TEXT
  8
10
  6
CONTINUOUS
 62
   134
  5
2BE
 10
346674124575.58105
 20
3120066209886.2798
 30
0.0
 40
24.0
  1
1
 50
358.2152
  7
ROMANC
 72
     4
 11
346674124581.05432
 21
3120066209898.1152
 31
0.0
210
0.0
220
0.0
230
1.0
  0
TEXT
  8
10
  6
CONTINUOUS
 62
   134
  5
2BF
 10
346674124201.69403
 20
3120066209886.3662
 30
0.0
 40
24.0
  1
4
 50
358.2152
  7
ROMANC
 72
     4
 11
346674124211.22931
 21
3120066209898.0747
 31
0.0
210
0.0
220
0.0
230
1.0
  0
TEXT
  8
10
  6
CONTINUOUS
 62
   134
  5
2C0
 10
346674124187.77203
 20
3120066209341.332
 30
0.0
 40
24.0
  1
3
 50
358.2152
  7
ROMANC
 72
     4
 11
346674124196.17389
 21
3120066209353.0762
 31
0.0
210
0.0
220
0.0
230
1.0
  0
TEXT
  8
10
  6
CONTINUOUS
 62
   134
  5
2C1
 10
346674124906.62103
 20
3120066209092.645
 30
0.0
 40
8.0
  1
STRIP 4
 50
358.2152
  7
ROMANS
 72
     4
 11
346674124933.06586
 21
3120066209095.8228
 31
0.0
210
0.0
220
0.0
230
1.0
  0
TEXT
  8
10
  6
CONTINUOUS
 62
   134
  5
2C2
 10
346674124909.88403
 20
3120066208919.0098
 30
0.0
 40
8.0
  1
STRIP 3
 50
358.2152
  7
ROMANS
 72
     4
 11
346674124936.32886
 21
3120066208922.188
 31
0.0
210
0.0
220
0.0
230
1.0
  0
TEXT
  8
10
  6
CONTINUOUS
 62
   134
  5
2C3
 10
346674124903.69904
 20
3120066208751.4541
 30
0.0
 40
8.0
  1
STRIP 5
 50
358.2152
  7
ROMANS
 72
     4
 11
346674124930.15485
 21
3120066208754.6313
 31
0.0
210
0.0
220
0.0
230
1.0
  0
TEXT
  8
19
  6
CONTINUOUS
 62
     1
  5
2C4
 10
346674124727.46906
 20
3120066211254.4658
 30
0.0
 40
24.0
  1
STATE HIGHWAY 114 (19TH ST)
 50
358.1523
  7
ROMANC
210
0.0
220
0.0
230
1.0
  0
TEXT
  8
19
  6
CONTINUOUS
 62
     1
  5
2C5
 10
346674120586.60303
 20
3120066211387.3198
 30
0.0
 40
24.0
  1
STATE HIGHWAY 114 (19TH ST)
 50
358.1523
  7
ROMANC
210
0.0
220
0.0
230
1.0
  0
TEXT
  8
19
  6
CONTINUOUS
 62
     1
  5
2C6
 10
346674125066.44305
 20
3120066206008.9248
 30
0.0
 40
24.0
  1
34TH ST
 50
358.1523
  7
ROMANC
210
0.0
220
0.0
230
1.0
  0
TEXT
  8
19
  6
CONTINUOUS
 62
     1
  5
2C7
 10
346674123761.69104
 20
3120066206508.478
 30
0.0
 40
24.0
  1
32ND ST
 50
358.1523
  7
ROMANC
210
0.0
220
0.0
230
1.0
  0
TEXT
  8
19
  6
CONTINUOUS
 62
     1
  5
2C8
 10
346674120862.44904
 20
3120066206962.2598
 30
0.0
 40
24.0
  1
32ND ST
 50
358.1523
  7
ROMANC
210
0.0
220
0.0
230
1.0
  0
TEXT
  8
19
  6
CONTINUOUS
 62
     1
  5
2C9
 10
346674122071.54303
 20
3120066208732.4722
 30
0.0
 40
24.0
  1
26TH ST
 50
358.1523
  7
ROMANC
210
0.0
220
0.0
230
1.0
  0
TEXT
  8
19
  6
CONTINUOUS
 62
     1
  5
2CA
 10
346674124881.15704
 20
3120066209258.6899
 30
0.0
 40
24.0
  1
24TH              ST
 50
358.1523
  7
ROMANC
 72
     4
 11
346674125169.00043
 21
3120066209261.4106
 31
0.0
210
0.0
220
0.0
230
1.0
  0
TEXT
  8
19
  6
CONTINUOUS
 62
     1
  5
2CB
 10
346674124899.72003
 20
3120066210058.4678
 30
0.0
 40
24.0
  1
22ND              ST
 50
358.1523
  7
ROMANC
 72
     4
 11
346674125163.1991
 21
3120066210061.9746
 31
0.0
210
0.0
220
0.0
230
1.0
  0
TEXT
  8
19
  6
CONTINUOUS
 62
     1
  5
2CC
 10
346674123891.42401
 20
3120066209626.3408
 30
0.0
 40
24.0
  1
23RD    ST
 50
358.1523
  7
ROMANC
 72
     4
 11
346674124017.7854
 21
3120066209634.271
 31
0.0
210
0.0
220
0.0
230
1.0
  0
TEXT
  8
19
  6
CONTINUOUS
 62
     1
  5
2CD
 10
346674124052.29401
 20
3120066210160.9341
 30
0.0
 40
24.0
  1
22ND              ST
 50
358.1523
  7
ROMANC
 72
     4
 11
346674124315.77307
 21
3120066210164.4404
 31
0.0
210
0.0
220
0.0
230
1.0
  0
TEXT
  8
19
  6
CONTINUOUS
 62
     1
  5
2CE
 10
346674124882.72003
 20
3120066208913.4888
 30
0.0
 40
24.0
  1
25TH              ST
 50
358.1523
  7
ROMANC
 72
     4
 11
346674125169.42999
 21
3120066208916.2461
 31
0.0
210
0.0
220
0.0
230
1.0
  0
TEXT
  8
19
  6
CONTINUOUS
 62
     1
  5
2CF
 10
346674123564.52106
 20
3120066208678.5981
 30
0.0
 40
24.0
  1
26TH ST
 50
358.1523
  7
ROMANC
210
0.0
220
0.0
230
1.0
  0
TEXT
  8
19
  6
CONTINUOUS
 62
     1
  5
2D0
 10
346674124835.15601
 20
3120066208641.4658
 30
0.0
 40
24.0
  1
26TH             ST
 50
358.1523
  7
ROMANC
210
0.0
220
0.0
230
1.0
  0
TEXT
  8
19
  6
CONTINUOUS
 62
     1
  5
2D1
 10
346674124419.66504
 20
3120066209444.0972
 30
0.0
 40
24.0
  1
VENITA     AVE
 50
88.1523
  7
ROMANC
 72
     4
 11
346674124413.63
 21
3120066209629.1958
 31
0.0
210
0.0
220
0.0
230
1.0
  0
TEXT
  8
10
  6
CONTINUOUS
 62
   134
  5
2D2
 10
346674122201.24805
 20
3120066210967.3857
 30
0.0
 40
13.999
  1
1
 50
358.2152
  7
ROMANS
 72
     4
 11
346674122203.79791
 21
3120066210974.3101
 31
0.0
210
0.0
220
0.0
230
1.0
  0
LINE
  8
6
  6
CONTINUOUS
 62
     7
  5
2D3
 10
346674120323.64606
 20
3120066207006.876
 30
0.0
 11
346674120436.63702
 21
3120066210523.8062
 31
0.0
  0
TEXT
  8
13
  6
CONTINUOUS
 62
    14
  5
2D5
 10
346674125027.33502
 20
3120066208640.1509
 30
0.0
 40
8.0
  1
ST DEDICATION  (VOL. 406  PG. 314.)
 50
358.1523
  7
ROMANS
 72
     4
 11
346674125165.39227
 21
3120066208639.6992
 31
0.0
210
0.0
220
0.0
230
1.0
  0
TEXT
  8
13
  6
CONTINUOUS
 62
    14
  5
2D6
 10
346674125040.16003
 20
3120066208748.2378
 30
0.0
 40
8.0
  1
ALLEY DEDICATION  (VOL. 873  PG. 445.)
 50
358.1523
  7
ROMANS
 72
     4
 11
346674125190.211
 21
3120066208747.3994
 31
0.0
210
0.0
220
0.0
230
1.0
  0
TEXT
  8
13
  6
CONTINUOUS
 62
    14
  5
2D7
 10
346674125030.50903
 20
3120066208916.3042
 30
0.0
 40
8.0
  1
ST DEDICATION  (VOL. 873  PG. 445.)
 50
358.1523
  7
ROMANS
 72
     4
 11
346674125168.56628
 21
3120066208915.8525
 31
0.0
210
0.0
220
0.0
230
1.0
  0
TEXT
  8
13
  6
CONTINUOUS
 62
    14
  5
2D8
 10
346674125047.34003
 20
3120066209090.2632
 30
0.0
 40
8.0
  1
ALLEY DEDICATION  (VOL. 873  PG. 445.)
 50
358.1523
  7
ROMANS
 72
     4
 11
346674125197.39099
 21
3120066209089.4243
 31
0.0
210
0.0
220
0.0
230
1.0
  0
TEXT
  8
13
  6
CONTINUOUS
 62
    14
  5
2D9
 10
346674125052.24603
 20
3120066209243.582
 30
0.0
 40
8.0
  1
ST DEDICATION  (VOL. 873 PG. 445.)
 50
358.1523
  7
ROMANS
 72
     4
 11
346674125186.30536
 21
3120066209243.2593
 31
0.0
210
0.0
220
0.0
230
1.0
  0
TEXT
  8
13
  6
CONTINUOUS
 62
    14
  5
2DA
 10
346674125043.98401
 20
3120066210060.937
 30
0.0
 40
8.0
  1
ST DEDICATION  (VOL. 895 PG. 233.)
 50
358.1523
  7
ROMANS
 72
     4
 11
346674125178.04333
 21
3120066210060.6143
 31
0.0
210
0.0
220
0.0
230
1.0
  0
TEXT
  8
13
  6
CONTINUOUS
 62
    14
  5
2DB
 10
346674124919.01801
 20
3120066209520.8599
 30
0.0
 40
8.0
  1
ALLEY DEDICATION  (VOL. 895 PG. 233.)
 50
88.1523
  7
ROMANS
 72
     4
 11
346674124919.7276
 21
3120066209666.9131
 31
0.0
210
0.0
220
0.0
230
1.0
  0
TEXT
  8
13
  6
CONTINUOUS
 62
    14
  5
2DC
 10
346674125084.59204
 20
3120066209639.1079
 30
0.0
 40
8.0
  1
ST DEDICATION  (VOL. 895 PG. 233.)
 50
88.1523
  7
ROMANS
 72
     4
 11
346674125084.91467
 21
3120066209773.1675
 31
0.0
210
0.0
220
0.0
230
1.0
  0
TEXT
  8
13
  6
CONTINUOUS
 62
    14
  5
2DD
 10
346674125282.47205
 20
3120066209505.2808
 30
0.0
 40
8.0
  1
ALLEY DEDICATION  (VOL. 895 PG. 233.)
 50
88.1523
  7
ROMANS
 72
     4
 11
346674125283.18158
 21
3120066209651.334
 31
0.0
210
0.0
220
0.0
230
1.0
  0
TEXT
  8
13
  6
CONTINUOUS
 62
    14
  5
2DE
 10
346674125044.52106
 20
3120066209271.6538
 30
0.0
 40
8.0
  1
ST DEDICATION  (VOL. 895 PG. 233.)
 50
358.1523
  7
ROMANS
 72
     4
 11
346674125178.58032
 21
3120066209271.3315
 31
0.0
210
0.0
220
0.0
230
1.0
  0
TEXT
  8
28
  6
CONTINUOUS
 62
    32
  5
2E1
 10
346674120301.77905
 20
3120066206457.729
 30
0.0
 40
24.0
  1
SEAGRAVES WHITEFACE & LUBBOCK RR
 50
340.0
  7
txt
 72
     4
 11
346674120658.98407
 21
3120066206340.4873
 31
0.0
210
0.0
220
0.0
230
1.0
  0
TEXT
  8
11
  6
CONTINUOUS
 62
     7
  5
2E2
 10
346674120625.30206
 20
3120066206442.5
 30
0.0
 40
8.0
  1
1377'
 50
340.325869
  7
ROMANS
 72
     1
 11
346674120641.62317
 21
3120066206436.6646
 31
0.0
210
0.0
220
0.0
230
1.0
  0
TEXT
  8
11
  6
CONTINUOUS
 62
     7
  5
2E3
 10
346674120494.00403
 20
3120066206321.6978
 30
0.0
 40
8.0
  1
830'
 50
340.32585
  7
ROMANS
 72
     1
 11
346674120506.55872
 21
3120066206317.209
 31
0.0
210
0.0
220
0.0
230
1.0
  0
TEXT
  8
11
  6
CONTINUOUS
 62
     7
  5
2E4
 10
346674120614.60602
 20
3120066206206.3647
 30
0.0
 40
8.0
  1
201'
 50
355.022081
  7
ROMANS
 72
     1
 11
346674120627.88873
 21
3120066206205.208
 31
0.0
210
0.0
220
0.0
230
1.0
  0
ENDSEC
  0
EOF
