  0
SECTION
  2
HEADER
  9
$ACADVER
  1
AC1009
  9
$INSBASE
 10
0.0
 20
0.0
 30
0.0
  9
$EXTMIN
 10
904865.8
 20
7263897.417
 30
0.0
  9
$EXTMAX
 10
911486.292
 20
7269368.844
 30
0.0
  9
$LIMMIN
 10
0.0
 20
0.0
  9
$LIMMAX
 10
12.0
 20
9.0
  9
$ORTHOMODE
 70
     0
  9
$REGENMODE
 70
     1
  9
$FILLMODE
 70
     1
  9
$QTEXTMODE
 70
     0
  9
$MIRRTEXT
 70
     1
  9
$DRAGMODE
 70
     2
  9
$LTSCALE
 40
1.0
  9
$OSMODE
 70
     0
  9
$ATTMODE
 70
     1
  9
$TEXTSIZE
 40
0.2
  9
$TRACEWID
 40
0.05
  9
$TEXTSTYLE
  7
STANDARD
  9
$CLAYER
  8
0
  9
$CELTYPE
  6
CONTINUOUS
  9
$CECOLOR
 62
   256
  9
$DIMSCALE
 40
1.0
  9
$DIMASZ
 40
0.18
  9
$DIMEXO
 40
0.0625
  9
$DIMDLI
 40
0.38
  9
$DIMRND
 40
0.0
  9
$DIMDLE
 40
0.0
  9
$DIMEXE
 40
0.18
  9
$DIMTP
 40
0.0
  9
$DIMTM
 40
0.0
  9
$DIMTXT
 40
0.18
  9
$DIMCEN
 40
0.09
  9
$DIMTSZ
 40
0.0
  9
$DIMTOL
 70
     0
  9
$DIMLIM
 70
     0
  9
$DIMTIH
 70
     1
  9
$DIMTOH
 70
     1
  9
$DIMSE1
 70
     0
  9
$DIMSE2
 70
     0
  9
$DIMTAD
 70
     0
  9
$DIMZIN
 70
     0
  9
$DIMBLK
  1

  9
$DIMASO
 70
     1
  9
$DIMSHO
 70
     1
  9
$DIMPOST
  1

  9
$DIMAPOST
  1

  9
$DIMALT
 70
     0
  9
$DIMALTD
 70
     2
  9
$DIMALTF
 40
25.4
  9
$DIMLFAC
 40
1.0
  9
$DIMTOFL
 70
     0
  9
$DIMTVP
 40
0.0
  9
$DIMTIX
 70
     0
  9
$DIMSOXD
 70
     0
  9
$DIMSAH
 70
     0
  9
$DIMBLK1
  1

  9
$DIMBLK2
  1

  9
$DIMSTYLE
  2
STANDARD
  9
$DIMCLRD
 70
     0
  9
$DIMCLRE
 70
     0
  9
$DIMCLRT
 70
     0
  9
$DIMTFAC
 40
1.0
  9
$DIMGAP
 40
0.09
  9
$LUNITS
 70
     2
  9
$LUPREC
 70
     4
  9
$AXISMODE
 70
     0
  9
$AXISUNIT
 10
0.0
 20
0.0
  9
$SKETCHINC
 40
0.1
  9
$FILLETRAD
 40
0.0
  9
$AUNITS
 70
     0
  9
$AUPREC
 70
     0
  9
$MENU
  1
acad
  9
$ELEVATION
 40
0.0
  9
$PELEVATION
 40
0.0
  9
$THICKNESS
 40
0.0
  9
$LIMCHECK
 70
     0
  9
$BLIPMODE
 70
     1
  9
$CHAMFERA
 40
0.0
  9
$CHAMFERB
 40
0.0
  9
$SKPOLY
 70
     0
  9
$TDCREATE
 40
2453013.904039352
  9
$TDUPDATE
 40
2453013.904039352
  9
$TDINDWG
 40
0.0000000000
  9
$TDUSRTIMER
 40
0.0000000000
  9
$USRTIMER
 70
     1
  9
$ANGBASE
 50
0.0
  9
$ANGDIR
 70
     0
  9
$PDMODE
 70
     0
  9
$PDSIZE
 40
0.0
  9
$PLINEWID
 40
0.0
  9
$COORDS
 70
     0
  9
$SPLFRAME
 70
     0
  9
$SPLINETYPE
 70
     6
  9
$SPLINESEGS
 70
    10
  9
$ATTDIA
 70
     0
  9
$ATTREQ
 70
     1
  9
$HANDLING
 70
     1
  9
$HANDSEED
  5
73
  9
$SURFTAB1
 70
     6
  9
$SURFTAB2
 70
     6
  9
$SURFTYPE
 70
     6
  9
$SURFU
 70
     6
  9
$SURFV
 70
     6
  9
$UCSNAME
  2

  9
$UCSORG
 10
0.0
 20
0.0
 30
0.0
  9
$UCSXDIR
 10
1.0
 20
0.0
 30
0.0
  9
$UCSYDIR
 10
0.0
 20
1.0
 30
0.0
  9
$PUCSNAME
  2

  9
$PUCSORG
 10
0.0
 20
0.0
 30
0.0
  9
$PUCSXDIR
 10
1.0
 20
0.0
 30
0.0
  9
$PUCSYDIR
 10
0.0
 20
1.0
 30
0.0
  9
$USERI1
 70
     0
  9
$USERI2
 70
     0
  9
$USERI3
 70
     0
  9
$USERI4
 70
     0
  9
$USERI5
 70
     0
  9
$USERR1
 40
0.0
  9
$USERR2
 40
0.0
  9
$USERR3
 40
0.0
  9
$USERR4
 40
0.0
  9
$USERR5
 40
0.0
  9
$WORLDVIEW
 70
     1
  9
$SHADEDGE
 70
     3
  9
$SHADEDIF
 70
    70
  9
$TILEMODE
 70
     1
  9
$MAXACTVP
 70
    16
  9
$PINSBASE
 10
0.0
 20
0.0
 30
0.0
  9
$PLIMCHECK
 70
     0
  9
$PEXTMIN
 10
-1.000000E+20
 20
-1.000000E+20
 30
-1.000000E+20
  9
$PEXTMAX
 10
-1.000000E+20
 20
-1.000000E+20
 30
-1.000000E+20
  9
$PLIMMIN
 10
0.0
 20
0.0
  9
$PLIMMAX
 10
12.0
 20
9.0
  9
$UNITMODE
 70
     0
  9
$VISRETAIN
 70
     0
  9
$PLINEGEN
 70
     1
  9
$PSLTSCALE
 70
     0
  9
$TREEDEPTH
 70
  3020
  9
$DWGCODEPAGE
  3
ansi_1252
  0
ENDSEC
  0
SECTION
  2
TABLES
  0
TABLE
  2
VPORT
 70
     1
  0
VPORT
  2
*ACTIVE
 70
     0
 10
0.0
 20
0.0
 11
1.0
 21
1.0
 12
0.0
 22
0.0
 13
0.0
 23
0.0
 14
0.0
 24
0.0
 15
0.0
 25
0.0
 16
0.0
 26
0.0
 36
1.0
 17
908076.212679
 27
7266665.735263
 37
0.0
 40
5847.627
 41
1.3171
 42
50.0
 43
0.004
 44
0.0
 50
1.817229
 51
0.0
 71
     0
 72
   100
 73
     1
 74
     0
 75
     0
 76
     0
 77
     0
 78
     0
  0
ENDTAB
  0
TABLE
  2
LTYPE
 70
     7
  0
LTYPE
  2
CONTINUOUS
 70
     0
  3
Solid line
 72
    65
 73
     0
 40
0.0
  0
LTYPE
  2
DOT
 70
    64
  3
. . . . . . . . . . . . . . . . . . . . . . . . . . . . . . . . .
 72
    65
 73
     2
 40
0.25
 49
0.0
 49
-0.25
  0
LTYPE
  2
HIDDEN
 70
    64
  3
__ __ __ __ __ __ __ __ __ __ __ __ __ __ __ __ __ __ __ __ __ 
 72
    65
 73
     2
 40
0.375
 49
0.25
 49
-0.125
  0
LTYPE
  2
DASHED
 70
    64
  3
__ __ __ __ __ __ __ __ __ __ __ __ __ __ __ __ __ __ __ __ __
 72
    65
 73
     2
 40
0.75
 49
0.5
 49
-0.25
  0
LTYPE
  2
DASHDOT
 70
    64
  3
__ . __ . __ . __ . __ . __ . __ . __ . __ . __ . __ . __ . _
 72
    65
 73
     4
 40
1.0
 49
0.5
 49
-0.25
 49
0.0
 49
-0.25
  0
LTYPE
  2
DIVIDE
 70
    64
  3
____ . . ____ . . ____ . . ____ . . ____ . . ____ . . ____ . .
 72
    65
 73
     6
 40
1.25
 49
0.5
 49
-0.25
 49
0.0
 49
-0.25
 49
0.0
 49
-0.25
  0
LTYPE
  2
CENTER
 70
    64
  3
____ _ ____ _ ____ _ ____ _ ____ _ ____ _ ____ _ ____ _ ____ _
 72
    65
 73
     4
 40
2.0
 49
1.25
 49
-0.25
 49
0.25
 49
-0.25
  0
ENDTAB
  0
TABLE
  2
LAYER
 70
    12
  0
LAYER
  2
0
 70
     0
 62
     7
  6
CONTINUOUS
  0
LAYER
  2
CONSTRUCTION_CLASS
 70
     1
 62
     7
  6
CONTINUOUS
  0
LAYER
  2
PATTERN_CLASS
 70
     0
 62
     7
  6
CONTINUOUS
  0
LAYER
  2
27
 70
    64
 62
     7
  6
CONTINUOUS
  0
LAYER
  2
6
 70
    64
 62
     7
  6
CONTINUOUS
  0
LAYER
  2
11
 70
    64
 62
     7
  6
CONTINUOUS
  0
LAYER
  2
DEFPOINTS
 70
    64
 62
     7
  6
CONTINUOUS
  0
LAYER
  2
1
 70
    64
 62
     7
  6
CONTINUOUS
  0
LAYER
  2
19
 70
    64
 62
     7
  6
CONTINUOUS
  0
LAYER
  2
10
 70
    64
 62
     7
  6
CONTINUOUS
  0
LAYER
  2
58
 70
    64
 62
     7
  6
CONTINUOUS
  0
LAYER
  2
28
 70
    64
 62
     7
  6
CONTINUOUS
  0
ENDTAB
  0
TABLE
  2
STYLE
 70
     5
  0
STYLE
  2
STANDARD
 70
     0
 40
0.0
 41
1.0
 50
0.0
 71
     0
 42
0.0
  3
txt
  4

  0
STYLE
  2
ROMANS
 70
     0
 40
0.2
 41
1.0
 50
0.0
 71
     0
 42
0.2
  3
ROMANS
  4

  0
STYLE
  2
ROMANC
 70
     0
 40
0.2
 41
1.0
 50
0.0
 71
     0
 42
0.2
  3
ROMANC
  4

  0
STYLE
  2
MONOTXT
 70
     0
 40
0.2
 41
1.0
 50
0.0
 71
     0
 42
0.2
  3
MONOTXT
  4

  0
STYLE
  2
txt
 70
     0
 40
0.2
 41
1.0
 50
0.0
 71
     0
 42
0.2
  3
TXT
  4

  0
ENDTAB
  0
TABLE
  2
VIEW
 70
     0
  0
ENDTAB
  0
TABLE
  2
UCS
 70
     0
  0
ENDTAB
  0
TABLE
  2
APPID
 70
     1
  0
APPID
  2
ACAD
 70
     0
  0
ENDTAB
  0
TABLE
  2
DIMSTYLE
 70
     2
  0
DIMSTYLE
  2
STANDARD
 70
     0
  3

  4

  5

  6

  7

 40
1.0
 41
0.18
 42
0.0625
 43
0.38
 44
0.18
 45
0.0
 46
0.0
 47
0.0
 48
0.0
140
0.18
141
0.09
142
0.0
143
25.4
144
1.0
145
0.0
146
1.0
147
0.09
 71
     0
 72
     0
 73
     1
 74
     1
 75
     0
 76
     0
 77
     0
 78
     0
170
     0
171
     2
172
     0
173
     0
174
     0
175
     0
176
     0
177
     0
178
     0
  0
DIMSTYLE
  2
MSADIM
 70
     0
  3

  4

  5

  6

  7

 40
1.0
 41
8.0
 42
4.0
 43
0.0
 44
4.0
 45
0.0
 46
0.0
 47
0.0
 48
0.0
140
8.0
141
4.0
142
0.0
143
25.4
144
1.0
145
4.0
146
1.0
147
4.0
 71
     0
 72
     0
 73
     1
 74
     1
 75
     1
 76
     1
 77
     0
 78
     2
170
     0
171
     2
172
     0
173
     0
174
     0
175
     0
176
     0
177
     0
178
     0
  0
ENDTAB
  0
ENDSEC
  0
SECTION
  2
BLOCKS
  0
BLOCK
  8
11
  6
CONTINUOUS
 62
     7
  5
42
  2
*D0
 70
     1
 10
0.0
 20
0.0
 30
0.0
  3
*N0
  0
TEXT
  8
11
  6
CONTINUOUS
 62
     7
  5
43
 10
908361.981
 20
7268508.563
 30
0.0
 40
8.0
  1
S70%%d20'25.84"E
 50
340.340511
  7
ROMANS
 72
     1
 11
908415.995558
 21
7268497.761261
 31
0.0
210
0.0
220
0.0
230
1.0
 73
     3
  0
TEXT
  8
11
  6
CONTINUOUS
 62
     7
  5
44
 10
908391.064
 20
7268515.163
 30
0.0
 40
8.0
  1
4206.92'
 50
340.340511
  7
ROMANS
 72
     1
 11
908418.68714
 21
7268505.294513
 31
0.0
210
0.0
220
0.0
230
1.0
  0
ENDBLK
  8
11
  6
CONTINUOUS
 62
     7
  5
45
  0
ENDSEC
  0
SECTION
  2
ENTITIES
  0
LINE
  8
27
  6
CONTINUOUS
 62
    32
  5
29
 10
905997.369
 20
7269324.159
 30
0.0
 11
910285.976
 21
7267790.422
 31
0.0
  0
LINE
  8
6
  6
CONTINUOUS
 62
     7
  5
2B
 10
910290.164
 20
7269134.764
 30
0.0
 11
910248.143
 21
7267856.969
 31
0.0
  0
LINE
  8
6
  6
CONTINUOUS
 62
     7
  5
2C
 10
910244.691
 20
7267752.019
 30
0.0
 11
910120.168
 21
7263965.475
 31
0.0
  0
LINE
  8
6
  6
CONTINUOUS
 62
     7
  5
2D
 10
905082.926
 20
7269296.9
 30
0.0
 11
905921.778
 21
7269271.469
 31
0.0
  0
LINE
  8
6
  6
CONTINUOUS
 62
     7
  5
2E
 10
906411.091
 20
7269256.346
 30
0.0
 11
910290.164
 21
7269134.764
 31
0.0
  0
LINE
  8
6
  6
CONTINUOUS
 62
     7
  5
2F
 10
906242.027
 20
7269316.598
 30
0.0
 11
907653.822
 21
7268800.341
 31
0.0
  0
LINE
  8
6
  6
CONTINUOUS
 62
     7
  5
30
 10
907653.011
 20
7268774.089
 30
0.0
 11
910287.704
 21
7267842.988
 31
0.0
  0
LINE
  8
6
  6
CONTINUOUS
 62
     7
  5
31
 10
905752.715
 20
7269331.72
 30
0.0
 11
907648.954
 21
7268642.816
 31
0.0
  0
LINE
  8
6
  6
CONTINUOUS
 62
     7
  5
32
 10
907649.765
 20
7268669.067
 30
0.0
 11
910284.253
 21
7267738.038
 31
0.0
  0
LINE
  8
6
  6
CONTINUOUS
 62
     7
  5
33
 10
907653.822
 20
7268800.341
 30
0.0
 11
907653.011
 21
7268774.089
 31
0.0
  0
LINE
  8
6
  6
CONTINUOUS
 62
     7
  5
34
 10
907649.765
 20
7268669.067
 30
0.0
 11
907648.954
 21
7268642.816
 31
0.0
  0
TEXT
  8
11
  6
CONTINUOUS
 62
     7
  5
37
 10
905085.682
 20
7269318.313
 30
0.0
 40
8.0
  1
55'
 50
88.2298
  7
ROMANS
210
0.0
220
0.0
230
1.0
  0
TEXT
  8
11
  6
CONTINUOUS
 62
     7
  5
38
 10
910212.206
 20
7269160.393
 30
0.0
 40
8.0
  1
55'
 50
88.2298
  7
ROMANS
210
0.0
220
0.0
230
1.0
  0
TEXT
  8
11
  6
CONTINUOUS
 62
     7
  5
39
 10
910276.021
 20
7269102.154
 30
0.0
 40
8.0
  1
40'
 50
358.2298
  7
ROMANS
210
0.0
220
0.0
230
1.0
  0
TEXT
  8
11
  6
CONTINUOUS
 62
     7
  5
3A
 10
910133.262
 20
7263976.547
 30
0.0
 40
8.0
  1
40'
 50
358.2298
  7
ROMANS
210
0.0
220
0.0
230
1.0
  0
TEXT
  8
11
  6
CONTINUOUS
 62
     7
  5
3B
 10
905024.99
 20
7268810.395
 30
0.0
 40
8.0
  1
605'
 50
88.2298
  7
ROMANS
210
0.0
220
0.0
230
1.0
  0
TEXT
  8
11
  6
CONTINUOUS
 62
     7
  5
3C
 10
910249.433
 20
7268809.294
 30
0.0
 40
8.0
  1
605'
 50
88.2298
  7
ROMANS
210
0.0
220
0.0
230
1.0
  0
TEXT
  8
11
  6
CONTINUOUS
 62
     7
  5
3D
 10
905623.57
 20
7269267.984
 30
0.0
 40
8.0
  1
1236.48'
 50
358.2298
  7
ROMANS
210
0.0
220
0.0
230
1.0
  0
TEXT
  8
11
  6
CONTINUOUS
 62
     7
  5
3E
 10
908500.858
 20
7269171.999
 30
0.0
 40
8.0
  1
4003.52'
 50
358.2298
  7
ROMANS
210
0.0
220
0.0
230
1.0
  0
INSERT
  8
11
  6
CONTINUOUS
 62
     7
  5
46
  2
*D0
 10
907524.599
 20
7268820.464
 30
0.0
 70
     0
 71
     0
  0
TEXT
  8
11
  6
CONTINUOUS
 62
     7
  5
47
 10
910161.994
 20
7265990.947
 30
0.0
 40
8.0
  1
3932.72'
 50
88.2298
  7
ROMANS
 72
     4
 11
910158.902032
 21
7266020.389565
 31
0.0
210
0.0
220
0.0
230
1.0
  0
TEXT
  8
11
  6
CONTINUOUS
 62
     7
  5
48
 10
906056.232
 20
7269253.463
 30
0.0
 40
8.0
  1
75'
 50
58.2298
  7
ROMANS
 72
     4
 11
906057.745286
 21
7269263.50366
 31
0.0
210
0.0
220
0.0
230
1.0
  0
TEXT
  8
11
  6
CONTINUOUS
 62
     7
  5
49
 10
906222.725
 20
7269277.283
 30
0.0
 40
8.0
  1
75'
 50
58.2298
  7
ROMANS
 72
     4
 11
906224.238286
 21
7269287.32366
 31
0.0
210
0.0
220
0.0
230
1.0
  0
TEXT
  8
11
  6
CONTINUOUS
 62
     7
  5
4A
 10
907707.13
 20
7268723.845
 30
0.0
 40
8.0
  1
50'
 50
73.2298
  7
ROMANS
 72
     4
 11
907705.993008
 21
7268733.9352
 31
0.0
210
0.0
220
0.0
230
1.0
  0
TEXT
  8
11
  6
CONTINUOUS
 62
     7
  5
4B
 10
907704.172
 20
7268664.871
 30
0.0
 40
8.0
  1
50'
 50
73.2298
  7
ROMANS
 72
     4
 11
907703.035008
 21
7268674.9612
 31
0.0
210
0.0
220
0.0
230
1.0
  0
TEXT
  8
11
  6
CONTINUOUS
 62
     7
  5
4C
 10
910243.758
 20
7267821.065
 30
0.0
 40
8.0
  1
50'
 50
73.2298
  7
ROMANS
 72
     4
 11
910242.621008
 21
7267831.1552
 31
0.0
210
0.0
220
0.0
230
1.0
  0
TEXT
  8
11
  6
CONTINUOUS
 62
     7
  5
4D
 10
910230.908
 20
7267772.619
 30
0.0
 40
8.0
  1
50'
 50
73.2298
  7
ROMANS
 72
     4
 11
910229.771008
 21
7267782.7092
 31
0.0
210
0.0
220
0.0
230
1.0
  0
POLYLINE
  8
1
  6
HIDDEN
 62
   253
  5
4F
 66
     1
 10
0.0
 20
0.0
 30
0.0
 70
     1
  0
VERTEX
  8
1
  6
HIDDEN
 62
   253
  5
50
 10
905051.881
 20
7269368.844
 30
0.0
  0
VERTEX
  8
1
  6
HIDDEN
 62
   253
  5
51
 10
910317.983
 20
7269201.765
 30
0.0
  0
VERTEX
  8
1
  6
HIDDEN
 62
   253
  5
52
 10
910147.867
 20
7263912.206
 30
0.0
  0
VERTEX
  8
1
  6
HIDDEN
 62
   253
  5
53
 10
904880.502
 20
7264079.379
 30
0.0
  0
SEQEND
  8
1
  6
HIDDEN
 62
   253
  5
54
  0
TEXT
  8
19
  6
CONTINUOUS
 62
     1
  5
57
 10
910277.162
 20
7268534.434
 30
0.0
 40
24.0
  1
UPLAND AVE
 50
88.2298
  7
ROMANC
 72
     4
 11
910269.335528
 21
7268669.660302
 31
0.0
210
0.0
220
0.0
230
1.0
  0
TEXT
  8
19
  6
CONTINUOUS
 62
     1
  5
58
 10
910123.127
 20
7263897.787
 30
0.0
 40
24.0
  1
UPLAND AVE
 50
88.2298
  7
ROMANC
 72
     4
 11
910115.300528
 21
7264033.013302
 31
0.0
210
0.0
220
0.0
230
1.0
  0
TEXT
  8
19
  6
CONTINUOUS
 62
     1
  5
59
 10
910206.871
 20
7266138.286
 30
0.0
 40
24.0
  1
UPLAND AVE
 50
88.2298
  7
ROMANC
 72
     4
 11
910199.044528
 21
7266273.512302
 31
0.0
210
0.0
220
0.0
230
1.0
  0
TEXT
  8
19
  6
CONTINUOUS
 62
     1
  5
5A
 10
904901.782
 20
7264202.563
 30
0.0
 40
24.0
  1
ALCOVE AVE
 50
88.2298
  7
ROMANC
 72
     4
 11
904893.797922
 21
7264332.689737
 31
0.0
210
0.0
220
0.0
230
1.0
  0
TEXT
  8
19
  6
CONTINUOUS
 62
     1
  5
5B
 10
904973.136
 20
7266415.436
 30
0.0
 40
24.0
  1
ALCOVE AVE
 50
88.2298
  7
ROMANC
 72
     4
 11
904965.151922
 21
7266545.562737
 31
0.0
210
0.0
220
0.0
230
1.0
  0
TEXT
  8
19
  6
CONTINUOUS
 62
     1
  5
5C
 10
905047.869
 20
7268927.744
 30
0.0
 40
24.0
  1
ALCOVE AVE
 50
88.2298
  7
ROMANC
 72
     4
 11
905039.884922
 21
7269057.870737
 31
0.0
210
0.0
220
0.0
230
1.0
  0
TEXT
  8
19
  6
CONTINUOUS
 62
     1
  5
5D
 10
905094.938
 20
7269317.021
 30
0.0
 40
24.0
  1
34TH ST
 50
358.2298
  7
ROMANC
 72
     4
 11
905183.892395
 21
7269326.277536
 31
0.0
210
0.0
220
0.0
230
1.0
  0
TEXT
  8
19
  6
CONTINUOUS
 62
     1
  5
5E
 10
909767.681
 20
7269170.189
 30
0.0
 40
24.0
  1
34TH ST
 50
358.2298
  7
ROMANC
 72
     4
 11
909856.635395
 21
7269179.445536
 31
0.0
210
0.0
220
0.0
230
1.0
  0
TEXT
  8
19
  6
CONTINUOUS
 62
     1
  5
5F
 10
907671.932
 20
7269236.353
 30
0.0
 40
24.0
  1
34TH ST
 50
358.2298
  7
ROMANC
 72
     4
 11
907760.886395
 21
7269245.609536
 31
0.0
210
0.0
220
0.0
230
1.0
  0
TEXT
  8
19
  6
CONTINUOUS
 62
     1
  5
60
 10
905002.252
 20
7264080.879
 30
0.0
 40
24.0
  1
50TH ST
 50
358.2298
  7
ROMANC
 72
     4
 11
905090.072936
 21
7264090.170566
 31
0.0
210
0.0
220
0.0
230
1.0
  0
TEXT
  8
19
  6
CONTINUOUS
 62
     1
  5
61
 10
907475.353
 20
7264008.873
 30
0.0
 40
24.0
  1
50TH ST
 50
358.2298
  7
ROMANC
 72
     4
 11
907563.173936
 21
7264018.164566
 31
0.0
210
0.0
220
0.0
230
1.0
  0
TEXT
  8
19
  6
CONTINUOUS
 62
     1
  5
62
 10
909718.584
 20
7263937.844
 30
0.0
 40
24.0
  1
50TH ST
 50
358.2298
  7
ROMANC
 72
     4
 11
909806.404936
 21
7263947.135566
 31
0.0
210
0.0
220
0.0
230
1.0
  0
TEXT
  8
10
  6
CONTINUOUS
 62
   134
  5
65
 10
909184.617
 20
7268800.412
 30
0.0
 40
10.0
  1
UNSUBDIVIDED
 50
358.2298
  7
MONOTXT
 11
909184.925909
 21
7268810.407228
 31
0.0
210
0.0
220
0.0
230
1.0
 73
     3
  0
TEXT
  8
10
  6
CONTINUOUS
 62
   134
  5
66
 10
907295.687
 20
7266408.892
 30
0.0
 40
10.0
  1
UNSUBDIVIDED
 50
358.2298
  7
MONOTXT
 11
907295.995909
 21
7266418.887228
 31
0.0
210
0.0
220
0.0
230
1.0
 73
     3
  0
LINE
  8
58
  6
DIVIDE
 62
   216
  5
68
 10
905009.29
 20
7268694.479
 30
0.0
 11
909630.751
 21
7268551.65
 31
0.0
  0
LINE
  8
58
  6
DIVIDE
 62
   216
  5
69
 10
909485.252
 20
7263933.941
 30
0.0
 11
909630.751
 21
7268551.65
 31
0.0
  0
LINE
  8
6
  6
CONTINUOUS
 62
     7
  5
6A
 10
904911.576
 20
7264130.193
 30
0.0
 11
910120.164
 21
7263965.34
 31
0.0
  0
LINE
  8
6
  6
CONTINUOUS
 62
     7
  5
6B
 10
905082.926
 20
7269296.892
 30
0.0
 11
904911.576
 21
7264130.193
 31
0.0
  0
TEXT
  8
28
  6
CONTINUOUS
 62
    32
  5
6E
 10
909702.812
 20
7268011.32
 30
0.0
 40
24.0
  1
PACIFIC AND SANTA FE
 50
340.0
  7
txt
 72
     4
 11
909918.048259
 21
7267945.750542
 31
0.0
210
0.0
220
0.0
230
1.0
  0
TEXT
  8
28
  6
CONTINUOUS
 62
    32
  5
6F
 10
906602.542
 20
7269119.734
 30
0.0
 40
24.0
  1
PACIFIC AND SANTA FE
 50
340.0
  7
txt
 72
     4
 11
906817.778259
 21
7269054.164542
 31
0.0
210
0.0
220
0.0
230
1.0
  0
ENDSEC
  0
EOF
