  0
SECTION
  2
HEADER
  9
$ACADVER
  1
AC1009
  9
$INSBASE
 10
0.0
 20
0.0
 30
0.0
  9
$EXTMIN
 10
904196.723
 20
7242393.1
 30
0.0
  9
$EXTMAX
 10
920216.062
 20
7248258.395
 30
0.0
  9
$LIMMIN
 10
0.0
 20
0.0
  9
$LIMMAX
 10
12.0
 20
9.0
  9
$ORTHOMODE
 70
     0
  9
$REGENMODE
 70
     1
  9
$FILLMODE
 70
     1
  9
$QTEXTMODE
 70
     0
  9
$MIRRTEXT
 70
     1
  9
$DRAGMODE
 70
     2
  9
$LTSCALE
 40
1.0
  9
$OSMODE
 70
     0
  9
$ATTMODE
 70
     1
  9
$TEXTSIZE
 40
0.2
  9
$TRACEWID
 40
0.05
  9
$TEXTSTYLE
  7
STANDARD
  9
$CLAYER
  8
0
  9
$CELTYPE
  6
CONTINUOUS
  9
$CECOLOR
 62
   256
  9
$DIMSCALE
 40
1.0
  9
$DIMASZ
 40
0.18
  9
$DIMEXO
 40
0.0625
  9
$DIMDLI
 40
0.38
  9
$DIMRND
 40
0.0
  9
$DIMDLE
 40
0.0
  9
$DIMEXE
 40
0.18
  9
$DIMTP
 40
0.0
  9
$DIMTM
 40
0.0
  9
$DIMTXT
 40
0.18
  9
$DIMCEN
 40
0.09
  9
$DIMTSZ
 40
0.0
  9
$DIMTOL
 70
     0
  9
$DIMLIM
 70
     0
  9
$DIMTIH
 70
     1
  9
$DIMTOH
 70
     1
  9
$DIMSE1
 70
     0
  9
$DIMSE2
 70
     0
  9
$DIMTAD
 70
     0
  9
$DIMZIN
 70
     0
  9
$DIMBLK
  1

  9
$DIMASO
 70
     1
  9
$DIMSHO
 70
     1
  9
$DIMPOST
  1

  9
$DIMAPOST
  1

  9
$DIMALT
 70
     0
  9
$DIMALTD
 70
     2
  9
$DIMALTF
 40
25.4
  9
$DIMLFAC
 40
1.0
  9
$DIMTOFL
 70
     0
  9
$DIMTVP
 40
0.0
  9
$DIMTIX
 70
     0
  9
$DIMSOXD
 70
     0
  9
$DIMSAH
 70
     0
  9
$DIMBLK1
  1

  9
$DIMBLK2
  1

  9
$DIMSTYLE
  2
STANDARD
  9
$DIMCLRD
 70
     0
  9
$DIMCLRE
 70
     0
  9
$DIMCLRT
 70
     0
  9
$DIMTFAC
 40
1.0
  9
$DIMGAP
 40
0.09
  9
$LUNITS
 70
     2
  9
$LUPREC
 70
     4
  9
$AXISMODE
 70
     0
  9
$AXISUNIT
 10
0.0
 20
0.0
  9
$SKETCHINC
 40
0.1
  9
$FILLETRAD
 40
0.0
  9
$AUNITS
 70
     0
  9
$AUPREC
 70
     0
  9
$MENU
  1
acad
  9
$ELEVATION
 40
0.0
  9
$PELEVATION
 40
0.0
  9
$THICKNESS
 40
0.0
  9
$LIMCHECK
 70
     0
  9
$BLIPMODE
 70
     1
  9
$CHAMFERA
 40
0.0
  9
$CHAMFERB
 40
0.0
  9
$SKPOLY
 70
     0
  9
$TDCREATE
 40
2453013.903877315
  9
$TDUPDATE
 40
2453013.903877315
  9
$TDINDWG
 40
0.0000000000
  9
$TDUSRTIMER
 40
0.0000000000
  9
$USRTIMER
 70
     1
  9
$ANGBASE
 50
0.0
  9
$ANGDIR
 70
     0
  9
$PDMODE
 70
     0
  9
$PDSIZE
 40
0.0
  9
$PLINEWID
 40
0.0
  9
$COORDS
 70
     0
  9
$SPLFRAME
 70
     0
  9
$SPLINETYPE
 70
     6
  9
$SPLINESEGS
 70
    10
  9
$ATTDIA
 70
     0
  9
$ATTREQ
 70
     1
  9
$HANDLING
 70
     1
  9
$HANDSEED
  5
13E
  9
$SURFTAB1
 70
     6
  9
$SURFTAB2
 70
     6
  9
$SURFTYPE
 70
     6
  9
$SURFU
 70
     6
  9
$SURFV
 70
     6
  9
$UCSNAME
  2

  9
$UCSORG
 10
0.0
 20
0.0
 30
0.0
  9
$UCSXDIR
 10
1.0
 20
0.0
 30
0.0
  9
$UCSYDIR
 10
0.0
 20
1.0
 30
0.0
  9
$PUCSNAME
  2

  9
$PUCSORG
 10
0.0
 20
0.0
 30
0.0
  9
$PUCSXDIR
 10
1.0
 20
0.0
 30
0.0
  9
$PUCSYDIR
 10
0.0
 20
1.0
 30
0.0
  9
$USERI1
 70
     0
  9
$USERI2
 70
     0
  9
$USERI3
 70
     0
  9
$USERI4
 70
     0
  9
$USERI5
 70
     0
  9
$USERR1
 40
0.0
  9
$USERR2
 40
0.0
  9
$USERR3
 40
0.0
  9
$USERR4
 40
0.0
  9
$USERR5
 40
0.0
  9
$WORLDVIEW
 70
     1
  9
$SHADEDGE
 70
     3
  9
$SHADEDIF
 70
    70
  9
$TILEMODE
 70
     1
  9
$MAXACTVP
 70
    16
  9
$PINSBASE
 10
0.0
 20
0.0
 30
0.0
  9
$PLIMCHECK
 70
     0
  9
$PEXTMIN
 10
-1.000000E+20
 20
-1.000000E+20
 30
-1.000000E+20
  9
$PEXTMAX
 10
-1.000000E+20
 20
-1.000000E+20
 30
-1.000000E+20
  9
$PLIMMIN
 10
0.0
 20
0.0
  9
$PLIMMAX
 10
12.0
 20
9.0
  9
$UNITMODE
 70
     0
  9
$VISRETAIN
 70
     0
  9
$PLINEGEN
 70
     1
  9
$PSLTSCALE
 70
     0
  9
$TREEDEPTH
 70
  3020
  9
$DWGCODEPAGE
  3
ansi_1252
  0
ENDSEC
  0
SECTION
  2
TABLES
  0
TABLE
  2
VPORT
 70
     1
  0
VPORT
  2
*ACTIVE
 70
     0
 10
0.0
 20
0.0
 11
1.0
 21
1.0
 12
0.0
 22
0.0
 13
0.0
 23
0.0
 14
0.0
 24
0.0
 15
0.0
 25
0.0
 16
0.0
 26
0.0
 36
1.0
 17
911983.488021
 27
7245257.479037
 37
0.0
 40
5627.17
 41
1.196477
 42
50.0
 43
0.004
 44
0.0
 50
1.823222
 51
0.0
 71
     0
 72
   100
 73
     1
 74
     0
 75
     0
 76
     0
 77
     0
 78
     0
  0
ENDTAB
  0
TABLE
  2
LTYPE
 70
     7
  0
LTYPE
  2
CONTINUOUS
 70
     0
  3
Solid line
 72
    65
 73
     0
 40
0.0
  0
LTYPE
  2
DOT
 70
    64
  3
. . . . . . . . . . . . . . . . . . . . . . . . . . . . . . . . .
 72
    65
 73
     2
 40
0.25
 49
0.0
 49
-0.25
  0
LTYPE
  2
HIDDEN
 70
    64
  3
__ __ __ __ __ __ __ __ __ __ __ __ __ __ __ __ __ __ __ __ __ 
 72
    65
 73
     2
 40
0.375
 49
0.25
 49
-0.125
  0
LTYPE
  2
DASHED
 70
    64
  3
__ __ __ __ __ __ __ __ __ __ __ __ __ __ __ __ __ __ __ __ __
 72
    65
 73
     2
 40
0.75
 49
0.5
 49
-0.25
  0
LTYPE
  2
DASHDOT
 70
    64
  3
__ . __ . __ . __ . __ . __ . __ . __ . __ . __ . __ . __ . _
 72
    65
 73
     4
 40
1.0
 49
0.5
 49
-0.25
 49
0.0
 49
-0.25
  0
LTYPE
  2
DIVIDE
 70
    64
  3
____ . . ____ . . ____ . . ____ . . ____ . . ____ . . ____ . .
 72
    65
 73
     6
 40
1.25
 49
0.5
 49
-0.25
 49
0.0
 49
-0.25
 49
0.0
 49
-0.25
  0
LTYPE
  2
CENTER
 70
    64
  3
____ _ ____ _ ____ _ ____ _ ____ _ ____ _ ____ _ ____ _ ____ _
 72
    65
 73
     4
 40
2.0
 49
1.25
 49
-0.25
 49
0.25
 49
-0.25
  0
ENDTAB
  0
TABLE
  2
LAYER
 70
    21
  0
LAYER
  2
0
 70
     0
 62
     7
  6
CONTINUOUS
  0
LAYER
  2
CONSTRUCTION_CLASS
 70
     1
 62
     7
  6
CONTINUOUS
  0
LAYER
  2
PATTERN_CLASS
 70
     0
 62
     7
  6
CONTINUOUS
  0
LAYER
  2
6
 70
    64
 62
     7
  6
CONTINUOUS
  0
LAYER
  2
11
 70
    64
 62
     7
  6
CONTINUOUS
  0
LAYER
  2
21
 70
    64
 62
     7
  6
CONTINUOUS
  0
LAYER
  2
19
 70
    64
 62
     7
  6
CONTINUOUS
  0
LAYER
  2
22
 70
    64
 62
     7
  6
CONTINUOUS
  0
LAYER
  2
13
 70
    64
 62
     7
  6
CONTINUOUS
  0
LAYER
  2
10
 70
    64
 62
     7
  6
CONTINUOUS
  0
LAYER
  2
1
 70
    64
 62
     7
  6
CONTINUOUS
  0
LAYER
  2
-1
 70
    64
 62
     7
  6
CONTINUOUS
  0
LAYER
  2
-6
 70
    64
 62
     7
  6
CONTINUOUS
  0
LAYER
  2
A-6
 70
    64
 62
     7
  6
CONTINUOUS
  0
LAYER
  2
A-11
 70
    64
 62
     7
  6
CONTINUOUS
  0
LAYER
  2
A-1
 70
    64
 62
     7
  6
CONTINUOUS
  0
LAYER
  2
A-19
 70
    64
 62
     7
  6
CONTINUOUS
  0
LAYER
  2
A-13
 70
    64
 62
     7
  6
CONTINUOUS
  0
LAYER
  2
A-21
 70
    64
 62
     7
  6
CONTINUOUS
  0
LAYER
  2
A-10
 70
    64
 62
     7
  6
CONTINUOUS
  0
LAYER
  2
A-22
 70
    64
 62
     7
  6
CONTINUOUS
  0
ENDTAB
  0
TABLE
  2
STYLE
 70
     4
  0
STYLE
  2
STANDARD
 70
     0
 40
0.0
 41
1.0
 50
0.0
 71
     0
 42
0.0
  3
txt
  4

  0
STYLE
  2
ROMANS
 70
     0
 40
0.2
 41
1.0
 50
0.0
 71
     0
 42
0.2
  3
ROMANS
  4

  0
STYLE
  2
txt
 70
     0
 40
0.2
 41
1.0
 50
0.0
 71
     0
 42
0.2
  3
TXT
  4

  0
STYLE
  2
ROMANC
 70
     0
 40
0.2
 41
1.0
 50
0.0
 71
     0
 42
0.2
  3
ROMANC
  4

  0
ENDTAB
  0
TABLE
  2
VIEW
 70
     0
  0
ENDTAB
  0
TABLE
  2
UCS
 70
     0
  0
ENDTAB
  0
TABLE
  2
APPID
 70
     1
  0
APPID
  2
ACAD
 70
     0
  0
ENDTAB
  0
TABLE
  2
DIMSTYLE
 70
     1
  0
DIMSTYLE
  2
STANDARD
 70
     0
  3

  4

  5

  6

  7

 40
1.0
 41
0.18
 42
0.0625
 43
0.38
 44
0.18
 45
0.0
 46
0.0
 47
0.0
 48
0.0
140
0.18
141
0.09
142
0.0
143
25.4
144
1.0
145
0.0
146
1.0
147
0.09
 71
     0
 72
     0
 73
     1
 74
     1
 75
     0
 76
     0
 77
     0
 78
     0
170
     0
171
     2
172
     0
173
     0
174
     0
175
     0
176
     0
177
     0
178
     0
  0
ENDTAB
  0
ENDSEC
  0
SECTION
  2
BLOCKS
  0
ENDSEC
  0
SECTION
  2
ENTITIES
  0
LINE
  8
6
  6
CONTINUOUS
 62
     7
  5
29
 10
909687.481
 20
7248057.744
 30
0.0
 11
909517.352
 21
7242745.043
 31
0.0
  0
TEXT
  8
11
  6
CONTINUOUS
 62
     7
  5
2C
 10
909674.899
 20
7247958.732
 30
0.0
 40
8.0
  1
50'
 50
358.0024
  7
ROMANS
 72
     4
 11
909684.365759
 21
7247962.404243
 31
0.0
210
0.0
220
0.0
230
1.0
  0
TEXT
  8
11
  6
CONTINUOUS
 62
     7
  5
2D
 10
909609.173
 20
7245908.218
 30
0.0
 40
8.0
  1
50'
 50
358.0024
  7
ROMANS
 72
     4
 11
909618.639759
 21
7245911.890243
 31
0.0
210
0.0
220
0.0
230
1.0
  0
TEXT
  8
11
  6
CONTINUOUS
 62
     7
  5
2E
 10
909501.936
 20
7242883.707
 30
0.0
 40
8.0
  1
50'
 50
358.0024
  7
ROMANS
 72
     4
 11
909511.402759
 21
7242887.379243
 31
0.0
210
0.0
220
0.0
230
1.0
  0
TEXT
  8
11
  6
CONTINUOUS
 62
     7
  5
2F
 10
914902.898
 20
7247350.053
 30
0.0
 40
8.0
  1
50'
 50
358.0024
  7
ROMANS
 72
     4
 11
914912.364759
 21
7247353.725243
 31
0.0
210
0.0
220
0.0
230
1.0
  0
TEXT
  8
11
  6
CONTINUOUS
 62
     7
  5
30
 10
914835.765
 20
7245519.797
 30
0.0
 40
8.0
  1
50'
 50
358.0024
  7
ROMANS
 72
     4
 11
914845.231759
 21
7245523.469243
 31
0.0
210
0.0
220
0.0
230
1.0
  0
TEXT
  8
11
  6
CONTINUOUS
 62
     7
  5
31
 10
914739.709
 20
7242702.08
 30
0.0
 40
8.0
  1
50'
 50
358.0024
  7
ROMANS
 72
     4
 11
914749.175759
 21
7242705.752243
 31
0.0
210
0.0
220
0.0
230
1.0
  0
TEXT
  8
11
  6
CONTINUOUS
 62
     7
  5
32
 10
909541.424
 20
7242712.75
 30
0.0
 40
8.0
  1
50'
 50
88.0024
  7
ROMANS
 72
     4
 11
909537.751757
 21
7242722.216759
 31
0.0
210
0.0
220
0.0
230
1.0
  0
TEXT
  8
11
  6
CONTINUOUS
 62
     7
  5
33
 10
912133.213
 20
7242638.962
 30
0.0
 40
8.0
  1
50'
 50
88.0024
  7
ROMANS
 72
     4
 11
912129.540757
 21
7242648.428759
 31
0.0
210
0.0
220
0.0
230
1.0
  0
TEXT
  8
11
  6
CONTINUOUS
 62
     7
  5
34
 10
909781.844
 20
7248057.163
 30
0.0
 40
8.0
  1
20'
 50
88.0024
  7
ROMANS
 72
     4
 11
909778.171757
 21
7248066.629759
 31
0.0
210
0.0
220
0.0
230
1.0
  0
TEXT
  8
11
  6
CONTINUOUS
 62
     7
  5
35
 10
912292.171
 20
7247962.977
 30
0.0
 40
8.0
  1
20'
 50
88.0024
  7
ROMANS
 72
     4
 11
912288.498757
 21
7247972.443759
 31
0.0
210
0.0
220
0.0
230
1.0
  0
TEXT
  8
11
  6
CONTINUOUS
 62
     7
  5
36
 10
914838.941
 20
7247856.24
 30
0.0
 40
8.0
  1
60'
 50
88.0024
  7
ROMANS
 72
     4
 11
914835.268757
 21
7247865.706759
 31
0.0
210
0.0
220
0.0
230
1.0
  0
TEXT
  8
11
  6
CONTINUOUS
 62
     7
  5
37
 10
912276.895
 20
7247279.162
 30
0.0
 40
8.0
  1
60'
 50
88.0024
  7
ROMANS
 72
     4
 11
912273.222757
 21
7247288.628759
 31
0.0
210
0.0
220
0.0
230
1.0
  0
TEXT
  8
11
  6
CONTINUOUS
 62
     7
  5
38
 10
914857.961
 20
7247187.999
 30
0.0
 40
8.0
  1
60'
 50
88.0024
  7
ROMANS
 72
     4
 11
914854.288757
 21
7247197.465759
 31
0.0
210
0.0
220
0.0
230
1.0
  0
TEXT
  8
11
  6
CONTINUOUS
 62
     7
  5
39
 10
912231.77
 20
7245860.443
 30
0.0
 40
8.0
  1
60'
 50
88.0024
  7
ROMANS
 72
     4
 11
912228.097757
 21
7245869.909759
 31
0.0
210
0.0
220
0.0
230
1.0
  0
TEXT
  8
11
  6
CONTINUOUS
 62
     7
  5
3A
 10
914814.287
 20
7245768.675
 30
0.0
 40
8.0
  1
60'
 50
88.0024
  7
ROMANS
 72
     4
 11
914810.614757
 21
7245778.141759
 31
0.0
210
0.0
220
0.0
230
1.0
  0
TEXT
  8
11
  6
CONTINUOUS
 62
     7
  5
3B
 10
912181.279
 20
7244203.615
 30
0.0
 40
8.0
  1
60'
 50
88.0024
  7
ROMANS
 72
     4
 11
912177.606757
 21
7244213.081759
 31
0.0
210
0.0
220
0.0
230
1.0
  0
LINE
  8
21
  6
DASHDOT
 62
     7
  5
3D
 10
909623.767
 20
7245408.302
 30
0.0
 11
914810.895
 21
7245223.896
 31
0.0
  0
LINE
  8
21
  6
DASHDOT
 62
     7
  5
3E
 10
909625.509
 20
7245458.271
 30
0.0
 11
914812.638
 21
7245273.866
 31
0.0
  0
TEXT
  8
19
  6
CONTINUOUS
 62
     1
  5
41
 10
909810.488
 20
7248054.627
 30
0.0
 40
24.0
  1
98TH ST
 50
358.0024
  7
txt
 72
     4
 11
909890.321001
 21
7248063.849815
 31
0.0
210
0.0
220
0.0
230
1.0
  0
TEXT
  8
19
  6
CONTINUOUS
 62
     1
  5
42
 10
914533.479
 20
7247867.706
 30
0.0
 40
24.0
  1
98TH ST
 50
358.0024
  7
txt
 72
     4
 11
914613.312001
 21
7247876.928815
 31
0.0
210
0.0
220
0.0
230
1.0
  0
TEXT
  8
19
  6
CONTINUOUS
 62
     1
  5
43
 10
910468.111
 20
7242694.817
 30
0.0
 40
24.0
  1
114TH ST
 50
358.0024
  7
txt
 72
     4
 11
910552.572187
 21
7242703.87839
 31
0.0
210
0.0
220
0.0
230
1.0
  0
TEXT
  8
19
  6
CONTINUOUS
 62
     1
  5
44
 10
913771.14
 20
7242663.793
 30
0.0
 40
24.0
  1
114TH ST
 50
358.0024
  7
txt
 72
     4
 11
913855.601187
 21
7242672.85439
 31
0.0
210
0.0
220
0.0
230
1.0
  0
TEXT
  8
19
  6
CONTINUOUS
 62
     1
  5
45
 10
912414.339
 20
7247940.158
 30
0.0
 40
24.0
  1
98TH ST
 50
358.0024
  7
txt
 72
     4
 11
912494.172001
 21
7247949.380815
 31
0.0
210
0.0
220
0.0
230
1.0
  0
TEXT
  8
19
  6
CONTINUOUS
 62
     1
  5
46
 10
909527.708
 20
7243009.307
 30
0.0
 40
24.0
  1
UPLAND AVE
 50
88.0024
  7
txt
 72
     4
 11
909519.700426
 21
7243123.981814
 31
0.0
210
0.0
220
0.0
230
1.0
  0
TEXT
  8
19
  6
CONTINUOUS
 62
     1
  5
47
 10
909616.233
 20
7245582.536
 30
0.0
 40
24.0
  1
UPLAND AVE
 50
88.0024
  7
txt
 72
     4
 11
909608.225426
 21
7245697.210814
 31
0.0
210
0.0
220
0.0
230
1.0
  0
TEXT
  8
19
  6
CONTINUOUS
 62
     1
  5
48
 10
909688.851
 20
7247629.398
 30
0.0
 40
24.0
  1
UPLAND AVE
 50
88.0024
  7
txt
 72
     4
 11
909680.843426
 21
7247744.072814
 31
0.0
210
0.0
220
0.0
230
1.0
  0
TEXT
  8
19
  6
CONTINUOUS
 62
     1
  5
49
 10
914795.482
 20
7243760.346
 30
0.0
 40
24.0
  1
MILWAUKEE AVE
 50
88.0024
  7
txt
 72
     4
 11
914788.679734
 21
7243909.577801
 31
0.0
210
0.0
220
0.0
230
1.0
  0
TEXT
  8
19
  6
CONTINUOUS
 62
     1
  5
4A
 10
914900.512
 20
7246660.464
 30
0.0
 40
24.0
  1
MILWAUKEE AVE
 50
88.0024
  7
txt
 72
     4
 11
914893.709734
 21
7246809.695801
 31
0.0
210
0.0
220
0.0
230
1.0
  0
POLYLINE
  8
21
  6
DASHDOT
 62
     7
  5
4B
 66
     1
 10
0.0
 20
0.0
 30
0.0
 70
     1
  0
VERTEX
  8
21
  6
DASHDOT
 62
     7
  5
4C
 10
909704.701
 20
7248019.712
 30
0.0
  0
VERTEX
  8
21
  6
DASHDOT
 62
     7
  5
4D
 10
912296.125
 20
7247929.327
 30
0.0
  0
VERTEX
  8
21
  6
DASHDOT
 62
     7
  5
4E
 10
912296.474
 20
7247939.321
 30
0.0
  0
VERTEX
  8
21
  6
DASHDOT
 62
     7
  5
4F
 10
909695.056
 20
7248030.054
 30
0.0
  0
VERTEX
  8
21
  6
DASHDOT
 62
     7
  5
50
 10
909558.585
 20
7244040.387
 30
0.0
  0
VERTEX
  8
21
  6
DASHDOT
 62
     7
  5
51
 10
909568.578
 20
7244040.038
 30
0.0
  0
SEQEND
  8
21
  6
DASHDOT
 62
     7
  5
52
  0
TEXT
  8
22
  6
CONTINUOUS
 62
     3
  5
54
 10
911028.746
 20
7247967.883
 30
0.0
 40
6.0
  1
2593'
 50
358.0024
  7
ROMANS
 72
     1
 11
911041.947246
 21
7247973.426204
 31
0.0
210
0.0
220
0.0
230
1.0
 73
     3
  0
TEXT
  8
22
  6
CONTINUOUS
 62
     3
  5
55
 10
910542.256
 20
7247994.927
 30
0.0
 40
6.0
  1
10'WATER LINE EASEMENT
 50
358.0024
  7
ROMANS
 72
     4
 11
910607.321072
 21
7247995.659431
 31
0.0
210
0.0
220
0.0
230
1.0
  0
TEXT
  8
22
  6
CONTINUOUS
 62
     3
  5
56
 10
909630.296
 20
7246305.441
 30
0.0
 40
6.0
  1
3992'
 50
88.0024
  7
ROMANS
 72
     4
 11
909627.750972
 21
7246318.537673
 31
0.0
210
0.0
220
0.0
230
1.0
  0
TEXT
  8
22
  6
CONTINUOUS
 62
     3
  5
57
 10
909645.799
 20
7246305.668
 30
0.0
 40
6.0
  1
3982'
 50
88.0024
  7
ROMANS
 72
     4
 11
909643.253972
 21
7246318.764673
 31
0.0
210
0.0
220
0.0
230
1.0
  0
TEXT
  8
22
  6
CONTINUOUS
 62
     3
  5
58
 10
909685.446
 20
7247082.097
 30
0.0
 40
6.0
  1
10'WATER LINE EASEMENT
 50
88.0024
  7
ROMANS
 72
     4
 11
909684.713569
 21
7247147.162072
 31
0.0
210
0.0
220
0.0
230
1.0
  0
TEXT
  8
22
  6
CONTINUOUS
 62
     3
  5
59
 10
909578.075
 20
7244336.075
 30
0.0
 40
6.0
  1
10'WATER LINE EASEMENT
 50
88.0024
  7
ROMANS
 72
     4
 11
909577.342569
 21
7244401.140072
 31
0.0
210
0.0
220
0.0
230
1.0
  0
TEXT
  8
22
  6
CONTINUOUS
 62
     3
  5
5A
 10
911859.884
 20
7247948.981
 30
0.0
 40
6.0
  1
10'WATER LINE EASEMENT
 50
358.0024
  7
ROMANS
 72
     4
 11
911924.949072
 21
7247949.713431
 31
0.0
210
0.0
220
0.0
230
1.0
  0
TEXT
  8
19
  6
CONTINUOUS
 62
     1
  5
5B
 10
912531.049
 20
7247273.761
 30
0.0
 40
24.0
  1
COUNTY RD
 50
358.0024
  7
txt
 72
     4
 11
912638.078463
 21
7247282.035234
 31
0.0
210
0.0
220
0.0
230
1.0
  0
TEXT
  8
19
  6
CONTINUOUS
 62
     1
  5
5C
 10
912786.371
 20
7245845.541
 30
0.0
 40
24.0
  1
COUNTY RD
 50
358.0024
  7
txt
 72
     4
 11
912893.400463
 21
7245853.815234
 31
0.0
210
0.0
220
0.0
230
1.0
  0
TEXT
  8
19
  6
CONTINUOUS
 62
     1
  5
5D
 10
912668.133
 20
7244187.527
 30
0.0
 40
24.0
  1
COUNTY RD
 50
358.0024
  7
txt
 72
     4
 11
912775.162463
 21
7244195.801234
 31
0.0
210
0.0
220
0.0
230
1.0
  0
TEXT
  8
13
  6
CONTINUOUS
 62
    14
  5
5F
 10
910876.691
 20
7247982.263
 30
0.0
 40
8.0
  1
V6532 P143
 50
358.0024
  7
ROMANS
 72
     4
 11
910915.140135
 21
7247984.924371
 31
0.0
210
0.0
220
0.0
230
1.0
  0
TEXT
  8
13
  6
CONTINUOUS
 62
    14
  5
60
 10
909686.575
 20
7247445.509
 30
0.0
 40
8.0
  1
V6532 P143
 50
88.0024
  7
ROMANS
 72
     4
 11
909683.913629
 21
7247483.958135
 31
0.0
210
0.0
220
0.0
230
1.0
  0
TEXT
  8
13
  6
CONTINUOUS
 62
    14
  5
61
 10
909659.424
 20
7246459.917
 30
0.0
 40
8.0
  1
V6532 P143
 50
88.0024
  7
ROMANS
 72
     4
 11
909656.762629
 21
7246498.366135
 31
0.0
210
0.0
220
0.0
230
1.0
  0
TEXT
  8
13
  6
CONTINUOUS
 62
    14
  5
62
 10
909597.154
 20
7244609.792
 30
0.0
 40
8.0
  1
V6532 P143
 50
88.0024
  7
ROMANS
 72
     4
 11
909594.492629
 21
7244648.241135
 31
0.0
210
0.0
220
0.0
230
1.0
  0
LINE
  8
21
  6
DASHDOT
 62
     7
  5
63
 10
913364.527
 20
7247889.415
 30
0.0
 11
913404.502
 21
7247888.021
 31
0.0
  0
TEXT
  8
10
  6
CONTINUOUS
 62
   134
  5
65
 10
911699.775
 20
7245714.797
 30
0.0
 40
13.999
  1
UNSUBDIVIDED
 50
358.0024
  7
ROMANS
 11
911700.262972
 21
7245728.787493
 31
0.0
210
0.0
220
0.0
230
1.0
 73
     3
  0
LINE
  8
6
  6
CONTINUOUS
 62
     7
  5
66
 10
914891.598
 20
7247836.154
 30
0.0
 11
912291.048
 21
7247926.845
 31
0.0
  0
LINE
  8
6
  6
CONTINUOUS
 62
     7
  5
67
 10
912292.442
 20
7247966.821
 30
0.0
 11
909695.742
 21
7248057.471
 31
0.0
  0
TEXT
  8
11
  6
CONTINUOUS
 62
     7
  5
68
 10
912301.1
 20
7247942.363
 30
0.0
 40
8.0
  1
40'
 50
88.0024
  7
ROMANS
 72
     4
 11
912297.427757
 21
7247951.829759
 31
0.0
210
0.0
220
0.0
230
1.0
  0
TEXT
  8
22
  6
CONTINUOUS
 62
     3
  5
69
 10
909697.42
 20
7247370.918
 30
0.0
 40
6.0
  1
15' WATER LINE EASEMENT
 50
88.0024
  7
txt
 72
     4
 11
909696.584774
 21
7247433.035864
 31
0.0
210
0.0
220
0.0
230
1.0
  0
TEXT
  8
13
  6
CONTINUOUS
 62
    14
  5
6A
 10
909543.588
 20
7243249.793
 30
0.0
 40
8.0
  1
V7046 P112
 50
88.0024
  7
txt
 72
     4
 11
909540.846351
 21
7243285.940535
 31
0.0
210
0.0
220
0.0
230
1.0
  0
POLYLINE
  8
21
  6
DASHDOT
 62
     7
  5
6B
 66
     1
 10
0.0
 20
0.0
 30
0.0
 70
     1
  0
VERTEX
  8
21
  6
DASHDOT
 62
     7
  5
6C
 10
912293.256
 20
7247986.803
 30
0.0
  0
VERTEX
  8
21
  6
DASHDOT
 62
     7
  5
6D
 10
914943.775
 20
7247894.37
 30
0.0
  0
VERTEX
  8
21
  6
DASHDOT
 62
     7
  5
6E
 10
914767.4
 20
7242538.471
 30
0.0
  0
VERTEX
  8
21
  6
DASHDOT
 62
     7
  5
6F
 10
912120.661
 20
7242621.154
 30
0.0
  0
VERTEX
  8
21
  6
DASHDOT
 62
     7
  5
70
 10
912122.405
 20
7242671.123
 30
0.0
  0
VERTEX
  8
21
  6
DASHDOT
 62
     7
  5
71
 10
914719.134
 20
7242591.991
 30
0.0
  0
VERTEX
  8
21
  6
DASHDOT
 62
     7
  5
72
 10
914768.535
 20
7244095.688
 30
0.0
  0
VERTEX
  8
21
  6
DASHDOT
 62
     7
  5
73
 10
912161.517
 20
7244179.736
 30
0.0
  0
VERTEX
  8
21
  6
DASHDOT
 62
     7
  5
74
 10
912163.607
 20
7244239.698
 30
0.0
  0
VERTEX
  8
21
  6
DASHDOT
 62
     7
  5
75
 10
914770.627
 20
7244155.651
 30
0.0
  0
VERTEX
  8
21
  6
DASHDOT
 62
     7
  5
76
 10
914823.059
 20
7245751.308
 30
0.0
  0
VERTEX
  8
21
  6
DASHDOT
 62
     7
  5
77
 10
912216.038
 20
7245835.356
 30
0.0
  0
VERTEX
  8
21
  6
DASHDOT
 62
     7
  5
78
 10
912218.13
 20
7245895.319
 30
0.0
  0
VERTEX
  8
21
  6
DASHDOT
 62
     7
  5
79
 10
914825.149
 20
7245811.271
 30
0.0
  0
VERTEX
  8
21
  6
DASHDOT
 62
     7
  5
7A
 10
914869.783
 20
7247170.224
 30
0.0
  0
VERTEX
  8
21
  6
DASHDOT
 62
     7
  5
7B
 10
912262.882
 20
7247254.268
 30
0.0
  0
VERTEX
  8
21
  6
DASHDOT
 62
     7
  5
7C
 10
912264.972
 20
7247314.231
 30
0.0
  0
VERTEX
  8
21
  6
DASHDOT
 62
     7
  5
7D
 10
914871.875
 20
7247230.188
 30
0.0
  0
VERTEX
  8
21
  6
DASHDOT
 62
     7
  5
7E
 10
914891.719
 20
7247836.266
 30
0.0
  0
VERTEX
  8
21
  6
DASHDOT
 62
     7
  5
7F
 10
912291.165
 20
7247926.841
 30
0.0
  0
VERTEX
  8
21
  6
DASHDOT
 62
     7
  5
80
 10
912293.256
 20
7247986.803
 30
0.0
  0
SEQEND
  8
21
  6
DASHDOT
 62
     7
  5
81
  0
TEXT
  8
22
  6
CONTINUOUS
 62
     3
  5
82
 10
913443.128
 20
7247334.086
 30
0.0
 40
8.0
  1
40'DRAINAGE EASEMENT
 50
88.0024
  7
ROMANS
 72
     4
 11
913441.872542
 21
7247412.843624
 31
0.0
210
0.0
220
0.0
230
1.0
  0
TEXT
  8
22
  6
CONTINUOUS
 62
     3
  5
83
 10
913586.007
 20
7247946.892
 30
0.0
 40
6.0
  1
2648'
 50
357.869069
  7
txt
 72
     1
 11
913599.225852
 21
7247946.400141
 31
0.0
210
0.0
220
0.0
230
1.0
  0
TEXT
  8
22
  6
CONTINUOUS
 62
     3
  5
84
 10
913450.416
 20
7247593.793
 30
0.0
 40
6.0
  1
606.28'
 50
88.0024
  7
txt
 72
     4
 11
913448.025461
 21
7247611.318979
 31
0.0
210
0.0
220
0.0
230
1.0
  0
TEXT
  8
22
  6
CONTINUOUS
 62
     3
  5
85
 10
913400.671
 20
7247597.128
 30
0.0
 40
6.0
  1
606.37
 50
88.0024
  7
txt
 72
     4
 11
913398.203844
 21
7247612.457315
 31
0.0
210
0.0
220
0.0
230
1.0
  0
TEXT
  8
13
  6
CONTINUOUS
 62
    14
  5
86
 10
913429.958
 20
7247638.372
 30
0.0
 40
8.0
  1
V1237 P588
 50
88.0024
  7
txt
 72
     4
 11
913427.274564
 21
7247676.18852
 31
0.0
210
0.0
220
0.0
230
1.0
  0
TEXT
  8
13
  6
CONTINUOUS
 62
    14
  5
87
 10
913592.376
 20
7247910.871
 30
0.0
 40
8.0
  1
V1237 P531
 50
358.0024
  7
txt
 72
     4
 11
913628.775382
 21
7247913.603864
 31
0.0
210
0.0
220
0.0
230
1.0
  0
SOLID
  8
21
  6
DASHDOT
 62
     7
  5
88
 10
913452.597
 20
7247889.812
 30
0.0
 11
913431.465
 21
7247283.901
 31
0.0
 12
913412.624
 22
7247891.298
 32
0.0
 13
913391.488
 23
7247285.296
 33
0.0
  0
TEXT
  8
22
  6
CONTINUOUS
 62
     3
  5
89
 10
913400.671
 20
7247597.128
 30
0.0
 40
6.0
  1
606.37
 50
88.0024
  7
txt
 72
     4
 11
913398.203844
 21
7247612.457315
 31
0.0
210
0.0
220
0.0
230
1.0
  0
TEXT
  8
22
  6
CONTINUOUS
 62
     3
  5
8A
 10
914892.243
 20
7247536.866
 30
0.0
 40
6.0
  1
602.93'
 50
88.0024
  7
txt
 72
     4
 11
914889.852461
 21
7247554.391979
 31
0.0
210
0.0
220
0.0
230
1.0
  0
TEXT
  8
22
  6
CONTINUOUS
 62
     3
  5
8B
 10
914853.063
 20
7246488.968
 30
0.0
 40
6.0
  1
1359.68'
 50
88.0024
  7
txt
 72
     4
 11
914850.740782
 21
7246508.452788
 31
0.0
210
0.0
220
0.0
230
1.0
  0
TEXT
  8
22
  6
CONTINUOUS
 62
     3
  5
8C
 10
914879.235
 20
7245532.645
 30
0.0
 40
6.0
  1
5358'
 50
88.0024
  7
txt
 72
     4
 11
914876.69792
 21
7245545.969534
 31
0.0
210
0.0
220
0.0
230
1.0
  0
TEXT
  8
22
  6
CONTINUOUS
 62
     3
  5
8D
 10
914799.531
 20
7244945.217
 30
0.0
 40
6.0
  1
1596.51'
 50
88.0024
  7
txt
 72
     4
 11
914797.171764
 21
7244963.640434
 31
0.0
210
0.0
220
0.0
230
1.0
  0
TEXT
  8
22
  6
CONTINUOUS
 62
     3
  5
8E
 10
914743.994
 20
7243286.456
 30
0.0
 40
6.0
  1
1509.13'
 50
88.0024
  7
txt
 72
     4
 11
914741.638877
 21
7243304.997362
 31
0.0
210
0.0
220
0.0
230
1.0
  0
TEXT
  8
22
  6
CONTINUOUS
 62
     3
  5
8F
 10
913282.172
 20
7242635.712
 30
0.0
 40
6.0
  1
2598'
 50
358.152411
  7
txt
 72
     1
 11
913295.251197
 21
7242635.290095
 31
0.0
210
0.0
220
0.0
230
1.0
  0
TEXT
  8
22
  6
CONTINUOUS
 62
     3
  5
90
 10
913279.319
 20
7242575.773
 30
0.0
 40
6.0
  1
2648'
 50
358.152392
  7
txt
 72
     1
 11
913292.733571
 21
7242581.343393
 31
0.0
210
0.0
220
0.0
230
1.0
 73
     3
  0
TEXT
  8
22
  6
CONTINUOUS
 62
     3
  5
91
 10
914660.353
 20
7242611.999
 30
0.0
 40
6.0
  1
15' x 15' UWE
 50
358.0024
  7
txt
 72
     4
 11
914689.045189
 21
7242614.000074
 31
0.0
210
0.0
220
0.0
230
1.0
  0
TEXT
  8
13
  6
CONTINUOUS
 62
    14
  5
92
 10
914622.988
 20
7242598.859
 30
0.0
 40
8.0
  1
V7053 P332
 50
358.0024
  7
txt
 72
     4
 11
914662.157697
 21
7242601.495239
 31
0.0
210
0.0
220
0.0
230
1.0
  0
POLYLINE
  8
21
  6
DASHDOT
 62
     7
  5
93
 66
     1
 10
0.0
 20
0.0
 30
0.0
 70
     1
  0
VERTEX
  8
21
  6
DASHDOT
 62
     7
  5
94
 10
914719.538
 20
7242606.986
 30
0.0
  0
VERTEX
  8
21
  6
DASHDOT
 62
     7
  5
95
 10
914704.549
 20
7242607.51
 30
0.0
  0
VERTEX
  8
21
  6
DASHDOT
 62
     7
  5
96
 10
914704.026
 20
7242592.518
 30
0.0
  0
VERTEX
  8
21
  6
DASHDOT
 62
     7
  5
97
 10
914719.017
 20
7242591.995
 30
0.0
  0
VERTEX
  8
21
  6
DASHDOT
 62
     7
  5
98
 10
914719.538
 20
7242606.986
 30
0.0
  0
SEQEND
  8
21
  6
DASHDOT
 62
     7
  5
99
  0
TEXT
  8
22
  6
CONTINUOUS
 62
     3
  5
9A
 10
912120.531
 20
7242638.962
 30
0.0
 40
6.0
  1
50'
 50
88.0024
  7
txt
 72
     4
 11
912117.783938
 21
7242646.266195
 31
0.0
210
0.0
220
0.0
230
1.0
  0
LINE
  8
6
  6
CONTINUOUS
 62
     7
  5
9B
 10
912264.855
 20
7247314.235
 30
0.0
 11
912262.764
 21
7247254.272
 31
0.0
  0
LINE
  8
6
  6
CONTINUOUS
 62
     7
  5
9C
 10
912161.399
 20
7244179.74
 30
0.0
 11
912163.49
 21
7244239.702
 31
0.0
  0
LINE
  8
6
  6
CONTINUOUS
 62
     7
  5
9D
 10
912215.921
 20
7245835.36
 30
0.0
 11
912218.012
 21
7245895.323
 31
0.0
  0
TEXT
  8
22
  6
CONTINUOUS
 62
     3
  5
9E
 10
913879.379
 20
7245274.264
 30
0.0
 40
8.0
  1
50' EASEMENT
 50
358.0024
  7
ROMANS
 72
     4
 11
913926.156071
 21
7245276.634903
 31
0.0
210
0.0
220
0.0
230
1.0
  0
TEXT
  8
22
  6
CONTINUOUS
 62
     3
  5
9F
 10
910910.741
 20
7245392.791
 30
0.0
 40
8.0
  1
50' EASEMENT
 50
358.0024
  7
ROMANS
 72
     4
 11
910957.518071
 21
7245395.161903
 31
0.0
210
0.0
220
0.0
230
1.0
  0
TEXT
  8
22
  6
CONTINUOUS
 62
     3
  5
A0
 10
911028.038
 20
7247987.92
 30
0.0
 40
6.0
  1
2603'
 50
358.0024
  7
ROMANS
 72
     1
 11
911041.0301
 21
7247987.466851
 31
0.0
210
0.0
220
0.0
230
1.0
  0
POLYLINE
  8
1
  6
HIDDEN
 62
   253
  5
A2
 66
     1
 10
0.0
 20
0.0
 30
0.0
 70
     1
  0
VERTEX
  8
1
  6
HIDDEN
 62
   253
  5
A3
 10
909635.38
 20
7248105.283
 30
0.0
  0
VERTEX
  8
1
  6
HIDDEN
 62
   253
  5
A4
 10
914943.627
 20
7247893.552
 30
0.0
  0
VERTEX
  8
1
  6
HIDDEN
 62
   253
  5
A5
 10
914723.074
 20
7242591.297
 30
0.0
  0
VERTEX
  8
1
  6
HIDDEN
 62
   253
  5
A6
 10
909412.136
 20
7242813.605
 30
0.0
  0
SEQEND
  8
1
  6
HIDDEN
 62
   253
  5
A7
  0
LINE
  8
6
  6
CONTINUOUS
 62
     7
  5
A8
 10
909517.352
 20
7242745.043
 30
0.0
 11
914719.017
 21
7242591.995
 31
0.0
  0
LINE
  8
6
  6
CONTINUOUS
 62
     7
  5
A9
 10
914719.017
 20
7242591.995
 30
0.0
 11
914768.418
 21
7244095.692
 31
0.0
  0
LINE
  8
6
  6
CONTINUOUS
 62
     7
  5
AA
 10
914768.418
 20
7244095.692
 30
0.0
 11
912161.399
 21
7244179.74
 31
0.0
  0
LINE
  8
6
  6
CONTINUOUS
 62
     7
  5
AB
 10
912163.49
 20
7244239.702
 30
0.0
 11
914770.51
 21
7244155.655
 31
0.0
  0
LINE
  8
6
  6
CONTINUOUS
 62
     7
  5
AC
 10
914770.51
 20
7244155.655
 30
0.0
 11
914822.941
 21
7245751.312
 31
0.0
  0
LINE
  8
6
  6
CONTINUOUS
 62
     7
  5
AD
 10
914822.941
 20
7245751.312
 30
0.0
 11
912215.921
 21
7245835.36
 31
0.0
  0
LINE
  8
6
  6
CONTINUOUS
 62
     7
  5
AE
 10
912218.012
 20
7245895.323
 30
0.0
 11
914825.032
 21
7245811.275
 31
0.0
  0
LINE
  8
6
  6
CONTINUOUS
 62
     7
  5
AF
 10
914825.032
 20
7245811.275
 30
0.0
 11
914869.666
 21
7247170.228
 31
0.0
  0
LINE
  8
6
  6
CONTINUOUS
 62
     7
  5
B0
 10
912262.764
 20
7247254.272
 30
0.0
 11
914869.783
 21
7247170.224
 31
0.0
  0
LINE
  8
6
  6
CONTINUOUS
 62
     7
  5
B1
 10
914871.875
 20
7247230.188
 30
0.0
 11
912264.855
 21
7247314.235
 31
0.0
  0
LINE
  8
6
  6
CONTINUOUS
 62
     7
  5
B2
 10
914891.598
 20
7247836.154
 30
0.0
 11
914871.758
 21
7247230.192
 31
0.0
  0
LINE
  8
6
  6
CONTINUOUS
 62
     7
  5
B3
 10
912292.442
 20
7247966.821
 30
0.0
 11
912291.048
 21
7247926.845
 31
0.0
  0
TEXT
  8
22
  6
CONTINUOUS
 62
     3
  5
B4
 10
913559.053
 20
7247281.463
 30
0.0
 40
6.0
  1
2598'
 50
358.0024
  7
txt
 72
     1
 11
913572.131047
 21
7247281.006853
 31
0.0
210
0.0
220
0.0
230
1.0
  0
POLYLINE
  8
21
  6
DASHDOT
 62
     7
  5
B5
 66
     1
 10
0.0
 20
0.0
 30
0.0
 70
     1
  0
VERTEX
  8
21
  6
DASHDOT
 62
     7
  5
B6
 10
909517.352
 20
7242745.043
 30
0.0
  0
VERTEX
  8
21
  6
DASHDOT
 62
     7
  5
B7
 10
909558.585
 20
7244040.387
 30
0.0
  0
VERTEX
  8
21
  6
DASHDOT
 62
     7
  5
B8
 10
909573.577
 20
7244039.91
 30
0.0
  0
VERTEX
  8
21
  6
DASHDOT
 62
     7
  5
B9
 10
909532.344
 20
7242744.566
 30
0.0
  0
VERTEX
  8
21
  6
DASHDOT
 62
     7
  5
BA
 10
909517.352
 20
7242745.043
 30
0.0
  0
SEQEND
  8
21
  6
DASHDOT
 62
     7
  5
BB
  0
TEXT
  8
22
  6
CONTINUOUS
 62
     3
  5
BC
 10
909545.71
 20
7243329.422
 30
0.0
 40
6.0
  1
15'UWE
 50
88.176778
  7
txt
 72
     4
 11
909543.185002
 21
7243344.391914
 31
0.0
210
0.0
220
0.0
230
1.0
  0
POLYLINE
  8
-1
  6
HIDDEN
 62
   253
  5
BE
 66
     1
 10
0.0
 20
0.0
 30
0.0
 70
     1
  0
VERTEX
  8
-1
  6
HIDDEN
 62
   253
  5
BF
 10
904196.723
 20
7242975.161
 30
0.0
  0
VERTEX
  8
-1
  6
HIDDEN
 62
   253
  5
C0
 10
909469.118
 20
7242807.331
 30
0.0
  0
VERTEX
  8
-1
  6
HIDDEN
 62
   253
  5
C1
 10
909639.366
 20
7248100.979
 30
0.0
  0
VERTEX
  8
-1
  6
HIDDEN
 62
   253
  5
C2
 10
904367.901
 20
7248258.395
 30
0.0
  0
SEQEND
  8
-1
  6
HIDDEN
 62
   253
  5
C3
  0
LINE
  8
-6
  6
CONTINUOUS
 62
     7
  5
C5
 10
904391.185
 20
7248231.406
 30
0.0
 11
909607.535
 21
7248060.753
 31
0.0
  0
LINE
  8
-6
  6
CONTINUOUS
 62
     7
  5
C6
 10
909607.535
 20
7248060.753
 30
0.0
 11
909439.765
 21
7242821.703
 31
0.0
  0
LINE
  8
-6
  6
CONTINUOUS
 62
     7
  5
C7
 10
909439.765
 20
7242821.703
 30
0.0
 11
904223.274
 21
7242992.715
 31
0.0
  0
LINE
  8
-6
  6
CONTINUOUS
 62
     7
  5
C8
 10
904223.274
 20
7242992.715
 30
0.0
 11
904391.185
 21
7248231.406
 31
0.0
  0
LINE
  8
A-6
  6
CONTINUOUS
 62
     7
  5
CA
 10
914992.825
 20
7247867.7
 30
0.0
 11
914818.908
 21
7242587.016
 31
0.0
  0
TEXT
  8
A-11
  6
CONTINUOUS
 62
     7
  5
CC
 10
914993.566
 20
7247496.791
 30
0.0
 40
8.0
  1
660'
 50
88.162
  7
txt
 72
     4
 11
914989.992296
 21
7247510.139489
 31
0.0
210
0.0
220
0.0
230
1.0
  0
TEXT
  8
A-11
  6
CONTINUOUS
 62
     7
  5
CD
 10
920209.697
 20
7247608.053
 30
0.0
 40
8.0
  1
660'
 50
88.162
  7
txt
 72
     4
 11
920206.123296
 21
7247621.401489
 31
0.0
210
0.0
220
0.0
230
1.0
  0
TEXT
  8
A-11
  6
CONTINUOUS
 62
     7
  5
CE
 10
914856.753
 20
7242551.566
 30
0.0
 40
8.0
  1
50'
 50
88.162
  7
txt
 72
     4
 11
914853.063157
 21
7242561.295352
 31
0.0
210
0.0
220
0.0
230
1.0
  0
TEXT
  8
A-11
  6
CONTINUOUS
 62
     7
  5
CF
 10
919975.914
 20
7242410.611
 30
0.0
 40
8.0
  1
50'
 50
88.162
  7
txt
 72
     4
 11
919972.224157
 21
7242420.340352
 31
0.0
210
0.0
220
0.0
230
1.0
  0
TEXT
  8
A-11
  6
CONTINUOUS
 62
     7
  5
D0
 10
917572.563
 20
7242458.755
 30
0.0
 40
8.0
  1
50'
 50
88.162
  7
txt
 72
     4
 11
917568.873157
 21
7242468.484352
 31
0.0
210
0.0
220
0.0
230
1.0
  0
TEXT
  8
A-11
  6
CONTINUOUS
 62
     7
  5
D1
 10
914916.743
 20
7245102.839
 30
0.0
 40
8.0
  1
4570'
 50
88.162
  7
txt
 72
     4
 11
914913.316803
 21
7245120.784123
 31
0.0
210
0.0
220
0.0
230
1.0
  0
TEXT
  8
A-11
  6
CONTINUOUS
 62
     7
  5
D2
 10
920124.493
 20
7244939.792
 30
0.0
 40
8.0
  1
4570'
 50
88.162
  7
ROMANS
 72
     4
 11
920121.050991
 21
7244957.244377
 31
0.0
210
0.0
220
0.0
230
1.0
  0
TEXT
  8
A-11
  6
CONTINUOUS
 62
     7
  5
D3
 10
914954.905
 20
7247823.44
 30
0.0
 40
8.0
  1
50'
 50
358.162
  7
txt
 72
     4
 11
914964.634352
 21
7247827.129843
 31
0.0
210
0.0
220
0.0
230
1.0
  0
TEXT
  8
A-11
  6
CONTINUOUS
 62
     7
  5
D4
 10
914879.545
 20
7245488.958
 30
0.0
 40
8.0
  1
50'
 50
358.162
  7
txt
 72
     4
 11
914889.274352
 21
7245492.647843
 31
0.0
210
0.0
220
0.0
230
1.0
  0
TEXT
  8
A-11
  6
CONTINUOUS
 62
     7
  5
D5
 10
914790.176
 20
7242625.609
 30
0.0
 40
8.0
  1
50'
 50
358.162
  7
txt
 72
     4
 11
914799.905352
 21
7242629.298843
 31
0.0
210
0.0
220
0.0
230
1.0
  0
TEXT
  8
A-11
  6
CONTINUOUS
 62
     7
  5
D6
 10
917735.404
 20
7242475.623
 30
0.0
 40
8.0
  1
5230'
 50
358.162
  7
txt
 72
     4
 11
917753.129236
 21
7242479.056253
 31
0.0
210
0.0
220
0.0
230
1.0
  0
TEXT
  8
A-11
  6
CONTINUOUS
 62
     7
  5
D7
 10
917679.155
 20
7247766.323
 30
0.0
 40
8.0
  1
5230'
 50
358.162
  7
txt
 72
     4
 11
917696.880236
 21
7247769.756253
 31
0.0
210
0.0
220
0.0
230
1.0
  0
POLYLINE
  8
A-1
  6
HIDDEN
 62
   253
  5
D9
 66
     1
 10
0.0
 20
0.0
 30
0.0
 70
     1
  0
VERTEX
  8
A-1
  6
HIDDEN
 62
   253
  5
DA
 10
914729.541
 20
7242591.799
 30
0.0
  0
VERTEX
  8
A-1
  6
HIDDEN
 62
   253
  5
DB
 10
920018.032
 20
7242393.1
 30
0.0
  0
VERTEX
  8
A-1
  6
HIDDEN
 62
   253
  5
DC
 10
920215.026
 20
7247706.701
 30
0.0
  0
VERTEX
  8
A-1
  6
HIDDEN
 62
   253
  5
DD
 10
914943.627
 20
7247893.552
 30
0.0
  0
SEQEND
  8
A-1
  6
HIDDEN
 62
   253
  5
DE
  0
TEXT
  8
A-19
  6
CONTINUOUS
 62
     1
  5
E1
 10
914882.799
 20
7245122.823
 30
0.0
 40
24.0
  1
MILWAUKEE AVE
 50
88.162
  7
ROMANC
 11
914858.811348
 21
7245123.592768
 31
0.0
210
0.0
220
0.0
230
1.0
 73
     3
  0
TEXT
  8
A-19
  6
CONTINUOUS
 62
     1
  5
E2
 10
920083.614
 20
7244004.422
 30
0.0
 40
24.0
  1
FRANKFORD AVE
 50
88.162
  7
ROMANC
 11
920059.626348
 21
7244005.191768
 31
0.0
210
0.0
220
0.0
230
1.0
 73
     3
  0
TEXT
  8
A-19
  6
CONTINUOUS
 62
     1
  5
E3
 10
914946.429
 20
7247362.231
 30
0.0
 40
24.0
  1
MILWAUKEE AVE
 50
88.162
  7
ROMANC
 11
914922.441348
 21
7247363.000768
 31
0.0
210
0.0
220
0.0
230
1.0
 73
     3
  0
TEXT
  8
A-19
  6
CONTINUOUS
 62
     1
  5
E4
 10
914815.741
 20
7242931.338
 30
0.0
 40
24.0
  1
MILWAUKEE AVE
 50
88.162
  7
ROMANC
 11
914791.753348
 21
7242932.107768
 31
0.0
210
0.0
220
0.0
230
1.0
 73
     3
  0
TEXT
  8
A-19
  6
CONTINUOUS
 62
     1
  5
E5
 10
920148.933
 20
7245358.453
 30
0.0
 40
24.0
  1
FRANKFORD AVE
 50
88.162
  7
ROMANC
 11
920124.945348
 21
7245359.222768
 31
0.0
210
0.0
220
0.0
230
1.0
 73
     3
  0
TEXT
  8
A-19
  6
CONTINUOUS
 62
     1
  5
E6
 10
915214.152
 20
7247837.81
 30
0.0
 40
24.0
  1
98TH ST
 50
358.162
  7
ROMANC
 11
915214.921768
 21
7247861.797652
 31
0.0
210
0.0
220
0.0
230
1.0
 73
     3
  0
TEXT
  8
A-19
  6
CONTINUOUS
 62
     1
  5
E7
 10
919933.317
 20
7247688.879
 30
0.0
 40
24.0
  1
98TH ST
 50
358.162
  7
ROMANC
 11
919934.086768
 21
7247712.866652
 31
0.0
210
0.0
220
0.0
230
1.0
 73
     3
  0
TEXT
  8
A-19
  6
CONTINUOUS
 62
     1
  5
E8
 10
916149.616
 20
7242502.161
 30
0.0
 40
24.0
  1
114TH ST
 50
358.162
  7
ROMANC
 11
916150.385768
 21
7242526.148652
 31
0.0
210
0.0
220
0.0
230
1.0
 73
     3
  0
TEXT
  8
A-19
  6
CONTINUOUS
 62
     1
  5
E9
 10
918714.843
 20
7242430.476
 30
0.0
 40
24.0
  1
114TH ST
 50
358.162
  7
ROMANC
 11
918715.612768
 21
7242454.463652
 31
0.0
210
0.0
220
0.0
230
1.0
 73
     3
  0
TEXT
  8
A-19
  6
CONTINUOUS
 62
     1
  5
EA
 10
917487.0
 20
7247760.159
 30
0.0
 40
24.0
  1
98TH ST
 50
358.162
  7
ROMANC
 11
917487.769768
 21
7247784.146652
 31
0.0
210
0.0
220
0.0
230
1.0
 73
     3
  0
TEXT
  8
A-13
  6
CONTINUOUS
 62
    14
  5
EC
 10
916292.713
 20
7247785.669
 30
0.0
 40
8.0
  1
V6278 P224
 50
358.2677
  7
ROMANS
 72
     4
 11
916331.1494
 21
7247788.508376
 31
0.0
210
0.0
220
0.0
230
1.0
  0
POLYLINE
  8
A-21
  6
DASHDOT
 62
     7
  5
EE
 66
     1
 10
0.0
 20
0.0
 30
0.0
 70
     1
  0
VERTEX
  8
A-21
  6
DASHDOT
 62
     7
  5
EF
 10
917576.966
 20
7247760.508
 30
0.0
  0
VERTEX
  8
A-21
  6
DASHDOT
 62
     7
  5
F0
 10
914938.466
 20
7247849.525
 30
0.0
  0
VERTEX
  8
A-21
  6
DASHDOT
 62
     7
  5
F1
 10
914938.169
 20
7247839.529
 30
0.0
  0
VERTEX
  8
A-21
  6
DASHDOT
 62
     7
  5
F2
 10
917576.668
 20
7247750.512
 30
0.0
  0
SEQEND
  8
A-21
  6
DASHDOT
 62
     7
  5
F3
  0
TEXT
  8
A-13
  6
CONTINUOUS
 62
    14
  5
F4
 10
918503.53
 20
7247720.735
 30
0.0
 40
8.0
  1
V6278 P221
 50
358.2677
  7
ROMANS
 72
     4
 11
918540.966857
 21
7247723.604605
 31
0.0
210
0.0
220
0.0
230
1.0
  0
TEXT
  8
A-13
  6
CONTINUOUS
 62
    14
  5
F5
 10
918495.943
 20
7247734.877
 30
0.0
 40
8.0
  1
V5737 P329
 50
358.2677
  7
ROMANS
 72
     4
 11
918534.3794
 21
7247737.716376
 31
0.0
210
0.0
220
0.0
230
1.0
  0
POLYLINE
  8
A-21
  6
DASHDOT
 62
     7
  5
F6
 66
     1
 10
0.0
 20
0.0
 30
0.0
 70
     1
  0
VERTEX
  8
A-21
  6
DASHDOT
 62
     7
  5
F7
 10
919366.543
 20
7247720.142
 30
0.0
  0
VERTEX
  8
A-21
  6
DASHDOT
 62
     7
  5
F8
 10
917577.562
 20
7247780.499
 30
0.0
  0
VERTEX
  8
A-21
  6
DASHDOT
 62
     7
  5
F9
 10
917576.966
 20
7247760.508
 30
0.0
  0
VERTEX
  8
A-21
  6
DASHDOT
 62
     7
  5
FA
 10
919365.947
 20
7247700.151
 30
0.0
  0
VERTEX
  8
A-21
  6
DASHDOT
 62
     7
  5
FB
 10
919366.543
 20
7247720.142
 30
0.0
  0
SEQEND
  8
A-21
  6
DASHDOT
 62
     7
  5
FC
  0
POLYLINE
  8
A-21
  6
DASHDOT
 62
     7
  5
FD
 66
     1
 10
0.0
 20
0.0
 30
0.0
 70
     1
  0
VERTEX
  8
A-21
  6
DASHDOT
 62
     7
  5
FE
 10
919365.947
 20
7247700.151
 30
0.0
  0
VERTEX
  8
A-21
  6
DASHDOT
 62
     7
  5
FF
 10
917576.966
 20
7247760.507
 30
0.0
  0
VERTEX
  8
A-21
  6
DASHDOT
 62
     7
  5
100
 10
917576.668
 20
7247750.512
 30
0.0
  0
VERTEX
  8
A-21
  6
DASHDOT
 62
     7
  5
101
 10
919365.651
 20
7247690.156
 30
0.0
  0
SEQEND
  8
A-21
  6
DASHDOT
 62
     7
  5
102
  0
POLYLINE
  8
A-21
  6
DASHDOT
 62
     7
  5
103
 66
     1
 10
0.0
 20
0.0
 30
0.0
 70
     1
  0
VERTEX
  8
A-21
  6
DASHDOT
 62
     7
  5
104
 10
920160.199
 20
7247663.351
 30
0.0
  0
VERTEX
  8
A-21
  6
DASHDOT
 62
     7
  5
105
 10
919365.653
 20
7247690.158
 30
0.0
  0
VERTEX
  8
A-21
  6
DASHDOT
 62
     7
  5
106
 10
919363.419
 20
7247615.19
 30
0.0
  0
VERTEX
  8
A-21
  6
DASHDOT
 62
     7
  5
107
 10
920157.968
 20
7247588.384
 30
0.0
  0
SEQEND
  8
A-21
  6
DASHDOT
 62
     7
  5
108
  0
POLYLINE
  8
A-21
  6
DASHDOT
 62
     7
  5
109
 66
     1
 10
0.0
 20
0.0
 30
0.0
 70
     1
  0
VERTEX
  8
A-21
  6
DASHDOT
 62
     7
  5
10A
 10
920160.496
 20
7247673.346
 30
0.0
  0
VERTEX
  8
A-21
  6
DASHDOT
 62
     7
  5
10B
 10
919365.948
 20
7247700.153
 30
0.0
  0
VERTEX
  8
A-21
  6
DASHDOT
 62
     7
  5
10C
 10
919365.652
 20
7247690.158
 30
0.0
  0
VERTEX
  8
A-21
  6
DASHDOT
 62
     7
  5
10D
 10
920160.199
 20
7247663.351
 30
0.0
  0
SEQEND
  8
A-21
  6
DASHDOT
 62
     7
  5
10E
  0
POLYLINE
  8
A-21
  6
DASHDOT
 62
     7
  5
10F
 66
     1
 10
0.0
 20
0.0
 30
0.0
 70
     1
  0
VERTEX
  8
A-21
  6
DASHDOT
 62
     7
  5
110
 10
920161.091
 20
7247693.337
 30
0.0
  0
VERTEX
  8
A-21
  6
DASHDOT
 62
     7
  5
111
 10
919366.543
 20
7247720.142
 30
0.0
  0
VERTEX
  8
A-21
  6
DASHDOT
 62
     7
  5
112
 10
919365.947
 20
7247700.151
 30
0.0
  0
VERTEX
  8
A-21
  6
DASHDOT
 62
     7
  5
113
 10
920160.496
 20
7247673.346
 30
0.0
  0
VERTEX
  8
A-21
  6
DASHDOT
 62
     7
  5
114
 10
920161.091
 20
7247693.337
 30
0.0
  0
SEQEND
  8
A-21
  6
DASHDOT
 62
     7
  5
115
  0
TEXT
  8
A-13
  6
CONTINUOUS
 62
    14
  5
116
 10
919796.336
 20
7247673.027
 30
0.0
 40
8.0
  1
V6258 P040
 50
358.2677
  7
ROMANS
 72
     4
 11
919835.090255
 21
7247675.856763
 31
0.0
210
0.0
220
0.0
230
1.0
  0
TEXT
  8
A-13
  6
CONTINUOUS
 62
    14
  5
117
 10
919759.756
 20
7247695.874
 30
0.0
 40
8.0
  1
V5737 P332 T1
 50
358.2677
  7
ROMANS
 72
     4
 11
919809.187373
 21
7247698.380849
 31
0.0
210
0.0
220
0.0
230
1.0
  0
TEXT
  8
A-13
  6
CONTINUOUS
 62
    14
  5
118
 10
919799.444
 20
7247643.952
 30
0.0
 40
8.0
  1
V5737 P332 T2
 50
358.2677
  7
ROMANS
 72
     4
 11
919849.874916
 21
7247646.428619
 31
0.0
210
0.0
220
0.0
230
1.0
  0
POLYLINE
  8
A-21
  6
DASHDOT
 62
     7
  5
119
 66
     1
 10
0.0
 20
0.0
 30
0.0
  0
VERTEX
  8
A-21
  6
DASHDOT
 62
     7
  5
11A
 10
920161.431
 20
7247708.367
 30
0.0
  0
VERTEX
  8
A-21
  6
DASHDOT
 62
     7
  5
11B
 10
920136.798
 20
7246940.762
 30
0.0
  0
VERTEX
  8
A-21
  6
DASHDOT
 62
     7
  5
11C
 10
920106.814
 20
7246941.724
 30
0.0
  0
VERTEX
  8
A-21
  6
DASHDOT
 62
     7
  5
11D
 10
920131.446
 20
7247709.329
 30
0.0
  0
VERTEX
  8
A-21
  6
DASHDOT
 62
     7
  5
11E
 10
920161.431
 20
7247708.367
 30
0.0
  0
SEQEND
  8
A-21
  6
DASHDOT
 62
     7
  5
11F
  0
TEXT
  8
A-13
  6
CONTINUOUS
 62
    14
  5
120
 10
920127.397
 20
7247011.591
 30
0.0
 40
8.0
  1
V6674 P170
 50
88.162
  7
txt
 72
     4
 11
920124.607176
 21
7247049.366915
 31
0.0
210
0.0
220
0.0
230
1.0
  0
LINE
  8
A-6
  6
CONTINUOUS
 62
     7
  5
121
 10
919998.095
 20
7242438.663
 30
0.0
 11
920161.091
 21
7247693.337
 31
0.0
  0
LINE
  8
A-6
  6
CONTINUOUS
 62
     7
  5
122
 10
914992.807
 20
7247867.701
 30
0.0
 11
920161.091
 21
7247693.337
 31
0.0
  0
LINE
  8
A-6
  6
CONTINUOUS
 62
     7
  5
123
 10
914818.908
 20
7242587.016
 30
0.0
 11
919998.095
 21
7242438.663
 31
0.0
  0
TEXT
  8
A-10
  6
CONTINUOUS
 62
   134
  5
125
 10
917348.351
 20
7245022.87
 30
0.0
 40
13.999
  1
UNSUBDIVIDED
 50
358.162
  7
ROMANS
 11
917348.799999
 21
7245036.861798
 31
0.0
210
0.0
220
0.0
230
1.0
 73
     3
  0
TEXT
  8
A-22
  6
CONTINUOUS
 62
     3
  5
127
 10
916083.504
 20
7247784.017
 30
0.0
 40
6.0
  1
10'WATERLINE EASEMENT
 50
358.2677
  7
ROMANS
 72
     4
 11
916145.566354
 21
7247785.141386
 31
0.0
210
0.0
220
0.0
230
1.0
  0
TEXT
  8
A-22
  6
CONTINUOUS
 62
     3
  5
128
 10
918225.474
 20
7247729.202
 30
0.0
 40
6.0
  1
10'WATER LINE EASEMENT
 50
358.2677
  7
ROMANS
 72
     4
 11
918290.534983
 21
7247730.235696
 31
0.0
210
0.0
220
0.0
230
1.0
  0
TEXT
  8
A-22
  6
CONTINUOUS
 62
     3
  5
129
 10
918213.152
 20
7247746.076
 30
0.0
 40
6.0
  1
20'SANITARY SEWER LINE EASEMENT
 50
358.2677
  7
ROMANS
 72
     4
 11
918305.200643
 21
7247746.293494
 31
0.0
210
0.0
220
0.0
230
1.0
  0
TEXT
  8
A-22
  6
CONTINUOUS
 62
     3
  5
12A
 10
919538.02
 20
7247701.689
 30
0.0
 40
6.0
  1
20'SANITARY SEWER LINE EASEMENT
 50
358.2677
  7
ROMANS
 72
     4
 11
919630.068643
 21
7247701.906494
 31
0.0
210
0.0
220
0.0
230
1.0
  0
TEXT
  8
A-22
  6
CONTINUOUS
 62
     3
  5
12B
 10
919547.055
 20
7247685.782
 30
0.0
 40
6.0
  1
10'WATER LINE EASEMENT
 50
358.2677
  7
ROMANS
 72
     4
 11
919612.115983
 21
7247686.815696
 31
0.0
210
0.0
220
0.0
230
1.0
  0
TEXT
  8
A-22
  6
CONTINUOUS
 62
     3
  5
12C
 10
919579.011
 20
7247633.01
 30
0.0
 40
6.0
  1
75'TEMPORARY WORKING EASEMENT
 50
358.2677
  7
ROMANS
 72
     4
 11
919665.062385
 21
7247633.408872
 31
0.0
210
0.0
220
0.0
230
1.0
  0
TEXT
  8
A-22
  6
CONTINUOUS
 62
     3
  5
12D
 10
920120.05
 20
7247104.708
 30
0.0
 40
6.0
  1
30' SSE
 50
88.162
  7
txt
 72
     4
 11
920117.57428
 21
7247121.093836
 31
0.0
210
0.0
220
0.0
230
1.0
  0
TEXT
  8
A-22
  6
CONTINUOUS
 62
     3
  5
12E
 10
920137.554
 20
7247035.74
 30
0.0
 40
6.0
  1
768'
 50
88.162
  7
txt
 72
     4
 11
920134.879808
 21
7247045.941019
 31
0.0
210
0.0
220
0.0
230
1.0
  0
TEXT
  8
A-22
  6
CONTINUOUS
 62
     3
  5
12F
 10
920108.007
 20
7247041.023
 30
0.0
 40
6.0
  1
768'
 50
88.162
  7
txt
 72
     4
 11
920105.332808
 21
7247051.224019
 31
0.0
210
0.0
220
0.0
230
1.0
  0
POLYLINE
  8
A-21
  6
DASHDOT
 62
     7
  5
130
 66
     1
 10
0.0
 20
0.0
 30
0.0
 70
     1
  0
VERTEX
  8
A-21
  6
DASHDOT
 62
     7
  5
131
 10
920136.798
 20
7246940.762
 30
0.0
  0
VERTEX
  8
A-21
  6
DASHDOT
 62
     7
  5
132
 10
920129.425
 20
7246693.872
 30
0.0
  0
VERTEX
  8
A-21
  6
DASHDOT
 62
     7
  5
133
 10
920099.438
 20
7246694.768
 30
0.0
  0
VERTEX
  8
A-21
  6
DASHDOT
 62
     7
  5
134
 10
920106.815
 20
7246941.658
 30
0.0
  0
SEQEND
  8
A-21
  6
DASHDOT
 62
     7
  5
135
  0
TEXT
  8
A-13
  6
CONTINUOUS
 62
    14
  5
136
 10
920118.889
 20
7246726.55
 30
0.0
 40
8.0
  1
V6917 P145
 50
88.162
  7
txt
 72
     4
 11
920116.04866
 21
7246762.751726
 31
0.0
210
0.0
220
0.0
230
1.0
  0
TEXT
  8
A-22
  6
CONTINUOUS
 62
     3
  5
137
 10
920122.237
 20
7246836.015
 30
0.0
 40
6.0
  1
30' SSE
 50
86.740039
  7
txt
 72
     4
 11
920120.168663
 21
7246852.457226
 31
0.0
210
0.0
220
0.0
230
1.0
  0
SOLID
  8
A-21
  6
DASHDOT
 62
     7
  5
138
 10
920216.062
 20
7247691.695
 30
0.0
 11
920196.362
 21
7247031.989
 31
0.0
 12
920161.091
 22
7247693.337
 32
0.0
 13
920141.387
 23
7247033.631
 33
0.0
  0
TEXT
  8
A-19
  6
CONTINUOUS
 62
     1
  5
139
 10
920187.55
 20
7247244.977
 30
0.0
 40
24.0
  1
FRANKFORD AVE
 50
88.162
  7
ROMANC
 11
920163.562348
 21
7247245.746768
 31
0.0
210
0.0
220
0.0
230
1.0
 73
     3
  0
TEXT
  8
A-13
  6
CONTINUOUS
 62
    14
  5
13A
 10
920172.267
 20
7247138.493
 30
0.0
 40
8.0
  1
V2741 P183
 50
86.740039
  7
txt
 72
     4
 11
920170.265047
 21
7247173.685793
 31
0.0
210
0.0
220
0.0
230
1.0
  0
ENDSEC
  0
EOF
