  0
SECTION
  2
HEADER
  9
$ACADVER
  1
AC1009
  9
$INSBASE
 10
0.0
 20
0.0
 30
0.0
  9
$EXTMIN
 10
938876.813
 20
7239353.129
 30
0.0
  9
$EXTMAX
 10
948876.813
 20
7249353.129
 30
0.0
  9
$LIMMIN
 10
0.0
 20
0.0
  9
$LIMMAX
 10
12.0
 20
9.0
  9
$ORTHOMODE
 70
     0
  9
$REGENMODE
 70
     1
  9
$FILLMODE
 70
     1
  9
$QTEXTMODE
 70
     0
  9
$MIRRTEXT
 70
     1
  9
$DRAGMODE
 70
     2
  9
$LTSCALE
 40
1.0
  9
$OSMODE
 70
     0
  9
$ATTMODE
 70
     1
  9
$TEXTSIZE
 40
0.2
  9
$TRACEWID
 40
0.05
  9
$TEXTSTYLE
  7
STANDARD
  9
$CLAYER
  8
0
  9
$CELTYPE
  6
CONTINUOUS
  9
$CECOLOR
 62
   256
  9
$DIMSCALE
 40
1.0
  9
$DIMASZ
 40
0.18
  9
$DIMEXO
 40
0.0625
  9
$DIMDLI
 40
0.38
  9
$DIMRND
 40
0.0
  9
$DIMDLE
 40
0.0
  9
$DIMEXE
 40
0.18
  9
$DIMTP
 40
0.0
  9
$DIMTM
 40
0.0
  9
$DIMTXT
 40
0.18
  9
$DIMCEN
 40
0.09
  9
$DIMTSZ
 40
0.0
  9
$DIMTOL
 70
     0
  9
$DIMLIM
 70
     0
  9
$DIMTIH
 70
     1
  9
$DIMTOH
 70
     1
  9
$DIMSE1
 70
     0
  9
$DIMSE2
 70
     0
  9
$DIMTAD
 70
     0
  9
$DIMZIN
 70
     0
  9
$DIMBLK
  1

  9
$DIMASO
 70
     1
  9
$DIMSHO
 70
     1
  9
$DIMPOST
  1

  9
$DIMAPOST
  1

  9
$DIMALT
 70
     0
  9
$DIMALTD
 70
     2
  9
$DIMALTF
 40
25.4
  9
$DIMLFAC
 40
1.0
  9
$DIMTOFL
 70
     0
  9
$DIMTVP
 40
0.0
  9
$DIMTIX
 70
     0
  9
$DIMSOXD
 70
     0
  9
$DIMSAH
 70
     0
  9
$DIMBLK1
  1

  9
$DIMBLK2
  1

  9
$DIMSTYLE
  2
STANDARD
  9
$DIMCLRD
 70
     0
  9
$DIMCLRE
 70
     0
  9
$DIMCLRT
 70
     0
  9
$DIMTFAC
 40
1.0
  9
$DIMGAP
 40
0.09
  9
$LUNITS
 70
     2
  9
$LUPREC
 70
     4
  9
$AXISMODE
 70
     0
  9
$AXISUNIT
 10
0.0
 20
0.0
  9
$SKETCHINC
 40
0.1
  9
$FILLETRAD
 40
0.0
  9
$AUNITS
 70
     0
  9
$AUPREC
 70
     0
  9
$MENU
  1
acad
  9
$ELEVATION
 40
0.0
  9
$PELEVATION
 40
0.0
  9
$THICKNESS
 40
0.0
  9
$LIMCHECK
 70
     0
  9
$BLIPMODE
 70
     1
  9
$CHAMFERA
 40
0.0
  9
$CHAMFERB
 40
0.0
  9
$SKPOLY
 70
     0
  9
$TDCREATE
 40
2453013.903622685
  9
$TDUPDATE
 40
2453013.903622685
  9
$TDINDWG
 40
0.0000000000
  9
$TDUSRTIMER
 40
0.0000000000
  9
$USRTIMER
 70
     1
  9
$ANGBASE
 50
0.0
  9
$ANGDIR
 70
     0
  9
$PDMODE
 70
     0
  9
$PDSIZE
 40
0.0
  9
$PLINEWID
 40
0.0
  9
$COORDS
 70
     0
  9
$SPLFRAME
 70
     0
  9
$SPLINETYPE
 70
     6
  9
$SPLINESEGS
 70
    10
  9
$ATTDIA
 70
     0
  9
$ATTREQ
 70
     1
  9
$HANDLING
 70
     1
  9
$HANDSEED
  5
3F1
  9
$SURFTAB1
 70
     6
  9
$SURFTAB2
 70
     6
  9
$SURFTYPE
 70
     6
  9
$SURFU
 70
     6
  9
$SURFV
 70
     6
  9
$UCSNAME
  2

  9
$UCSORG
 10
0.0
 20
0.0
 30
0.0
  9
$UCSXDIR
 10
1.0
 20
0.0
 30
0.0
  9
$UCSYDIR
 10
0.0
 20
1.0
 30
0.0
  9
$PUCSNAME
  2

  9
$PUCSORG
 10
0.0
 20
0.0
 30
0.0
  9
$PUCSXDIR
 10
1.0
 20
0.0
 30
0.0
  9
$PUCSYDIR
 10
0.0
 20
1.0
 30
0.0
  9
$USERI1
 70
     0
  9
$USERI2
 70
     0
  9
$USERI3
 70
     0
  9
$USERI4
 70
     0
  9
$USERI5
 70
     0
  9
$USERR1
 40
0.0
  9
$USERR2
 40
0.0
  9
$USERR3
 40
0.0
  9
$USERR4
 40
0.0
  9
$USERR5
 40
0.0
  9
$WORLDVIEW
 70
     1
  9
$SHADEDGE
 70
     3
  9
$SHADEDIF
 70
    70
  9
$TILEMODE
 70
     1
  9
$MAXACTVP
 70
    16
  9
$PINSBASE
 10
0.0
 20
0.0
 30
0.0
  9
$PLIMCHECK
 70
     0
  9
$PEXTMIN
 10
-1.000000E+20
 20
-1.000000E+20
 30
-1.000000E+20
  9
$PEXTMAX
 10
-1.000000E+20
 20
-1.000000E+20
 30
-1.000000E+20
  9
$PLIMMIN
 10
0.0
 20
0.0
  9
$PLIMMAX
 10
12.0
 20
9.0
  9
$UNITMODE
 70
     0
  9
$VISRETAIN
 70
     0
  9
$PLINEGEN
 70
     1
  9
$PSLTSCALE
 70
     0
  9
$TREEDEPTH
 70
  3020
  9
$DWGCODEPAGE
  3
ansi_1252
  0
ENDSEC
  0
SECTION
  2
TABLES
  0
TABLE
  2
VPORT
 70
     1
  0
VPORT
  2
*ACTIVE
 70
     0
 10
0.0
 20
0.0
 11
1.0
 21
1.0
 12
0.0
 22
0.0
 13
0.0
 23
0.0
 14
0.0
 24
0.0
 15
0.0
 25
0.0
 16
0.0
 26
0.0
 36
1.0
 17
943559.951885
 27
7244232.864907
 37
0.0
 40
5496.143
 41
1.227336
 42
50.0
 43
0.004
 44
0.0
 50
1.823216
 51
0.0
 71
     0
 72
   100
 73
     1
 74
     0
 75
     0
 76
     0
 77
     0
 78
     0
  0
ENDTAB
  0
TABLE
  2
LTYPE
 70
     7
  0
LTYPE
  2
CONTINUOUS
 70
     0
  3
Solid line
 72
    65
 73
     0
 40
0.0
  0
LTYPE
  2
DOT
 70
    64
  3
. . . . . . . . . . . . . . . . . . . . . . . . . . . . . . . . .
 72
    65
 73
     2
 40
0.25
 49
0.0
 49
-0.25
  0
LTYPE
  2
HIDDEN
 70
    64
  3
__ __ __ __ __ __ __ __ __ __ __ __ __ __ __ __ __ __ __ __ __ 
 72
    65
 73
     2
 40
0.375
 49
0.25
 49
-0.125
  0
LTYPE
  2
DASHED
 70
    64
  3
__ __ __ __ __ __ __ __ __ __ __ __ __ __ __ __ __ __ __ __ __
 72
    65
 73
     2
 40
0.75
 49
0.5
 49
-0.25
  0
LTYPE
  2
DASHDOT
 70
    64
  3
__ . __ . __ . __ . __ . __ . __ . __ . __ . __ . __ . __ . _
 72
    65
 73
     4
 40
1.0
 49
0.5
 49
-0.25
 49
0.0
 49
-0.25
  0
LTYPE
  2
DIVIDE
 70
    64
  3
____ . . ____ . . ____ . . ____ . . ____ . . ____ . . ____ . .
 72
    65
 73
     6
 40
1.25
 49
0.5
 49
-0.25
 49
0.0
 49
-0.25
 49
0.0
 49
-0.25
  0
LTYPE
  2
CENTER
 70
    64
  3
____ _ ____ _ ____ _ ____ _ ____ _ ____ _ ____ _ ____ _ ____ _
 72
    65
 73
     4
 40
2.0
 49
1.25
 49
-0.25
 49
0.25
 49
-0.25
  0
ENDTAB
  0
TABLE
  2
LAYER
 70
    15
  0
LAYER
  2
0
 70
     0
 62
     7
  6
CONTINUOUS
  0
LAYER
  2
CONSTRUCTION_CLASS
 70
    65
 62
     7
  6
CONTINUOUS
  0
LAYER
  2
PATTERN_CLASS
 70
     0
 62
     7
  6
CONTINUOUS
  0
LAYER
  2
10
 70
    64
 62
     7
  6
CONTINUOUS
  0
LAYER
  2
11
 70
    64
 62
     7
  6
CONTINUOUS
  0
LAYER
  2
1
 70
    64
 62
     7
  6
CONTINUOUS
  0
LAYER
  2
19
 70
    64
 62
     7
  6
CONTINUOUS
  0
LAYER
  2
22
 70
    64
 62
     7
  6
CONTINUOUS
  0
LAYER
  2
6
 70
    64
 62
     7
  6
CONTINUOUS
  0
LAYER
  2
7
 70
    64
 62
     7
  6
CONTINUOUS
  0
LAYER
  2
21
 70
    64
 62
     7
  6
CONTINUOUS
  0
LAYER
  2
15
 70
    64
 62
     7
  6
CONTINUOUS
  0
LAYER
  2
13
 70
    64
 62
     7
  6
CONTINUOUS
  0
LAYER
  2
8
 70
    64
 62
     7
  6
CONTINUOUS
  0
LAYER
  2
58
 70
    64
 62
     7
  6
CONTINUOUS
  0
ENDTAB
  0
TABLE
  2
STYLE
 70
     4
  0
STYLE
  2
STANDARD
 70
     0
 40
0.0
 41
1.0
 50
0.0
 71
     0
 42
0.0
  3
txt
  4

  0
STYLE
  2
ROMANS
 70
     0
 40
0.2
 41
1.0
 50
0.0
 71
     0
 42
0.2
  3
ROMANS
  4

  0
STYLE
  2
ROMANC
 70
     0
 40
0.2
 41
1.0
 50
0.0
 71
     0
 42
0.2
  3
ROMANC
  4

  0
STYLE
  2
txt
 70
     0
 40
0.2
 41
1.0
 50
0.0
 71
     0
 42
0.2
  3
TXT
  4

  0
ENDTAB
  0
TABLE
  2
VIEW
 70
     0
  0
ENDTAB
  0
TABLE
  2
UCS
 70
     0
  0
ENDTAB
  0
TABLE
  2
APPID
 70
     1
  0
APPID
  2
ACAD
 70
     0
  0
ENDTAB
  0
TABLE
  2
DIMSTYLE
 70
     1
  0
DIMSTYLE
  2
STANDARD
 70
     0
  3

  4

  5

  6

  7

 40
1.0
 41
0.18
 42
0.0625
 43
0.38
 44
0.18
 45
0.0
 46
0.0
 47
0.0
 48
0.0
140
0.18
141
0.09
142
0.0
143
25.4
144
1.0
145
0.0
146
1.0
147
0.09
 71
     0
 72
     0
 73
     1
 74
     1
 75
     0
 76
     0
 77
     0
 78
     0
170
     0
171
     2
172
     0
173
     0
174
     0
175
     0
176
     0
177
     0
178
     0
  0
ENDTAB
  0
ENDSEC
  0
SECTION
  2
BLOCKS
  0
ENDSEC
  0
SECTION
  2
ENTITIES
  0
TEXT
  8
10
  6
CONTINUOUS
 62
   134
  5
2A
 10
944025.294
 20
7245076.187
 30
0.0
 40
13.999
  1
UNSUBDIVIDED
 50
357.9839
  7
ROMANS
 11
944025.786489
 21
7245090.177334
 31
0.0
210
0.0
220
0.0
230
1.0
 73
     3
  0
TEXT
  8
10
  6
CONTINUOUS
 62
   134
  5
2B
 10
944029.283
 20
7241907.131
 30
0.0
 40
13.999
  1
UNSUBDIVIDED
 50
357.9839
  7
ROMANS
 11
944029.775489
 21
7241921.121334
 31
0.0
210
0.0
220
0.0
230
1.0
 73
     3
  0
TEXT
  8
11
  6
CONTINUOUS
 62
     7
  5
2D
 10
943811.53
 20
7241717.859
 30
0.0
 40
8.0
  1
5280'
 50
357.9839
  7
ROMANS
 72
     1
 11
943828.852271
 21
7241717.249219
 31
0.0
210
0.0
220
0.0
230
1.0
  0
TEXT
  8
11
  6
CONTINUOUS
 62
     7
  5
2E
 10
946424.549
 20
7241786.589
 30
0.0
 40
8.0
  1
409.82'
 50
87.9839
  7
ROMANS
 72
     4
 11
946421.442699
 21
7241812.04704
 31
0.0
210
0.0
220
0.0
230
1.0
  0
TEXT
  8
11
  6
CONTINUOUS
 62
     7
  5
2F
 10
946543.419
 20
7245242.881
 30
0.0
 40
8.0
  1
3710'
 50
87.9839
  7
ROMANS
 72
     4
 11
946540.031257
 21
7245260.343992
 31
0.0
210
0.0
220
0.0
230
1.0
  0
TEXT
  8
11
  6
CONTINUOUS
 62
     7
  5
30
 10
943984.92
 20
7246985.917
 30
0.0
 40
8.0
  1
5280'
 50
358.1914
  7
ROMANS
 72
     1
 11
944002.496852
 21
7246993.365972
 31
0.0
210
0.0
220
0.0
230
1.0
 73
     3
  0
TEXT
  8
11
  6
CONTINUOUS
 62
     7
  5
31
 10
941341.671
 20
7247045.987
 30
0.0
 40
8.0
  1
40'
 50
358.1914
  7
ROMANS
 72
     4
 11
941351.125594
 21
7247049.690451
 31
0.0
210
0.0
220
0.0
230
1.0
  0
TEXT
  8
11
  6
CONTINUOUS
 62
     7
  5
32
 10
941158.397
 20
7241819.68
 30
0.0
 40
8.0
  1
40'
 50
357.9839
  7
ROMANS
 72
     4
 11
941167.864944
 21
7241823.349186
 31
0.0
210
0.0
220
0.0
230
1.0
  0
POLYLINE
  8
1
  6
HIDDEN
 62
   253
  5
34
 66
     1
 10
0.0
 20
0.0
 30
0.0
 70
     1
  0
VERTEX
  8
1
  6
HIDDEN
 62
   253
  5
35
 10
941180.649
 20
7241797.895
 30
0.0
  0
VERTEX
  8
1
  6
HIDDEN
 62
   253
  5
36
 10
946444.149
 20
7241630.348
 30
0.0
  0
VERTEX
  8
1
  6
HIDDEN
 62
   253
  5
37
 10
946613.936
 20
7246996.845
 30
0.0
  0
VERTEX
  8
1
  6
HIDDEN
 62
   253
  5
38
 10
941346.686
 20
7247154.135
 30
0.0
  0
SEQEND
  8
1
  6
HIDDEN
 62
   253
  5
39
  0
TEXT
  8
19
  6
CONTINUOUS
 62
     1
  5
3C
 10
941505.544
 20
7247030.084
 30
0.0
 40
24.0
  1
98TH ST
 50
358.1914
  7
ROMANC
 72
     4
 11
941593.371144
 21
7247039.316706
 31
0.0
210
0.0
220
0.0
230
1.0
  0
TEXT
  8
19
  6
CONTINUOUS
 62
     1
  5
3D
 10
943672.725
 20
7246961.843
 30
0.0
 40
24.0
  1
98TH ST
 50
358.1914
  7
ROMANC
 72
     4
 11
943760.552144
 21
7246971.075706
 31
0.0
210
0.0
220
0.0
230
1.0
  0
TEXT
  8
19
  6
CONTINUOUS
 62
     1
  5
3E
 10
941283.6
 20
7241813.258
 30
0.0
 40
24.0
  1
114TH ST
 50
357.9839
  7
ROMANC
 72
     4
 11
941378.729502
 21
7241821.916673
 31
0.0
210
0.0
220
0.0
230
1.0
  0
TEXT
  8
19
  6
CONTINUOUS
 62
     1
  5
3F
 10
946088.516
 20
7241645.601
 30
0.0
 40
24.0
  1
114TH ST
 50
357.9839
  7
ROMANC
 72
     4
 11
946183.645502
 21
7241654.259673
 31
0.0
210
0.0
220
0.0
230
1.0
  0
TEXT
  8
19
  6
CONTINUOUS
 62
     1
  5
40
 10
943557.938
 20
7241733.247
 30
0.0
 40
24.0
  1
114TH ST
 50
357.9839
  7
ROMANC
 72
     4
 11
943653.067502
 21
7241741.905673
 31
0.0
210
0.0
220
0.0
230
1.0
  0
TEXT
  8
22
  6
CONTINUOUS
 62
     3
  5
42
 10
941593.877
 20
7246992.141
 30
0.0
 40
8.0
  1
60' UUE
 50
358.1914
  7
ROMANS
 72
     1
 11
941620.616285
 21
7246999.300654
 31
0.0
210
0.0
220
0.0
230
1.0
 73
     3
  0
TEXT
  8
22
  6
CONTINUOUS
 62
     3
  5
43
 10
942150.791
 20
7246954.697
 30
0.0
 40
8.0
  1
60' UUE
 50
358.1914
  7
ROMANS
 72
     1
 11
942177.530285
 21
7246961.856654
 31
0.0
210
0.0
220
0.0
230
1.0
 73
     3
  0
TEXT
  8
22
  6
CONTINUOUS
 62
     3
  5
44
 10
943093.476
 20
7246924.929
 30
0.0
 40
8.0
  1
60' UUE
 50
358.1914
  7
ROMANS
 72
     1
 11
943120.215285
 21
7246932.088654
 31
0.0
210
0.0
220
0.0
230
1.0
 73
     3
  0
LINE
  8
6
  6
CONTINUOUS
 62
     7
  5
46
 10
944510.595
 20
7243090.177
 30
0.0
 11
945646.849
 21
7243050.971
 31
0.0
  0
LINE
  8
6
  6
CONTINUOUS
 62
     7
  5
47
 10
944500.786
 20
7243240.604
 30
0.0
 11
945667.013
 21
7243200.365
 31
0.0
  0
LINE
  8
6
  6
CONTINUOUS
 62
     7
  5
48
 10
944500.786
 20
7243240.604
 30
0.0
 11
944496.131
 21
7243105.684
 31
0.0
  0
LINE
  8
7
  6
CONTINUOUS
 62
     7
  5
4A
 10
944717.577
 20
7243233.123
 30
0.0
 11
944712.405
 21
7243083.212
 31
0.0
  0
LINE
  8
7
  6
CONTINUOUS
 62
     7
  5
4B
 10
944612.64
 20
7243236.744
 30
0.0
 11
944607.468
 21
7243086.833
 31
0.0
  0
ARC
  8
6
  6
CONTINUOUS
 62
     7
  5
4C
 10
944511.121568
 20
7243105.156301
 30
0.0
 40
15.0
 50
177.9839
 51
267.987719
210
0.0
220
0.0
230
1.0
  0
LINE
  8
7
  6
CONTINUOUS
 62
     7
  5
4D
 10
944822.515
 20
7243229.502
 30
0.0
 11
944817.343
 21
7243079.592
 31
0.0
  0
LINE
  8
7
  6
CONTINUOUS
 62
     7
  5
4E
 10
944927.453
 20
7243225.882
 30
0.0
 11
944922.28
 21
7243075.972
 31
0.0
  0
LINE
  8
7
  6
CONTINUOUS
 62
     7
  5
4F
 10
945032.39
 20
7243222.261
 30
0.0
 11
945027.218
 21
7243072.352
 31
0.0
  0
LINE
  8
7
  6
CONTINUOUS
 62
     7
  5
50
 10
945137.328
 20
7243218.64
 30
0.0
 11
945132.156
 21
7243068.731
 31
0.0
  0
LINE
  8
7
  6
CONTINUOUS
 62
     7
  5
51
 10
945242.265
 20
7243215.02
 30
0.0
 11
945237.093
 21
7243065.11
 31
0.0
  0
LINE
  8
7
  6
CONTINUOUS
 62
     7
  5
52
 10
945347.203
 20
7243211.399
 30
0.0
 11
945342.031
 21
7243061.489
 31
0.0
  0
LINE
  8
7
  6
CONTINUOUS
 62
     7
  5
53
 10
945452.14
 20
7243207.778
 30
0.0
 11
945446.968
 21
7243057.869
 31
0.0
  0
LINE
  8
6
  6
CONTINUOUS
 62
     7
  5
54
 10
945667.013
 20
7243200.365
 30
0.0
 11
945662.358
 21
7243065.445
 31
0.0
  0
ARC
  8
6
  6
CONTINUOUS
 62
     7
  5
55
 10
945647.366571
 20
7243065.962267
 30
0.0
 40
15.0
 50
268.023858
 51
358.024008
210
0.0
220
0.0
230
1.0
  0
LINE
  8
7
  6
CONTINUOUS
 62
     7
  5
56
 10
945557.078
 20
7243204.158
 30
0.0
 11
945551.907
 21
7243054.248
 31
0.0
  0
LINE
  8
21
  6
DASHDOT
 62
     7
  5
58
 10
945237.093
 20
7243065.11
 30
0.0
 11
945239.092
 21
7243065.04
 31
0.0
  0
TEXT
  8
11
  6
CONTINUOUS
 62
     7
  5
59
 10
944529.869
 20
7243231.007
 30
0.0
 40
8.0
  1
111.92'
 50
357.9839
  7
ROMANS
 72
     4
 11
944555.32704
 21
7243234.113301
 31
0.0
210
0.0
220
0.0
230
1.0
  0
TEXT
  8
11
  6
CONTINUOUS
 62
     7
  5
5A
 10
944543.6
 20
7243090.174
 30
0.0
 40
8.0
  1
96.93'
 50
357.9839
  7
ROMANS
 72
     4
 11
944565.060516
 21
7243093.421022
 31
0.0
210
0.0
220
0.0
230
1.0
  0
TEXT
  8
11
  6
CONTINUOUS
 62
     7
  5
5B
 10
944473.659
 20
7243101.3
 30
0.0
 40
8.0
  1
30'
 50
357.9839
  7
ROMANS
 72
     4
 11
944483.126944
 21
7243104.969186
 31
0.0
210
0.0
220
0.0
230
1.0
  0
TEXT
  8
11
  6
CONTINUOUS
 62
     7
  5
5C
 10
944648.373
 20
7243086.486
 30
0.0
 40
8.0
  1
105'
 50
357.9839
  7
ROMANS
 72
     4
 11
944661.838468
 21
7243090.014465
 31
0.0
210
0.0
220
0.0
230
1.0
  0
TEXT
  8
11
  6
CONTINUOUS
 62
     7
  5
5D
 10
944759.05
 20
7243082.59
 30
0.0
 40
8.0
  1
105'
 50
357.9839
  7
ROMANS
 72
     4
 11
944772.515468
 21
7243086.118465
 31
0.0
210
0.0
220
0.0
230
1.0
  0
TEXT
  8
11
  6
CONTINUOUS
 62
     7
  5
5E
 10
944863.243
 20
7243078.922
 30
0.0
 40
8.0
  1
105'
 50
357.9839
  7
ROMANS
 72
     4
 11
944876.708468
 21
7243082.450465
 31
0.0
210
0.0
220
0.0
230
1.0
  0
TEXT
  8
11
  6
CONTINUOUS
 62
     7
  5
5F
 10
944964.408
 20
7243075.361
 30
0.0
 40
8.0
  1
105'
 50
357.9839
  7
ROMANS
 72
     4
 11
944977.873468
 21
7243078.889465
 31
0.0
210
0.0
220
0.0
230
1.0
  0
TEXT
  8
11
  6
CONTINUOUS
 62
     7
  5
60
 10
945070.761
 20
7243071.617
 30
0.0
 40
8.0
  1
105'
 50
357.9839
  7
ROMANS
 72
     4
 11
945084.226468
 21
7243075.145465
 31
0.0
210
0.0
220
0.0
230
1.0
  0
TEXT
  8
11
  6
CONTINUOUS
 62
     7
  5
61
 10
945177.98
 20
7243067.843
 30
0.0
 40
8.0
  1
105'
 50
357.9839
  7
ROMANS
 72
     4
 11
945191.445468
 21
7243071.371465
 31
0.0
210
0.0
220
0.0
230
1.0
  0
TEXT
  8
11
  6
CONTINUOUS
 62
     7
  5
62
 10
945280.442
 20
7243064.236
 30
0.0
 40
8.0
  1
105'
 50
357.9839
  7
ROMANS
 72
     4
 11
945293.907468
 21
7243067.764465
 31
0.0
210
0.0
220
0.0
230
1.0
  0
TEXT
  8
11
  6
CONTINUOUS
 62
     7
  5
63
 10
945390.254
 20
7243060.37
 30
0.0
 40
8.0
  1
105'
 50
357.9839
  7
ROMANS
 72
     4
 11
945403.719468
 21
7243063.898465
 31
0.0
210
0.0
220
0.0
230
1.0
  0
TEXT
  8
11
  6
CONTINUOUS
 62
     7
  5
64
 10
945495.743
 20
7243056.657
 30
0.0
 40
8.0
  1
105'
 50
357.9839
  7
ROMANS
 72
     4
 11
945509.208468
 21
7243060.185465
 31
0.0
210
0.0
220
0.0
230
1.0
  0
TEXT
  8
11
  6
CONTINUOUS
 62
     7
  5
65
 10
945597.415
 20
7243053.078
 30
0.0
 40
8.0
  1
95'
 50
357.9839
  7
ROMANS
 72
     4
 11
945606.882944
 21
7243056.747186
 31
0.0
210
0.0
220
0.0
230
1.0
  0
TEXT
  8
11
  6
CONTINUOUS
 62
     7
  5
66
 10
945598.384
 20
7243193.393
 30
0.0
 40
8.0
  1
110'
 50
357.9839
  7
ROMANS
 72
     4
 11
945611.849468
 21
7243196.921465
 31
0.0
210
0.0
220
0.0
230
1.0
  0
TEXT
  8
11
  6
CONTINUOUS
 62
     7
  5
67
 10
945692.274
 20
7243190.088
 30
0.0
 40
8.0
  1
60'
 50
357.9839
  7
ROMANS
 72
     4
 11
945701.741944
 21
7243193.757186
 31
0.0
210
0.0
220
0.0
230
1.0
  0
TEXT
  8
11
  6
CONTINUOUS
 62
     7
  5
68
 10
945662.717
 20
7243203.191
 30
0.0
 40
8.0
  1
20'
 50
87.9839
  7
ROMANS
 72
     4
 11
945659.047814
 21
7243212.658944
 31
0.0
210
0.0
220
0.0
230
1.0
  0
TEXT
  8
11
  6
CONTINUOUS
 62
     7
  5
69
 10
945663.997
 20
7243121.205
 30
0.0
 40
8.0
  1
135'
 50
87.9839
  7
ROMANS
 72
     4
 11
945660.468535
 21
7243134.670468
 31
0.0
210
0.0
220
0.0
230
1.0
  0
TEXT
  8
11
  6
CONTINUOUS
 62
     7
  5
6A
 10
945552.486
 20
7243122.793
 30
0.0
 40
8.0
  1
150'
 50
87.9839
  7
ROMANS
 72
     4
 11
945548.957535
 21
7243136.258468
 31
0.0
210
0.0
220
0.0
230
1.0
  0
TEXT
  8
11
  6
CONTINUOUS
 62
     7
  5
6B
 10
945645.807
 20
7243008.509
 30
0.0
 40
8.0
  1
60'
 50
87.9839
  7
ROMANS
 72
     4
 11
945642.137814
 21
7243017.976944
 31
0.0
210
0.0
220
0.0
230
1.0
  0
TEXT
  8
11
  6
CONTINUOUS
 62
     7
  5
6C
 10
945633.464
 20
7243072.581
 30
0.0
 40
8.0
  1
R=15'
 50
312.9839
  7
ROMANS
 72
     4
 11
945648.207696
 21
7243062.628296
 31
0.0
210
0.0
220
0.0
230
1.0
  0
TEXT
  8
11
  6
CONTINUOUS
 62
     7
  5
6D
 10
944506.727
 20
7243155.884
 30
0.0
 40
8.0
  1
135'
 50
87.9839
  7
ROMANS
 72
     4
 11
944503.198535
 21
7243169.349468
 31
0.0
210
0.0
220
0.0
230
1.0
  0
TEXT
  8
11
  6
CONTINUOUS
 62
     7
  5
6E
 10
944619.543
 20
7243151.913
 30
0.0
 40
8.0
  1
150'
 50
87.9839
  7
ROMANS
 72
     4
 11
944616.014535
 21
7243165.378468
 31
0.0
210
0.0
220
0.0
230
1.0
  0
TEXT
  8
11
  6
CONTINUOUS
 62
     7
  5
6F
 10
944505.962
 20
7243242.901
 30
0.0
 40
8.0
  1
20'
 50
87.9839
  7
ROMANS
 72
     4
 11
944502.292814
 21
7243252.368944
 31
0.0
210
0.0
220
0.0
230
1.0
  0
TEXT
  8
11
  6
CONTINUOUS
 62
     7
  5
70
 10
944505.187
 20
7243092.232
 30
0.0
 40
8.0
  1
R=15'
 50
42.9839
  7
ROMANS
 72
     4
 11
944515.139704
 21
7243106.975696
 31
0.0
210
0.0
220
0.0
230
1.0
  0
LINE
  8
6
  6
CONTINUOUS
 62
     7
  5
71
 10
944463.549
 20
7243031.763
 30
0.0
 11
944458.368
 21
7242881.853
 31
0.0
  0
LINE
  8
6
  6
CONTINUOUS
 62
     7
  5
72
 10
944463.549
 20
7243031.763
 30
0.0
 11
944848.254
 21
7243018.49
 31
0.0
  0
LINE
  8
6
  6
CONTINUOUS
 62
     7
  5
73
 10
944938.201
 20
7243015.386
 30
0.0
 11
945644.781
 21
7242991.007
 31
0.0
  0
LINE
  8
6
  6
CONTINUOUS
 62
     7
  5
74
 10
944458.368
 20
7242881.853
 30
0.0
 11
944858.074
 21
7242868.062
 31
0.0
  0
LINE
  8
6
  6
CONTINUOUS
 62
     7
  5
75
 10
944918.038
 20
7242865.993
 30
0.0
 11
945654.599
 21
7242840.579
 31
0.0
  0
LINE
  8
6
  6
CONTINUOUS
 62
     7
  5
76
 10
945723.19
 20
7243088.521
 30
0.0
 11
945873.1
 21
7243083.349
 31
0.0
  0
LINE
  8
6
  6
CONTINUOUS
 62
     7
  5
77
 10
945893.089
 20
7243082.658
 30
0.0
 11
946042.999
 21
7243077.486
 31
0.0
  0
LINE
  8
6
  6
CONTINUOUS
 62
     7
  5
78
 10
945727.666
 20
7243218.284
 30
0.0
 11
945714.564
 21
7242838.51
 31
0.0
  0
LINE
  8
6
  6
CONTINUOUS
 62
     7
  5
79
 10
945659.254
 20
7242975.498
 30
0.0
 11
945654.599
 21
7242840.579
 31
0.0
  0
LINE
  8
7
  6
CONTINUOUS
 62
     7
  5
7A
 10
945550.836
 20
7242994.248
 30
0.0
 11
945545.664
 21
7242844.337
 31
0.0
  0
ARC
  8
6
  6
CONTINUOUS
 62
     7
  5
7B
 10
945644.263289
 20
7242976.016074
 30
0.0
 40
15.0
 50
358.024017
 51
88.023894
210
0.0
220
0.0
230
1.0
  0
LINE
  8
7
  6
CONTINUOUS
 62
     7
  5
7C
 10
945446.898
 20
7242997.834
 30
0.0
 11
945441.726
 21
7242847.923
 31
0.0
  0
LINE
  8
7
  6
CONTINUOUS
 62
     7
  5
7D
 10
945342.96
 20
7243001.42
 30
0.0
 11
945337.788
 21
7242851.509
 31
0.0
  0
LINE
  8
7
  6
CONTINUOUS
 62
     7
  5
7E
 10
945239.022
 20
7243005.007
 30
0.0
 11
945233.85
 21
7242855.096
 31
0.0
  0
LINE
  8
7
  6
CONTINUOUS
 62
     7
  5
7F
 10
945135.084
 20
7243008.592
 30
0.0
 11
945129.912
 21
7242858.681
 31
0.0
  0
LINE
  8
7
  6
CONTINUOUS
 62
     7
  5
80
 10
945031.145
 20
7243012.178
 30
0.0
 11
945025.973
 21
7242862.267
 31
0.0
  0
ARC
  8
6
  6
CONTINUOUS
 62
     7
  5
81
 10
944937.683588
 20
7243000.395338
 30
0.0
 40
15.0
 50
88.023897
 51
178.024008
210
0.0
220
0.0
230
1.0
  0
ARC
  8
6
  6
CONTINUOUS
 62
     7
  5
82
 10
944847.736611
 20
7243003.499154
 30
0.0
 40
15.0
 50
358.024217
 51
88.023939
210
0.0
220
0.0
230
1.0
  0
LINE
  8
7
  6
CONTINUOUS
 62
     7
  5
83
 10
944558.252
 20
7242878.406
 30
0.0
 11
944563.424
 21
7243028.318
 31
0.0
  0
LINE
  8
7
  6
CONTINUOUS
 62
     7
  5
84
 10
944658.192
 20
7242874.958
 30
0.0
 11
944663.364
 21
7243024.87
 31
0.0
  0
LINE
  8
7
  6
CONTINUOUS
 62
     7
  5
85
 10
944758.133
 20
7242871.51
 30
0.0
 11
944763.305
 21
7243021.422
 31
0.0
  0
LINE
  8
21
  6
DASHDOT
 62
     7
  5
86
 10
944463.549
 20
7243031.763
 30
0.0
 11
944458.368
 21
7242881.853
 31
0.0
  0
LINE
  8
21
  6
DASHDOT
 62
     7
  5
87
 10
944468.546
 20
7243031.591
 30
0.0
 11
944463.365
 21
7242881.68
 31
0.0
  0
LINE
  8
21
  6
DASHDOT
 62
     7
  5
88
 10
944468.546
 20
7243031.591
 30
0.0
 11
944463.549
 21
7243031.763
 31
0.0
  0
LINE
  8
21
  6
DASHDOT
 62
     7
  5
89
 10
944463.365
 20
7242881.68
 30
0.0
 11
944458.368
 21
7242881.853
 31
0.0
  0
TEXT
  8
11
  6
CONTINUOUS
 62
     7
  5
8A
 10
944494.581
 20
7243022.38
 30
0.0
 40
8.0
  1
99.93'
 50
357.9839
  7
ROMANS
 72
     4
 11
944516.041516
 21
7243025.627022
 31
0.0
210
0.0
220
0.0
230
1.0
  0
TEXT
  8
11
  6
CONTINUOUS
 62
     7
  5
8B
 10
944495.601
 20
7242880.301
 30
0.0
 40
8.0
  1
99.94'
 50
357.9839
  7
ROMANS
 72
     4
 11
944517.061516
 21
7242883.548022
 31
0.0
210
0.0
220
0.0
230
1.0
  0
TEXT
  8
11
  6
CONTINUOUS
 62
     7
  5
8C
 10
944603.898
 20
7243018.532
 30
0.0
 40
8.0
  1
100'
 50
357.9839
  7
ROMANS
 72
     4
 11
944617.363468
 21
7243022.060465
 31
0.0
210
0.0
220
0.0
230
1.0
  0
TEXT
  8
11
  6
CONTINUOUS
 62
     7
  5
8D
 10
944705.926
 20
7243014.94
 30
0.0
 40
8.0
  1
100'
 50
357.9839
  7
ROMANS
 72
     4
 11
944719.391468
 21
7243018.468465
 31
0.0
210
0.0
220
0.0
230
1.0
  0
TEXT
  8
11
  6
CONTINUOUS
 62
     7
  5
8E
 10
944800.199
 20
7242870.439
 30
0.0
 40
8.0
  1
100'
 50
357.9839
  7
ROMANS
 72
     4
 11
944813.664468
 21
7242873.967465
 31
0.0
210
0.0
220
0.0
230
1.0
  0
TEXT
  8
11
  6
CONTINUOUS
 62
     7
  5
8F
 10
944809.159
 20
7243012.167
 30
0.0
 40
8.0
  1
85'
 50
357.9839
  7
ROMANS
 72
     4
 11
944818.626944
 21
7243015.836186
 31
0.0
210
0.0
220
0.0
230
1.0
  0
TEXT
  8
11
  6
CONTINUOUS
 62
     7
  5
90
 10
944886.306
 20
7242998.26
 30
0.0
 40
8.0
  1
60'
 50
357.9839
  7
ROMANS
 72
     4
 11
944895.773944
 21
7243001.929186
 31
0.0
210
0.0
220
0.0
230
1.0
  0
TEXT
  8
11
  6
CONTINUOUS
 62
     7
  5
91
 10
944965.378
 20
7242864.625
 30
0.0
 40
8.0
  1
108'
 50
357.9839
  7
ROMANS
 72
     4
 11
944978.843468
 21
7242868.153465
 31
0.0
210
0.0
220
0.0
230
1.0
  0
TEXT
  8
11
  6
CONTINUOUS
 62
     7
  5
92
 10
944974.322
 20
7243005.922
 30
0.0
 40
8.0
  1
93'
 50
357.9839
  7
ROMANS
 72
     4
 11
944983.789944
 21
7243009.591186
 31
0.0
210
0.0
220
0.0
230
1.0
  0
TEXT
  8
11
  6
CONTINUOUS
 62
     7
  5
93
 10
945075.178
 20
7243002.372
 30
0.0
 40
8.0
  1
104'
 50
357.9839
  7
ROMANS
 72
     4
 11
945088.643468
 21
7243005.900465
 31
0.0
210
0.0
220
0.0
230
1.0
  0
TEXT
  8
11
  6
CONTINUOUS
 62
     7
  5
94
 10
945177.851
 20
7242998.758
 30
0.0
 40
8.0
  1
104'
 50
357.9839
  7
ROMANS
 72
     4
 11
945191.316468
 21
7243002.286465
 31
0.0
210
0.0
220
0.0
230
1.0
  0
TEXT
  8
11
  6
CONTINUOUS
 62
     7
  5
95
 10
945282.672
 20
7242995.068
 30
0.0
 40
8.0
  1
104'
 50
357.9839
  7
ROMANS
 72
     4
 11
945296.137468
 21
7242998.596465
 31
0.0
210
0.0
220
0.0
230
1.0
  0
TEXT
  8
11
  6
CONTINUOUS
 62
     7
  5
96
 10
945384.916
 20
7242991.468
 30
0.0
 40
8.0
  1
104'
 50
357.9839
  7
ROMANS
 72
     4
 11
945398.381468
 21
7242994.996465
 31
0.0
210
0.0
220
0.0
230
1.0
  0
TEXT
  8
11
  6
CONTINUOUS
 62
     7
  5
97
 10
945489.737
 20
7242987.779
 30
0.0
 40
8.0
  1
104'
 50
357.9839
  7
ROMANS
 72
     4
 11
945503.202468
 21
7242991.307465
 31
0.0
210
0.0
220
0.0
230
1.0
  0
TEXT
  8
11
  6
CONTINUOUS
 62
     7
  5
98
 10
945603.25
 20
7242983.783
 30
0.0
 40
8.0
  1
94'
 50
357.9839
  7
ROMANS
 72
     4
 11
945612.717944
 21
7242987.452186
 31
0.0
210
0.0
220
0.0
230
1.0
  0
TEXT
  8
11
  6
CONTINUOUS
 62
     7
  5
99
 10
945594.305
 20
7242842.485
 30
0.0
 40
8.0
  1
109'
 50
357.9839
  7
ROMANS
 72
     4
 11
945607.770468
 21
7242846.013465
 31
0.0
210
0.0
220
0.0
230
1.0
  0
TEXT
  8
11
  6
CONTINUOUS
 62
     7
  5
9A
 10
945656.682
 20
7242908.964
 30
0.0
 40
8.0
  1
135'
 50
87.9839
  7
ROMANS
 72
     4
 11
945653.153535
 21
7242922.429468
 31
0.0
210
0.0
220
0.0
230
1.0
  0
TEXT
  8
11
  6
CONTINUOUS
 62
     7
  5
9B
 10
945547.564
 20
7242912.805
 30
0.0
 40
8.0
  1
150'
 50
87.9839
  7
ROMANS
 72
     4
 11
945544.035535
 21
7242926.270468
 31
0.0
210
0.0
220
0.0
230
1.0
  0
TEXT
  8
11
  6
CONTINUOUS
 62
     7
  5
9C
 10
945636.427
 20
7242962.804
 30
0.0
 40
8.0
  1
R=15'
 50
42.9839
  7
ROMANS
 72
     4
 11
945646.379704
 21
7242977.547696
 31
0.0
210
0.0
220
0.0
230
1.0
  0
TEXT
  8
11
  6
CONTINUOUS
 62
     7
  5
9D
 10
944835.284
 20
7242987.638
 30
0.0
 40
8.0
  1
R=15'
 50
42.9839
  7
ROMANS
 72
     4
 11
944845.236704
 21
7243002.381696
 31
0.0
210
0.0
220
0.0
230
1.0
  0
TEXT
  8
11
  6
CONTINUOUS
 62
     7
  5
9E
 10
944929.157
 20
7243006.122
 30
0.0
 40
8.0
  1
R=15'
 50
312.9839
  7
ROMANS
 72
     4
 11
944943.900696
 21
7242996.169296
 31
0.0
210
0.0
220
0.0
230
1.0
  0
TEXT
  8
11
  6
CONTINUOUS
 62
     7
  5
9F
 10
945028.184
 20
7242924.004
 30
0.0
 40
8.0
  1
150'
 50
87.9839
  7
ROMANS
 72
     4
 11
945024.655535
 21
7242937.469468
 31
0.0
210
0.0
220
0.0
230
1.0
  0
TEXT
  8
11
  6
CONTINUOUS
 62
     7
  5
A0
 10
944928.854
 20
7242927.5
 30
0.0
 40
8.0
  1
135'
 50
87.9839
  7
ROMANS
 72
     4
 11
944925.325535
 21
7242940.965468
 31
0.0
210
0.0
220
0.0
230
1.0
  0
TEXT
  8
11
  6
CONTINUOUS
 62
     7
  5
A1
 10
944860.564
 20
7242929.904
 30
0.0
 40
8.0
  1
135'
 50
87.9839
  7
ROMANS
 72
     4
 11
944857.035535
 21
7242943.369468
 31
0.0
210
0.0
220
0.0
230
1.0
  0
TEXT
  8
11
  6
CONTINUOUS
 62
     7
  5
A2
 10
944930.579
 20
7242850.382
 30
0.0
 40
8.0
  1
20'
 50
87.9839
  7
ROMANS
 72
     4
 11
944926.909814
 21
7242859.849944
 31
0.0
210
0.0
220
0.0
230
1.0
  0
TEXT
  8
11
  6
CONTINUOUS
 62
     7
  5
A3
 10
944857.343
 20
7242851.0
 30
0.0
 40
8.0
  1
20'
 50
87.9839
  7
ROMANS
 72
     4
 11
944853.673814
 21
7242860.467944
 31
0.0
210
0.0
220
0.0
230
1.0
  0
TEXT
  8
11
  6
CONTINUOUS
 62
     7
  5
A4
 10
944769.345
 20
7242930.45
 30
0.0
 40
8.0
  1
150'
 50
87.9839
  7
ROMANS
 72
     4
 11
944765.816535
 21
7242943.915468
 31
0.0
210
0.0
220
0.0
230
1.0
  0
TEXT
  8
11
  6
CONTINUOUS
 62
     7
  5
A5
 10
944568.468
 20
7242937.521
 30
0.0
 40
8.0
  1
150'
 50
87.9839
  7
ROMANS
 72
     4
 11
944564.939535
 21
7242950.986468
 31
0.0
210
0.0
220
0.0
230
1.0
  0
TEXT
  8
11
  6
CONTINUOUS
 62
     7
  5
A6
 10
944469.137
 20
7242941.018
 30
0.0
 40
8.0
  1
150'
 50
87.9839
  7
ROMANS
 72
     4
 11
944465.608535
 21
7242954.483468
 31
0.0
210
0.0
220
0.0
230
1.0
  0
TEXT
  8
11
  6
CONTINUOUS
 62
     7
  5
A7
 10
944512.511
 20
7243050.627
 30
0.0
 40
8.0
  1
60'
 50
87.9839
  7
ROMANS
 72
     4
 11
944508.841814
 21
7243060.094944
 31
0.0
210
0.0
220
0.0
230
1.0
  0
TEXT
  8
22
  6
CONTINUOUS
 62
     3
  5
A8
 10
944473.592
 20
7242969.832
 30
0.0
 40
6.0
  1
5'UUE-SPEC
 50
87.9839
  7
ROMANS
 72
     4
 11
944471.610217
 21
7242998.809658
 31
0.0
210
0.0
220
0.0
230
1.0
  0
TEXT
  8
22
  6
CONTINUOUS
 62
     3
  5
A9
 10
945247.423
 20
7243119.056
 30
0.0
 40
6.0
  1
2'USE-LPL
 50
87.9839
  7
ROMANS
 72
     4
 11
945245.33075
 21
7243144.895601
 31
0.0
210
0.0
220
0.0
230
1.0
  0
LINE
  8
6
  6
CONTINUOUS
 62
     7
  5
AA
 10
945873.1
 20
7243083.349
 30
0.0
 11
945860.775
 21
7242726.101
 31
0.0
  0
LINE
  8
6
  6
CONTINUOUS
 62
     7
  5
AB
 10
945893.089
 20
7243082.658
 30
0.0
 11
945881.005
 21
7242732.407
 31
0.0
  0
LINE
  8
7
  6
CONTINUOUS
 62
     7
  5
AC
 10
945719.224
 20
7242973.589
 30
0.0
 11
945869.135
 21
7242968.417
 31
0.0
  0
LINE
  8
7
  6
CONTINUOUS
 62
     7
  5
AD
 10
945889.296
 20
7242972.724
 30
0.0
 11
946039.207
 21
7242967.552
 31
0.0
  0
LINE
  8
7
  6
CONTINUOUS
 62
     7
  5
AE
 10
945715.431
 20
7242863.655
 30
0.0
 11
945865.342
 21
7242858.483
 31
0.0
  0
LINE
  8
7
  6
CONTINUOUS
 62
     7
  5
AF
 10
945885.848
 20
7242872.783
 30
0.0
 11
946035.758
 21
7242867.611
 31
0.0
  0
ARC
  8
6
  6
CONTINUOUS
 62
     7
  5
B0
 10
945929.390746
 20
7242830.947394
 30
0.0
 40
214.96
 50
177.9839
 51
218.333672
210
0.0
220
0.0
230
1.0
  0
ARC
  8
6
  6
CONTINUOUS
 62
     7
  5
B1
 10
945772.539458
 20
7242706.9237
 30
0.0
 40
14.999496
 50
218.332864
 51
298.916211
210
0.0
220
0.0
230
1.0
  0
LINE
  8
6
  6
CONTINUOUS
 62
     7
  5
B2
 10
946047.476
 20
7243207.25
 30
0.0
 11
946032.639
 21
7242777.206
 31
0.0
  0
ARC
  8
6
  6
CONTINUOUS
 62
     7
  5
B3
 10
946017.648298
 20
7242777.733525
 30
0.0
 40
15.0
 50
278.066672
 51
357.9839
210
0.0
220
0.0
230
1.0
  0
LINE
  8
6
  6
CONTINUOUS
 62
     7
  5
B4
 10
944457.678
 20
7242861.865
 30
0.0
 11
944857.385
 21
7242848.074
 31
0.0
  0
LINE
  8
6
  6
CONTINUOUS
 62
     7
  5
B5
 10
944452.496
 20
7242711.954
 30
0.0
 11
944837.221
 21
7242698.68
 31
0.0
  0
LINE
  8
6
  6
CONTINUOUS
 62
     7
  5
B6
 10
944917.348
 20
7242846.005
 30
0.0
 11
945654.623
 21
7242820.566
 31
0.0
  0
LINE
  8
6
  6
CONTINUOUS
 62
     7
  5
B7
 10
944927.168
 20
7242695.576
 30
0.0
 11
945301.425
 21
7242682.663
 31
0.0
  0
LINE
  8
6
  6
CONTINUOUS
 62
     7
  5
B8
 10
944862.728
 20
7243002.982
 30
0.0
 11
944858.074
 21
7242868.062
 31
0.0
  0
LINE
  8
6
  6
CONTINUOUS
 62
     7
  5
B9
 10
944857.385
 20
7242848.074
 30
0.0
 11
944852.729
 21
7242713.154
 31
0.0
  0
LINE
  8
6
  6
CONTINUOUS
 62
     7
  5
BA
 10
944922.692
 20
7243000.913
 30
0.0
 11
944918.038
 21
7242865.993
 31
0.0
  0
LINE
  8
6
  6
CONTINUOUS
 62
     7
  5
BB
 10
944917.348
 20
7242846.005
 30
0.0
 11
944912.694
 21
7242711.085
 31
0.0
  0
LINE
  8
7
  6
CONTINUOUS
 62
     7
  5
BC
 10
944557.563
 20
7242858.418
 30
0.0
 11
944552.391
 21
7242708.508
 31
0.0
  0
LINE
  8
7
  6
CONTINUOUS
 62
     7
  5
BD
 10
944657.504
 20
7242854.97
 30
0.0
 11
944652.331
 21
7242705.06
 31
0.0
  0
LINE
  8
7
  6
CONTINUOUS
 62
     7
  5
BE
 10
944757.444
 20
7242851.522
 30
0.0
 11
944752.272
 21
7242701.61
 31
0.0
  0
LINE
  8
6
  6
CONTINUOUS
 62
     7
  5
BF
 10
944457.678
 20
7242861.865
 30
0.0
 11
944452.496
 21
7242711.954
 31
0.0
  0
TEXT
  8
11
  6
CONTINUOUS
 62
     7
  5
C0
 10
944494.596
 20
7242851.749
 30
0.0
 40
8.0
  1
99.94'
 50
357.9839
  7
ROMANS
 72
     4
 11
944516.056516
 21
7242854.996022
 31
0.0
210
0.0
220
0.0
230
1.0
  0
TEXT
  8
11
  6
CONTINUOUS
 62
     7
  5
C1
 10
944562.81
 20
7242776.813
 30
0.0
 40
8.0
  1
150'
 50
87.9839
  7
ROMANS
 72
     4
 11
944559.281535
 21
7242790.278468
 31
0.0
210
0.0
220
0.0
230
1.0
  0
TEXT
  8
11
  6
CONTINUOUS
 62
     7
  5
C2
 10
944463.509
 20
7242781.125
 30
0.0
 40
8.0
  1
150'
 50
87.9839
  7
ROMANS
 72
     4
 11
944459.980535
 21
7242794.590468
 31
0.0
210
0.0
220
0.0
230
1.0
  0
TEXT
  8
11
  6
CONTINUOUS
 62
     7
  5
C3
 10
944765.796
 20
7242769.667
 30
0.0
 40
8.0
  1
150'
 50
87.9839
  7
ROMANS
 72
     4
 11
944762.267535
 21
7242783.132468
 31
0.0
210
0.0
220
0.0
230
1.0
  0
TEXT
  8
11
  6
CONTINUOUS
 62
     7
  5
C4
 10
944799.137
 20
7242840.256
 30
0.0
 40
8.0
  1
100'
 50
357.9839
  7
ROMANS
 72
     4
 11
944812.602468
 21
7242843.784465
 31
0.0
210
0.0
220
0.0
230
1.0
  0
TEXT
  8
11
  6
CONTINUOUS
 62
     7
  5
C5
 10
944798.304
 20
7242703.802
 30
0.0
 40
8.0
  1
85'
 50
357.9839
  7
ROMANS
 72
     4
 11
944807.771944
 21
7242707.471186
 31
0.0
210
0.0
220
0.0
230
1.0
  0
TEXT
  8
11
  6
CONTINUOUS
 62
     7
  5
C6
 10
944854.907
 20
7242769.196
 30
0.0
 40
8.0
  1
135'
 50
87.9839
  7
ROMANS
 72
     4
 11
944851.378535
 21
7242782.661468
 31
0.0
210
0.0
220
0.0
230
1.0
  0
TEXT
  8
11
  6
CONTINUOUS
 62
     7
  5
C7
 10
944592.956
 20
7242707.719
 30
0.0
 40
8.0
  1
100'
 50
357.9839
  7
ROMANS
 72
     4
 11
944606.421468
 21
7242711.247465
 31
0.0
210
0.0
220
0.0
230
1.0
  0
TEXT
  8
11
  6
CONTINUOUS
 62
     7
  5
C8
 10
944694.985
 20
7242704.129
 30
0.0
 40
8.0
  1
100'
 50
357.9839
  7
ROMANS
 72
     4
 11
944708.450468
 21
7242707.657465
 31
0.0
210
0.0
220
0.0
230
1.0
  0
ARC
  8
6
  6
CONTINUOUS
 62
     7
  5
C9
 10
944837.738674
 20
7242713.671002
 30
0.0
 40
15.0
 50
268.023869
 51
358.024008
210
0.0
220
0.0
230
1.0
  0
TEXT
  8
11
  6
CONTINUOUS
 62
     7
  5
CA
 10
944826.23
 20
7242725.503
 30
0.0
 40
8.0
  1
R=15'
 50
312.9839
  7
ROMANS
 72
     4
 11
944840.973696
 21
7242715.550296
 31
0.0
210
0.0
220
0.0
230
1.0
  0
TEXT
  8
11
  6
CONTINUOUS
 62
     7
  5
CB
 10
944489.628
 20
7242710.618
 30
0.0
 40
8.0
  1
99.95'
 50
357.9839
  7
ROMANS
 72
     4
 11
944511.088516
 21
7242713.865022
 31
0.0
210
0.0
220
0.0
230
1.0
  0
LINE
  8
21
  6
DASHDOT
 62
     7
  5
CC
 10
944457.678
 20
7242861.865
 30
0.0
 11
944452.496
 21
7242711.954
 31
0.0
  0
LINE
  8
21
  6
DASHDOT
 62
     7
  5
CD
 10
944462.675
 20
7242861.692
 30
0.0
 11
944457.493
 21
7242711.781
 31
0.0
  0
LINE
  8
21
  6
DASHDOT
 62
     7
  5
CE
 10
944462.675
 20
7242861.692
 30
0.0
 11
944457.678
 21
7242861.865
 31
0.0
  0
LINE
  8
21
  6
DASHDOT
 62
     7
  5
CF
 10
944457.493
 20
7242711.781
 30
0.0
 11
944452.496
 21
7242711.954
 31
0.0
  0
TEXT
  8
22
  6
CONTINUOUS
 62
     3
  5
D0
 10
944464.806
 20
7242720.253
 30
0.0
 40
6.0
  1
5'UUE-SPEC
 50
87.9839
  7
ROMANS
 72
     4
 11
944462.824217
 21
7242749.230658
 31
0.0
210
0.0
220
0.0
230
1.0
  0
TEXT
  8
11
  6
CONTINUOUS
 62
     7
  5
D1
 10
944470.613
 20
7242864.614
 30
0.0
 40
8.0
  1
20'
 50
87.9839
  7
ROMANS
 72
     4
 11
944466.943814
 21
7242874.081944
 31
0.0
210
0.0
220
0.0
230
1.0
  0
LINE
  8
6
  6
CONTINUOUS
 62
     7
  5
D2
 10
944475.225
 20
7242501.045
 30
0.0
 11
945645.702
 21
7242460.66
 31
0.0
  0
LINE
  8
6
  6
CONTINUOUS
 62
     7
  5
D3
 10
944474.534
 20
7242481.057
 30
0.0
 11
945647.047
 21
7242440.603
 31
0.0
  0
LINE
  8
6
  6
CONTINUOUS
 62
     7
  5
D4
 10
944484.344
 20
7242330.629
 30
0.0
 11
945672.787
 21
7242289.625
 31
0.0
  0
LINE
  8
6
  6
CONTINUOUS
 62
     7
  5
D5
 10
944482.271
 20
7242270.665
 30
0.0
 11
945708.861
 21
7242228.345
 31
0.0
  0
LINE
  8
6
  6
CONTINUOUS
 62
     7
  5
D6
 10
944431.426
 20
7242102.318
 30
0.0
 11
946439.21
 21
7242032.429
 31
0.0
  0
LINE
  8
6
  6
CONTINUOUS
 62
     7
  5
D7
 10
944462.099
 20
7242121.263
 30
0.0
 11
945760.611
 21
7242076.063
 31
0.0
  0
LINE
  8
6
  6
CONTINUOUS
 62
     7
  5
D8
 10
944495.397
 20
7242650.438
 30
0.0
 11
945299.349
 21
7242622.7
 31
0.0
  0
LINE
  8
6
  6
CONTINUOUS
 62
     7
  5
D9
 10
944479.888
 20
7242635.965
 30
0.0
 11
944475.225
 21
7242501.045
 31
0.0
  0
LINE
  8
6
  6
CONTINUOUS
 62
     7
  5
DA
 10
944474.534
 20
7242481.057
 30
0.0
 11
944469.871
 21
7242346.138
 31
0.0
  0
LINE
  8
6
  6
CONTINUOUS
 62
     7
  5
DB
 10
944466.762
 20
7242256.192
 30
0.0
 11
944462.099
 21
7242121.263
 31
0.0
  0
LINE
  8
7
  6
CONTINUOUS
 62
     7
  5
DC
 10
944580.346
 20
7242647.508
 30
0.0
 11
944575.175
 21
7242497.597
 31
0.0
  0
LINE
  8
7
  6
CONTINUOUS
 62
     7
  5
DD
 10
944680.287
 20
7242644.061
 30
0.0
 11
944675.116
 21
7242494.15
 31
0.0
  0
LINE
  8
7
  6
CONTINUOUS
 62
     7
  5
DE
 10
944780.227
 20
7242640.613
 30
0.0
 11
944775.056
 21
7242490.702
 31
0.0
  0
LINE
  8
7
  6
CONTINUOUS
 62
     7
  5
DF
 10
944880.168
 20
7242637.165
 30
0.0
 11
944874.997
 21
7242487.255
 31
0.0
  0
LINE
  8
7
  6
CONTINUOUS
 62
     7
  5
E0
 10
944980.108
 20
7242633.714
 30
0.0
 11
944974.937
 21
7242483.803
 31
0.0
  0
LINE
  8
7
  6
CONTINUOUS
 62
     7
  5
E1
 10
945080.049
 20
7242630.266
 30
0.0
 11
945074.878
 21
7242480.355
 31
0.0
  0
LINE
  8
7
  6
CONTINUOUS
 62
     7
  5
E2
 10
945179.99
 20
7242626.818
 30
0.0
 11
945174.818
 21
7242476.907
 31
0.0
  0
LINE
  8
7
  6
CONTINUOUS
 62
     7
  5
E3
 10
945279.93
 20
7242623.369
 30
0.0
 11
945274.759
 21
7242473.459
 31
0.0
  0
ARC
  8
6
  6
CONTINUOUS
 62
     7
  5
E4
 10
944927.685069
 20
7242710.567663
 30
0.0
 40
15.0
 50
178.024389
 51
268.023858
210
0.0
220
0.0
230
1.0
  0
LINE
  8
7
  6
CONTINUOUS
 62
     7
  5
E5
 10
945017.289
 20
7242842.557
 30
0.0
 11
945012.116
 21
7242692.645
 31
0.0
  0
LINE
  8
7
  6
CONTINUOUS
 62
     7
  5
E6
 10
945115.23
 20
7242839.177
 30
0.0
 11
945110.059
 21
7242689.266
 31
0.0
  0
LINE
  8
7
  6
CONTINUOUS
 62
     7
  5
E7
 10
945213.172
 20
7242835.798
 30
0.0
 11
945208.0
 21
7242685.886
 31
0.0
  0
LINE
  8
7
  6
CONTINUOUS
 62
     7
  5
E8
 10
945311.114
 20
7242832.418
 30
0.0
 11
945305.942
 21
7242682.507
 31
0.0
  0
LINE
  8
7
  6
CONTINUOUS
 62
     7
  5
E9
 10
945409.056
 20
7242829.039
 30
0.0
 11
945403.706
 21
7242673.971
 31
0.0
  0
LINE
  8
7
  6
CONTINUOUS
 62
     7
  5
EA
 10
945506.997
 20
7242825.66
 30
0.0
 11
945501.134
 21
7242655.726
 31
0.0
  0
LINE
  8
7
  6
CONTINUOUS
 62
     7
  5
EB
 10
945626.926
 20
7242821.522
 30
0.0
 11
945573.387
 21
7242635.755
 31
0.0
  0
ARC
  8
6
  6
CONTINUOUS
 62
     7
  5
EC
 10
945674.094782
 20
7242614.293715
 30
0.0
 40
14.999987
 50
246.764842
 51
327.346375
210
0.0
220
0.0
230
1.0
  0
LINE
  8
7
  6
CONTINUOUS
 62
     7
  5
ED
 10
945379.752
 20
7242616.482
 30
0.0
 11
945374.7
 21
7242470.011
 31
0.0
  0
LINE
  8
7
  6
CONTINUOUS
 62
     7
  5
EE
 10
945479.216
 20
7242599.232
 30
0.0
 11
945474.64
 21
7242466.561
 31
0.0
  0
ARC
  8
6
  6
CONTINUOUS
 62
     7
  5
EF
 10
944494.868993
 20
7242635.447313
 30
0.0
 40
15.0
 50
87.9839
 51
177.9839
210
0.0
220
0.0
230
1.0
  0
ARC
  8
6
  6
CONTINUOUS
 62
     7
  5
F0
 10
945265.552536
 20
7241662.644234
 30
0.0
 40
960.65
 50
66.764433
 51
87.9839
210
0.0
220
0.0
230
1.0
  0
ARC
  8
6
  6
CONTINUOUS
 62
     7
  5
F1
 10
945638.623384
 20
7242531.593378
 30
0.0
 40
14.999709
 50
346.181803
 51
66.764842
210
0.0
220
0.0
230
1.0
  0
LINE
  8
7
  6
CONTINUOUS
 62
     7
  5
F2
 10
944574.474
 20
7242477.609
 30
0.0
 11
944569.302
 21
7242327.698
 31
0.0
  0
LINE
  8
7
  6
CONTINUOUS
 62
     7
  5
F3
 10
944672.416
 20
7242474.229
 30
0.0
 11
944667.244
 21
7242324.319
 31
0.0
  0
LINE
  8
7
  6
CONTINUOUS
 62
     7
  5
F4
 10
944770.357
 20
7242470.851
 30
0.0
 11
944765.186
 21
7242320.94
 31
0.0
  0
LINE
  8
7
  6
CONTINUOUS
 62
     7
  5
F5
 10
944868.3
 20
7242467.471
 30
0.0
 11
944863.128
 21
7242317.561
 31
0.0
  0
LINE
  8
7
  6
CONTINUOUS
 62
     7
  5
F6
 10
944966.241
 20
7242464.092
 30
0.0
 11
944961.069
 21
7242314.181
 31
0.0
  0
LINE
  8
7
  6
CONTINUOUS
 62
     7
  5
F7
 10
945064.183
 20
7242460.712
 30
0.0
 11
945059.011
 21
7242310.802
 31
0.0
  0
LINE
  8
7
  6
CONTINUOUS
 62
     7
  5
F8
 10
945162.125
 20
7242457.334
 30
0.0
 11
945156.953
 21
7242307.423
 31
0.0
  0
LINE
  8
7
  6
CONTINUOUS
 62
     7
  5
F9
 10
945260.067
 20
7242453.954
 30
0.0
 11
945254.895
 21
7242304.043
 31
0.0
  0
LINE
  8
7
  6
CONTINUOUS
 62
     7
  5
FA
 10
945358.008
 20
7242450.575
 30
0.0
 11
945352.836
 21
7242300.664
 31
0.0
  0
LINE
  8
7
  6
CONTINUOUS
 62
     7
  5
FB
 10
945455.95
 20
7242447.196
 30
0.0
 11
945450.778
 21
7242297.285
 31
0.0
  0
LINE
  8
7
  6
CONTINUOUS
 62
     7
  5
FC
 10
945553.892
 20
7242443.817
 30
0.0
 11
945548.72
 21
7242293.905
 31
0.0
  0
ARC
  8
6
  6
CONTINUOUS
 62
     7
  5
FD
 10
944484.871573
 20
7242345.619617
 30
0.0
 40
15.0
 50
177.987719
 51
267.9839
210
0.0
220
0.0
230
1.0
  0
ARC
  8
6
  6
CONTINUOUS
 62
     7
  5
FE
 10
944481.743321
 20
7242255.673992
 30
0.0
 40
15.0
 50
87.9839
 51
177.980081
210
0.0
220
0.0
230
1.0
  0
LINE
  8
7
  6
CONTINUOUS
 62
     7
  5
FF
 10
944577.216
 20
7242267.388
 30
0.0
 11
944572.042
 21
7242117.436
 31
0.0
  0
LINE
  8
7
  6
CONTINUOUS
 62
     7
  5
100
 10
944682.153
 20
7242263.77
 30
0.0
 11
944676.978
 21
7242113.783
 31
0.0
  0
LINE
  8
7
  6
CONTINUOUS
 62
     7
  5
101
 10
944787.091
 20
7242260.148
 30
0.0
 11
944781.915
 21
7242110.131
 31
0.0
  0
LINE
  8
7
  6
CONTINUOUS
 62
     7
  5
102
 10
944892.028
 20
7242256.528
 30
0.0
 11
944886.851
 21
7242106.478
 31
0.0
  0
LINE
  8
7
  6
CONTINUOUS
 62
     7
  5
103
 10
944996.966
 20
7242252.907
 30
0.0
 11
944991.788
 21
7242102.825
 31
0.0
  0
LINE
  8
7
  6
CONTINUOUS
 62
     7
  5
104
 10
945101.903
 20
7242249.286
 30
0.0
 11
945096.724
 21
7242099.172
 31
0.0
  0
LINE
  8
7
  6
CONTINUOUS
 62
     7
  5
105
 10
945206.841
 20
7242245.666
 30
0.0
 11
945201.661
 21
7242095.519
 31
0.0
  0
LINE
  8
7
  6
CONTINUOUS
 62
     7
  5
106
 10
945311.779
 20
7242242.045
 30
0.0
 11
945306.597
 21
7242091.867
 31
0.0
  0
LINE
  8
7
  6
CONTINUOUS
 62
     7
  5
107
 10
945416.716
 20
7242238.425
 30
0.0
 11
945411.534
 21
7242088.214
 31
0.0
  0
LINE
  8
7
  6
CONTINUOUS
 62
     7
  5
108
 10
945521.654
 20
7242234.804
 30
0.0
 11
945516.47
 21
7242084.561
 31
0.0
  0
LINE
  8
7
  6
CONTINUOUS
 62
     7
  5
109
 10
945626.591
 20
7242231.184
 30
0.0
 11
945621.406
 21
7242080.908
 31
0.0
  0
TEXT
  8
10
  6
CONTINUOUS
 62
   134
  5
10A
 10
945683.079
 20
7242145.051
 30
0.0
 40
13.999
  1
1
 50
357.9839
  7
ROMANS
 72
     4
 11
945685.656818
 21
7242151.964591
 31
0.0
210
0.0
220
0.0
230
1.0
  0
TEXT
  8
10
  6
CONTINUOUS
 62
   134
  5
10B
 10
945565.949
 20
7242149.174
 30
0.0
 40
13.999
  1
2
 50
357.9839
  7
ROMANS
 72
     4
 11
945570.275735
 21
7242156.026026
 31
0.0
210
0.0
220
0.0
230
1.0
  0
TEXT
  8
10
  6
CONTINUOUS
 62
   134
  5
10C
 10
945464.426
 20
7242152.748
 30
0.0
 40
13.999
  1
3
 50
357.9839
  7
ROMANS
 72
     4
 11
945468.752735
 21
7242159.600026
 31
0.0
210
0.0
220
0.0
230
1.0
  0
TEXT
  8
10
  6
CONTINUOUS
 62
   134
  5
10D
 10
945356.749
 20
7242156.539
 30
0.0
 40
13.999
  1
4
 50
357.9839
  7
ROMANS
 72
     4
 11
945361.075735
 21
7242163.391026
 31
0.0
210
0.0
220
0.0
230
1.0
  0
TEXT
  8
10
  6
CONTINUOUS
 62
   134
  5
10E
 10
945252.149
 20
7242160.221
 30
0.0
 40
13.999
  1
5
 50
357.9839
  7
ROMANS
 72
     4
 11
945256.493724
 21
7242167.072392
 31
0.0
210
0.0
220
0.0
230
1.0
  0
TEXT
  8
10
  6
CONTINUOUS
 62
   134
  5
10F
 10
945148.757
 20
7242163.86
 30
0.0
 40
13.999
  1
6
 50
357.9839
  7
ROMANS
 72
     4
 11
945153.411532
 21
7242170.700486
 31
0.0
210
0.0
220
0.0
230
1.0
  0
TEXT
  8
10
  6
CONTINUOUS
 62
   134
  5
110
 10
945046.027
 20
7242167.477
 30
0.0
 40
13.999
  1
7
 50
357.9839
  7
ROMANS
 72
     4
 11
945050.353735
 21
7242174.329026
 31
0.0
210
0.0
220
0.0
230
1.0
  0
TEXT
  8
10
  6
CONTINUOUS
 62
   134
  5
111
 10
944938.351
 20
7242171.267
 30
0.0
 40
13.999
  1
8
 50
357.9839
  7
ROMANS
 72
     4
 11
944942.677735
 21
7242178.119026
 31
0.0
210
0.0
220
0.0
230
1.0
  0
TEXT
  8
10
  6
CONTINUOUS
 62
   134
  5
112
 10
944827.598
 20
7242175.166
 30
0.0
 40
13.999
  1
9
 50
357.9839
  7
ROMANS
 72
     4
 11
944831.924735
 21
7242182.018026
 31
0.0
210
0.0
220
0.0
230
1.0
  0
TEXT
  8
10
  6
CONTINUOUS
 62
   134
  5
113
 10
944715.507
 20
7242179.112
 30
0.0
 40
13.999
  1
10
 50
357.9839
  7
ROMANS
 72
     4
 11
944727.385057
 21
7242185.698203
 31
0.0
210
0.0
220
0.0
230
1.0
  0
TEXT
  8
10
  6
CONTINUOUS
 62
   134
  5
114
 10
944614.76
 20
7242182.658
 30
0.0
 40
13.999
  1
11
 50
357.9839
  7
ROMANS
 72
     4
 11
944624.332486
 21
7242189.325364
 31
0.0
210
0.0
220
0.0
230
1.0
  0
TEXT
  8
10
  6
CONTINUOUS
 62
   134
  5
115
 10
944506.859
 20
7242186.457
 30
0.0
 40
13.999
  1
12
 50
357.9839
  7
ROMANS
 72
     4
 11
944518.180402
 21
7242193.062799
 31
0.0
210
0.0
220
0.0
230
1.0
  0
TEXT
  8
10
  6
CONTINUOUS
 62
   134
  5
116
 10
944514.337
 20
7242398.884
 30
0.0
 40
13.999
  1
13
 50
357.9839
  7
ROMANS
 72
     4
 11
944525.658402
 21
7242405.489799
 31
0.0
210
0.0
220
0.0
230
1.0
  0
TEXT
  8
10
  6
CONTINUOUS
 62
   134
  5
117
 10
944609.708
 20
7242395.527
 30
0.0
 40
13.999
  1
14
 50
357.9839
  7
ROMANS
 72
     4
 11
944621.029402
 21
7242402.132799
 31
0.0
210
0.0
220
0.0
230
1.0
  0
TEXT
  8
10
  6
CONTINUOUS
 62
   134
  5
118
 10
944709.694
 20
7242392.007
 30
0.0
 40
13.999
  1
15
 50
357.9839
  7
ROMANS
 72
     4
 11
944721.033391
 21
7242398.612165
 31
0.0
210
0.0
220
0.0
230
1.0
  0
TEXT
  8
10
  6
CONTINUOUS
 62
   134
  5
119
 10
944804.734
 20
7242388.661
 30
0.0
 40
13.999
  1
16
 50
357.9839
  7
ROMANS
 72
     4
 11
944816.383199
 21
7242395.255259
 31
0.0
210
0.0
220
0.0
230
1.0
  0
TEXT
  8
10
  6
CONTINUOUS
 62
   134
  5
11A
 10
944906.589
 20
7242385.076
 30
0.0
 40
13.999
  1
17
 50
357.9839
  7
ROMANS
 72
     4
 11
944917.910402
 21
7242391.681799
 31
0.0
210
0.0
220
0.0
230
1.0
  0
TEXT
  8
10
  6
CONTINUOUS
 62
   134
  5
11B
 10
945000.422
 20
7242381.773
 30
0.0
 40
13.999
  1
18
 50
357.9839
  7
ROMANS
 72
     4
 11
945011.743402
 21
7242388.378799
 31
0.0
210
0.0
220
0.0
230
1.0
  0
TEXT
  8
10
  6
CONTINUOUS
 62
   134
  5
11C
 10
945094.255
 20
7242378.471
 30
0.0
 40
13.999
  1
19
 50
357.9839
  7
ROMANS
 72
     4
 11
945105.576402
 21
7242385.076799
 31
0.0
210
0.0
220
0.0
230
1.0
  0
TEXT
  8
10
  6
CONTINUOUS
 62
   134
  5
11D
 10
945196.766
 20
7242374.861
 30
0.0
 40
13.999
  1
20
 50
357.9839
  7
ROMANS
 72
     4
 11
945208.644057
 21
7242381.447203
 31
0.0
210
0.0
220
0.0
230
1.0
  0
TEXT
  8
10
  6
CONTINUOUS
 62
   134
  5
11E
 10
945292.912
 20
7242371.476
 30
0.0
 40
13.999
  1
21
 50
357.9839
  7
ROMANS
 72
     4
 11
945302.484486
 21
7242378.143364
 31
0.0
210
0.0
220
0.0
230
1.0
  0
TEXT
  8
10
  6
CONTINUOUS
 62
   134
  5
11F
 10
945386.52
 20
7242368.181
 30
0.0
 40
13.999
  1
22
 50
357.9839
  7
ROMANS
 72
     4
 11
945397.841402
 21
7242374.786799
 31
0.0
210
0.0
220
0.0
230
1.0
  0
TEXT
  8
10
  6
CONTINUOUS
 62
   134
  5
120
 10
945491.889
 20
7242364.472
 30
0.0
 40
13.999
  1
23
 50
357.9839
  7
ROMANS
 72
     4
 11
945503.210402
 21
7242371.077799
 31
0.0
210
0.0
220
0.0
230
1.0
  0
TEXT
  8
10
  6
CONTINUOUS
 62
   134
  5
121
 10
945591.875
 20
7242360.952
 30
0.0
 40
13.999
  1
24
 50
357.9839
  7
ROMANS
 72
     4
 11
945603.196402
 21
7242367.557799
 31
0.0
210
0.0
220
0.0
230
1.0
  0
TEXT
  8
10
  6
CONTINUOUS
 62
   134
  5
122
 10
945544.886
 20
7242513.648
 30
0.0
 40
13.999
  1
25
 50
357.9839
  7
ROMANS
 72
     4
 11
945556.225391
 21
7242520.253165
 31
0.0
210
0.0
220
0.0
230
1.0
  0
TEXT
  8
10
  6
CONTINUOUS
 62
   134
  5
123
 10
945414.564
 20
7242539.813
 30
0.0
 40
13.999
  1
26
 50
357.9839
  7
ROMANS
 72
     4
 11
945426.213199
 21
7242546.407259
 31
0.0
210
0.0
220
0.0
230
1.0
  0
TEXT
  8
10
  6
CONTINUOUS
 62
   134
  5
124
 10
945316.448
 20
7242543.267
 30
0.0
 40
13.999
  1
27
 50
357.9839
  7
ROMANS
 72
     4
 11
945327.769402
 21
7242549.872799
 31
0.0
210
0.0
220
0.0
230
1.0
  0
TEXT
  8
10
  6
CONTINUOUS
 62
   134
  5
125
 10
945213.386
 20
7242546.895
 30
0.0
 40
13.999
  1
28
 50
357.9839
  7
ROMANS
 72
     4
 11
945224.707402
 21
7242553.500799
 31
0.0
210
0.0
220
0.0
230
1.0
  0
TEXT
  8
10
  6
CONTINUOUS
 62
   134
  5
126
 10
945118.017
 20
7242550.252
 30
0.0
 40
13.999
  1
29
 50
357.9839
  7
ROMANS
 72
     4
 11
945129.338402
 21
7242556.857799
 31
0.0
210
0.0
220
0.0
230
1.0
  0
TEXT
  8
10
  6
CONTINUOUS
 62
   134
  5
127
 10
945017.481
 20
7242553.791
 30
0.0
 40
13.999
  1
30
 50
357.9839
  7
ROMANS
 72
     4
 11
945029.359057
 21
7242560.377203
 31
0.0
210
0.0
220
0.0
230
1.0
  0
TEXT
  8
10
  6
CONTINUOUS
 62
   134
  5
128
 10
944919.809
 20
7242557.229
 30
0.0
 40
13.999
  1
31
 50
357.9839
  7
ROMANS
 72
     4
 11
944929.381486
 21
7242563.896364
 31
0.0
210
0.0
220
0.0
230
1.0
  0
TEXT
  8
10
  6
CONTINUOUS
 62
   134
  5
129
 10
944813.446
 20
7242560.974
 30
0.0
 40
13.999
  1
32
 50
357.9839
  7
ROMANS
 72
     4
 11
944824.767402
 21
7242567.579799
 31
0.0
210
0.0
220
0.0
230
1.0
  0
TEXT
  8
10
  6
CONTINUOUS
 62
   134
  5
12A
 10
944714.999
 20
7242564.439
 30
0.0
 40
13.999
  1
33
 50
357.9839
  7
ROMANS
 72
     4
 11
944726.320402
 21
7242571.044799
 31
0.0
210
0.0
220
0.0
230
1.0
  0
TEXT
  8
10
  6
CONTINUOUS
 62
   134
  5
12B
 10
944615.014
 20
7242567.959
 30
0.0
 40
13.999
  1
34
 50
357.9839
  7
ROMANS
 72
     4
 11
944626.335402
 21
7242574.564799
 31
0.0
210
0.0
220
0.0
230
1.0
  0
TEXT
  8
10
  6
CONTINUOUS
 62
   134
  5
12C
 10
944512.722
 20
7242571.56
 30
0.0
 40
13.999
  1
35
 50
357.9839
  7
ROMANS
 72
     4
 11
944524.061391
 21
7242578.165165
 31
0.0
210
0.0
220
0.0
230
1.0
  0
TEXT
  8
10
  6
CONTINUOUS
 62
   134
  5
12D
 10
944493.601
 20
7242781.533
 30
0.0
 40
13.999
  1
36
 50
357.9839
  7
ROMANS
 72
     4
 11
944505.250199
 21
7242788.127259
 31
0.0
210
0.0
220
0.0
230
1.0
  0
TEXT
  8
10
  6
CONTINUOUS
 62
   134
  5
12E
 10
944596.994
 20
7242777.894
 30
0.0
 40
13.999
  1
37
 50
357.9839
  7
ROMANS
 72
     4
 11
944608.315402
 21
7242784.499799
 31
0.0
210
0.0
220
0.0
230
1.0
  0
TEXT
  8
10
  6
CONTINUOUS
 62
   134
  5
12F
 10
944693.903
 20
7242774.482
 30
0.0
 40
13.999
  1
38
 50
357.9839
  7
ROMANS
 72
     4
 11
944705.224402
 21
7242781.087799
 31
0.0
210
0.0
220
0.0
230
1.0
  0
TEXT
  8
10
  6
CONTINUOUS
 62
   134
  5
130
 10
944796.966
 20
7242770.854
 30
0.0
 40
13.999
  1
39
 50
357.9839
  7
ROMANS
 72
     4
 11
944808.287402
 21
7242777.459799
 31
0.0
210
0.0
220
0.0
230
1.0
  0
TEXT
  8
10
  6
CONTINUOUS
 62
   134
  5
131
 10
944953.316
 20
7242765.35
 30
0.0
 40
13.999
  1
40
 50
357.9839
  7
ROMANS
 72
     4
 11
944965.194057
 21
7242771.936203
 31
0.0
210
0.0
220
0.0
230
1.0
  0
TEXT
  8
10
  6
CONTINUOUS
 62
   134
  5
132
 10
945052.539
 20
7242761.858
 30
0.0
 40
13.999
  1
41
 50
357.9839
  7
ROMANS
 72
     4
 11
945062.111486
 21
7242768.525364
 31
0.0
210
0.0
220
0.0
230
1.0
  0
TEXT
  8
10
  6
CONTINUOUS
 62
   134
  5
133
 10
945152.301
 20
7242758.346
 30
0.0
 40
13.999
  1
42
 50
357.9839
  7
ROMANS
 72
     4
 11
945163.622402
 21
7242764.951799
 31
0.0
210
0.0
220
0.0
230
1.0
  0
TEXT
  8
10
  6
CONTINUOUS
 62
   134
  5
134
 10
945246.133
 20
7242755.043
 30
0.0
 40
13.999
  1
43
 50
357.9839
  7
ROMANS
 72
     4
 11
945257.454402
 21
7242761.648799
 31
0.0
210
0.0
220
0.0
230
1.0
  0
TEXT
  8
10
  6
CONTINUOUS
 62
   134
  5
135
 10
945339.966
 20
7242751.74
 30
0.0
 40
13.999
  1
44
 50
357.9839
  7
ROMANS
 72
     4
 11
945351.287402
 21
7242758.345799
 31
0.0
210
0.0
220
0.0
230
1.0
  0
TEXT
  8
10
  6
CONTINUOUS
 62
   134
  5
136
 10
945445.335
 20
7242748.03
 30
0.0
 40
13.999
  1
45
 50
357.9839
  7
ROMANS
 72
     4
 11
945456.674391
 21
7242754.635165
 31
0.0
210
0.0
220
0.0
230
1.0
  0
TEXT
  8
10
  6
CONTINUOUS
 62
   134
  5
137
 10
945542.802
 20
7242726.105
 30
0.0
 40
13.999
  1
46
 50
357.9839
  7
ROMANS
 72
     4
 11
945554.451199
 21
7242732.699259
 31
0.0
210
0.0
220
0.0
230
1.0
  0
TEXT
  8
10
  6
CONTINUOUS
 62
   134
  5
138
 10
945630.618
 20
7242673.695
 30
0.0
 40
13.999
  1
47
 50
357.9839
  7
ROMANS
 72
     4
 11
945641.939402
 21
7242680.300799
 31
0.0
210
0.0
220
0.0
230
1.0
  0
TEXT
  8
10
  6
CONTINUOUS
 62
   134
  5
139
 10
945591.246
 20
7242911.507
 30
0.0
 40
13.999
  1
48
 50
357.9839
  7
ROMANS
 72
     4
 11
945602.567402
 21
7242918.112799
 31
0.0
210
0.0
220
0.0
230
1.0
  0
TEXT
  8
10
  6
CONTINUOUS
 62
   134
  5
13A
 10
945482.031
 20
7242915.352
 30
0.0
 40
13.999
  1
49
 50
357.9839
  7
ROMANS
 72
     4
 11
945493.352402
 21
7242921.957799
 31
0.0
210
0.0
220
0.0
230
1.0
  0
TEXT
  8
10
  6
CONTINUOUS
 62
   134
  5
13B
 10
945383.034
 20
7242918.837
 30
0.0
 40
13.999
  1
50
 50
357.9839
  7
ROMANS
 72
     4
 11
945394.912057
 21
7242925.423203
 31
0.0
210
0.0
220
0.0
230
1.0
  0
TEXT
  8
10
  6
CONTINUOUS
 62
   134
  5
13C
 10
945279.209
 20
7242922.492
 30
0.0
 40
13.999
  1
51
 50
357.9839
  7
ROMANS
 72
     4
 11
945288.781486
 21
7242929.159364
 31
0.0
210
0.0
220
0.0
230
1.0
  0
TEXT
  8
10
  6
CONTINUOUS
 62
   134
  5
13D
 10
945174.385
 20
7242926.182
 30
0.0
 40
13.999
  1
52
 50
357.9839
  7
ROMANS
 72
     4
 11
945185.706402
 21
7242932.787799
 31
0.0
210
0.0
220
0.0
230
1.0
  0
TEXT
  8
10
  6
CONTINUOUS
 62
   134
  5
13E
 10
945072.862
 20
7242929.756
 30
0.0
 40
13.999
  1
53
 50
357.9839
  7
ROMANS
 72
     4
 11
945084.183402
 21
7242936.361799
 31
0.0
210
0.0
220
0.0
230
1.0
  0
TEXT
  8
10
  6
CONTINUOUS
 62
   134
  5
13F
 10
944962.109
 20
7242933.654
 30
0.0
 40
13.999
  1
54
 50
357.9839
  7
ROMANS
 72
     4
 11
944973.430402
 21
7242940.259799
 31
0.0
210
0.0
220
0.0
230
1.0
  0
TEXT
  8
10
  6
CONTINUOUS
 62
   134
  5
140
 10
944799.056
 20
7242939.394
 30
0.0
 40
13.999
  1
55
 50
357.9839
  7
ROMANS
 72
     4
 11
944810.395391
 21
7242945.999165
 31
0.0
210
0.0
220
0.0
230
1.0
  0
TEXT
  8
10
  6
CONTINUOUS
 62
   134
  5
141
 10
944697.973
 20
7242942.952
 30
0.0
 40
13.999
  1
56
 50
357.9839
  7
ROMANS
 72
     4
 11
944709.622199
 21
7242949.546259
 31
0.0
210
0.0
220
0.0
230
1.0
  0
TEXT
  8
10
  6
CONTINUOUS
 62
   134
  5
142
 10
944604.472
 20
7242946.244
 30
0.0
 40
13.999
  1
57
 50
357.9839
  7
ROMANS
 72
     4
 11
944615.793402
 21
7242952.849799
 31
0.0
210
0.0
220
0.0
230
1.0
  0
TEXT
  8
10
  6
CONTINUOUS
 62
   134
  5
143
 10
944501.411
 20
7242949.872
 30
0.0
 40
13.999
  1
58
 50
357.9839
  7
ROMANS
 72
     4
 11
944512.732402
 21
7242956.477799
 31
0.0
210
0.0
220
0.0
230
1.0
  0
TEXT
  8
10
  6
CONTINUOUS
 62
   134
  5
144
 10
944541.117
 20
7243159.008
 30
0.0
 40
13.999
  1
59
 50
357.9839
  7
ROMANS
 72
     4
 11
944552.438402
 21
7243165.613799
 31
0.0
210
0.0
220
0.0
230
1.0
  0
TEXT
  8
10
  6
CONTINUOUS
 62
   134
  5
145
 10
944652.857
 20
7243155.075
 30
0.0
 40
13.999
  1
60
 50
357.9839
  7
ROMANS
 72
     4
 11
944664.735057
 21
7243161.661203
 31
0.0
210
0.0
220
0.0
230
1.0
  0
TEXT
  8
10
  6
CONTINUOUS
 62
   134
  5
146
 10
944758.233
 20
7243151.365
 30
0.0
 40
13.999
  1
61
 50
357.9839
  7
ROMANS
 72
     4
 11
944767.805486
 21
7243158.032364
 31
0.0
210
0.0
220
0.0
230
1.0
  0
TEXT
  8
10
  6
CONTINUOUS
 62
   134
  5
147
 10
944859.532
 20
7243147.799
 30
0.0
 40
13.999
  1
62
 50
357.9839
  7
ROMANS
 72
     4
 11
944870.853402
 21
7243154.404799
 31
0.0
210
0.0
220
0.0
230
1.0
  0
TEXT
  8
10
  6
CONTINUOUS
 62
   134
  5
148
 10
944962.595
 20
7243144.171
 30
0.0
 40
13.999
  1
63
 50
357.9839
  7
ROMANS
 72
     4
 11
944973.916402
 21
7243150.776799
 31
0.0
210
0.0
220
0.0
230
1.0
  0
TEXT
  8
10
  6
CONTINUOUS
 62
   134
  5
149
 10
945065.657
 20
7243140.543
 30
0.0
 40
13.999
  1
64
 50
357.9839
  7
ROMANS
 72
     4
 11
945076.978402
 21
7243147.148799
 31
0.0
210
0.0
220
0.0
230
1.0
  0
TEXT
  8
10
  6
CONTINUOUS
 62
   134
  5
14A
 10
945174.872
 20
7243136.699
 30
0.0
 40
13.999
  1
65
 50
357.9839
  7
ROMANS
 72
     4
 11
945186.211391
 21
7243143.304165
 31
0.0
210
0.0
220
0.0
230
1.0
  0
TEXT
  8
10
  6
CONTINUOUS
 62
   134
  5
14B
 10
945283.757
 20
7243132.866
 30
0.0
 40
13.999
  1
66
 50
357.9839
  7
ROMANS
 72
     4
 11
945295.406199
 21
7243139.460259
 31
0.0
210
0.0
220
0.0
230
1.0
  0
TEXT
  8
10
  6
CONTINUOUS
 62
   134
  5
14C
 10
945382.533
 20
7243129.389
 30
0.0
 40
13.999
  1
67
 50
357.9839
  7
ROMANS
 72
     4
 11
945393.854402
 21
7243135.994799
 31
0.0
210
0.0
220
0.0
230
1.0
  0
TEXT
  8
10
  6
CONTINUOUS
 62
   134
  5
14D
 10
945493.287
 20
7243125.49
 30
0.0
 40
13.999
  1
68
 50
357.9839
  7
ROMANS
 72
     4
 11
945504.608402
 21
7243132.095799
 31
0.0
210
0.0
220
0.0
230
1.0
  0
TEXT
  8
10
  6
CONTINUOUS
 62
   134
  5
14E
 10
945593.273
 20
7243121.97
 30
0.0
 40
13.999
  1
69
 50
357.9839
  7
ROMANS
 72
     4
 11
945604.594402
 21
7243128.575799
 31
0.0
210
0.0
220
0.0
230
1.0
  0
TEXT
  8
10
  6
CONTINUOUS
 62
   134
  5
14F
 10
945783.182
 20
7243019.729
 30
0.0
 40
13.999
  1
70
 50
357.9839
  7
ROMANS
 72
     4
 11
945795.060057
 21
7243026.315203
 31
0.0
210
0.0
220
0.0
230
1.0
  0
TEXT
  8
10
  6
CONTINUOUS
 62
   134
  5
150
 10
945781.54
 20
7242907.277
 30
0.0
 40
13.999
  1
71
 50
357.9839
  7
ROMANS
 72
     4
 11
945791.112486
 21
7242913.944364
 31
0.0
210
0.0
220
0.0
230
1.0
  0
TEXT
  8
10
  6
CONTINUOUS
 62
   134
  5
151
 10
945775.333
 20
7242781.114
 30
0.0
 40
13.999
  1
72
 50
357.9839
  7
ROMANS
 72
     4
 11
945786.654402
 21
7242787.719799
 31
0.0
210
0.0
220
0.0
230
1.0
  0
TEXT
  8
10
  6
CONTINUOUS
 62
   134
  5
152
 10
945942.601
 20
7242807.592
 30
0.0
 40
13.999
  1
73
 50
357.9839
  7
ROMANS
 72
     4
 11
945953.922402
 21
7242814.197799
 31
0.0
210
0.0
220
0.0
230
1.0
  0
TEXT
  8
10
  6
CONTINUOUS
 62
   134
  5
153
 10
945946.286
 20
7242912.267
 30
0.0
 40
13.999
  1
74
 50
357.9839
  7
ROMANS
 72
     4
 11
945957.607402
 21
7242918.872799
 31
0.0
210
0.0
220
0.0
230
1.0
  0
TEXT
  8
10
  6
CONTINUOUS
 62
   134
  5
154
 10
945949.917
 20
7243015.402
 30
0.0
 40
13.999
  1
75
 50
357.9839
  7
ROMANS
 72
     4
 11
945961.256391
 21
7243022.007165
 31
0.0
210
0.0
220
0.0
230
1.0
  0
TEXT
  8
11
  6
CONTINUOUS
 62
     7
  5
155
 10
944959.945
 20
7242834.595
 30
0.0
 40
8.0
  1
100'
 50
357.9839
  7
ROMANS
 72
     4
 11
944973.410468
 21
7242838.123465
 31
0.0
210
0.0
220
0.0
230
1.0
  0
TEXT
  8
11
  6
CONTINUOUS
 62
     7
  5
156
 10
944923.824
 20
7242766.77
 30
0.0
 40
8.0
  1
135'
 50
87.9839
  7
ROMANS
 72
     4
 11
944920.295535
 21
7242780.235468
 31
0.0
210
0.0
220
0.0
230
1.0
  0
TEXT
  8
11
  6
CONTINUOUS
 62
     7
  5
157
 10
945012.179
 20
7242753.437
 30
0.0
 40
8.0
  1
150'
 50
87.9839
  7
ROMANS
 72
     4
 11
945008.650535
 21
7242766.902468
 31
0.0
210
0.0
220
0.0
230
1.0
  0
TEXT
  8
11
  6
CONTINUOUS
 62
     7
  5
158
 10
944960.488
 20
7242695.17
 30
0.0
 40
8.0
  1
85'
 50
357.9839
  7
ROMANS
 72
     4
 11
944969.955944
 21
7242698.839186
 31
0.0
210
0.0
220
0.0
230
1.0
  0
TEXT
  8
11
  6
CONTINUOUS
 62
     7
  5
159
 10
944922.071
 20
7242697.366
 30
0.0
 40
8.0
  1
R=15'
 50
42.9839
  7
ROMANS
 72
     4
 11
944932.023704
 21
7242712.109696
 31
0.0
210
0.0
220
0.0
230
1.0
  0
TEXT
  8
11
  6
CONTINUOUS
 62
     7
  5
15A
 10
945062.362
 20
7242691.44
 30
0.0
 40
8.0
  1
98'
 50
357.9839
  7
ROMANS
 72
     4
 11
945071.829944
 21
7242695.109186
 31
0.0
210
0.0
220
0.0
230
1.0
  0
TEXT
  8
11
  6
CONTINUOUS
 62
     7
  5
15B
 10
945154.603
 20
7242688.193
 30
0.0
 40
8.0
  1
98'
 50
357.9839
  7
ROMANS
 72
     4
 11
945164.070944
 21
7242691.862186
 31
0.0
210
0.0
220
0.0
230
1.0
  0
TEXT
  8
11
  6
CONTINUOUS
 62
     7
  5
15C
 10
945210.183
 20
7242746.467
 30
0.0
 40
8.0
  1
150'
 50
87.9839
  7
ROMANS
 72
     4
 11
945206.654535
 21
7242759.932468
 31
0.0
210
0.0
220
0.0
230
1.0
  0
TEXT
  8
11
  6
CONTINUOUS
 62
     7
  5
15D
 10
944875.963
 20
7242704.427
 30
0.0
 40
8.0
  1
60'
 50
357.9839
  7
ROMANS
 72
     4
 11
944885.430944
 21
7242708.096186
 31
0.0
210
0.0
220
0.0
230
1.0
  0
TEXT
  8
11
  6
CONTINUOUS
 62
     7
  5
15E
 10
945238.931
 20
7242684.857
 30
0.0
 40
8.0
  1
93.48'
 50
357.9839
  7
ROMANS
 72
     4
 11
945260.391516
 21
7242688.104022
 31
0.0
210
0.0
220
0.0
230
1.0
  0
TEXT
  8
11
  6
CONTINUOUS
 62
     7
  5
15F
 10
945257.607
 20
7242825.86
 30
0.0
 40
8.0
  1
98'
 50
357.9839
  7
ROMANS
 72
     4
 11
945267.074944
 21
7242829.529186
 31
0.0
210
0.0
220
0.0
230
1.0
  0
TEXT
  8
11
  6
CONTINUOUS
 62
     7
  5
160
 10
945357.092
 20
7242822.358
 30
0.0
 40
8.0
  1
98'
 50
357.9839
  7
ROMANS
 72
     4
 11
945366.559944
 21
7242826.027186
 31
0.0
210
0.0
220
0.0
230
1.0
  0
TEXT
  8
11
  6
CONTINUOUS
 62
     7
  5
161
 10
945456.578
 20
7242818.856
 30
0.0
 40
8.0
  1
98'
 50
357.9839
  7
ROMANS
 72
     4
 11
945466.045944
 21
7242822.525186
 31
0.0
210
0.0
220
0.0
230
1.0
  0
TEXT
  8
11
  6
CONTINUOUS
 62
     7
  5
162
 10
945558.256
 20
7242814.908
 30
0.0
 40
8.0
  1
120'
 50
357.9839
  7
ROMANS
 72
     4
 11
945571.721468
 21
7242818.436465
 31
0.0
210
0.0
220
0.0
230
1.0
  0
TEXT
  8
11
  6
CONTINUOUS
 62
     7
  5
163
 10
945617.953
 20
7242813.29
 30
0.0
 40
8.0
  1
27.73'
 50
357.9839
  7
ROMANS
 72
     4
 11
945639.413516
 21
7242816.537022
 31
0.0
210
0.0
220
0.0
230
1.0
  0
TEXT
  8
11
  6
CONTINUOUS
 62
     7
  5
164
 10
944616.611
 20
7242637.944
 30
0.0
 40
8.0
  1
100'
 50
357.9839
  7
ROMANS
 72
     4
 11
944630.076468
 21
7242641.472465
 31
0.0
210
0.0
220
0.0
230
1.0
  0
TEXT
  8
11
  6
CONTINUOUS
 62
     7
  5
165
 10
944530.166
 20
7242640.824
 30
0.0
 40
8.0
  1
85'
 50
357.9839
  7
ROMANS
 72
     4
 11
944539.633944
 21
7242644.493186
 31
0.0
210
0.0
220
0.0
230
1.0
  0
TEXT
  8
11
  6
CONTINUOUS
 62
     7
  5
166
 10
944485.018
 20
7242642.412
 30
0.0
 40
8.0
  1
R=15'
 50
312.9839
  7
ROMANS
 72
     4
 11
944499.761696
 21
7242632.459296
 31
0.0
210
0.0
220
0.0
230
1.0
  0
TEXT
  8
11
  6
CONTINUOUS
 62
     7
  5
167
 10
944586.551
 20
7242559.599
 30
0.0
 40
8.0
  1
150'
 50
87.9839
  7
ROMANS
 72
     4
 11
944583.022535
 21
7242573.064468
 31
0.0
210
0.0
220
0.0
230
1.0
  0
TEXT
  8
11
  6
CONTINUOUS
 62
     7
  5
168
 10
944717.815
 20
7242634.398
 30
0.0
 40
8.0
  1
100'
 50
357.9839
  7
ROMANS
 72
     4
 11
944731.280468
 21
7242637.926465
 31
0.0
210
0.0
220
0.0
230
1.0
  0
TEXT
  8
11
  6
CONTINUOUS
 62
     7
  5
169
 10
944823.181
 20
7242630.689
 30
0.0
 40
8.0
  1
100'
 50
357.9839
  7
ROMANS
 72
     4
 11
944836.646468
 21
7242634.217465
 31
0.0
210
0.0
220
0.0
230
1.0
  0
TEXT
  8
11
  6
CONTINUOUS
 62
     7
  5
16A
 10
944922.451
 20
7242627.195
 30
0.0
 40
8.0
  1
100'
 50
357.9839
  7
ROMANS
 72
     4
 11
944935.916468
 21
7242630.723465
 31
0.0
210
0.0
220
0.0
230
1.0
  0
TEXT
  8
11
  6
CONTINUOUS
 62
     7
  5
16B
 10
945020.852
 20
7242623.731
 30
0.0
 40
8.0
  1
100'
 50
357.9839
  7
ROMANS
 72
     4
 11
945034.317468
 21
7242627.259465
 31
0.0
210
0.0
220
0.0
230
1.0
  0
TEXT
  8
11
  6
CONTINUOUS
 62
     7
  5
16C
 10
945118.382
 20
7242620.298
 30
0.0
 40
8.0
  1
100'
 50
357.9839
  7
ROMANS
 72
     4
 11
945131.847468
 21
7242623.826465
 31
0.0
210
0.0
220
0.0
230
1.0
  0
TEXT
  8
11
  6
CONTINUOUS
 62
     7
  5
16D
 10
945219.393
 20
7242616.742
 30
0.0
 40
8.0
  1
100'
 50
357.9839
  7
ROMANS
 72
     4
 11
945232.858468
 21
7242620.270465
 31
0.0
210
0.0
220
0.0
230
1.0
  0
TEXT
  8
11
  6
CONTINUOUS
 62
     7
  5
16E
 10
945321.593
 20
7242473.546
 30
0.0
 40
8.0
  1
100'
 50
357.9839
  7
ROMANS
 72
     4
 11
945335.058468
 21
7242477.074465
 31
0.0
210
0.0
220
0.0
230
1.0
  0
TEXT
  8
11
  6
CONTINUOUS
 62
     7
  5
16F
 10
945412.158
 20
7242470.358
 30
0.0
 40
8.0
  1
100'
 50
357.9839
  7
ROMANS
 72
     4
 11
945425.623468
 21
7242473.886465
 31
0.0
210
0.0
220
0.0
230
1.0
  0
TEXT
  8
11
  6
CONTINUOUS
 62
     7
  5
170
 10
945522.455
 20
7242465.097
 30
0.0
 40
8.0
  1
117.29'
 50
357.9839
  7
ROMANS
 72
     4
 11
945547.91304
 21
7242468.203301
 31
0.0
210
0.0
220
0.0
230
1.0
  0
TEXT
  8
11
  6
CONTINUOUS
 62
     7
  5
171
 10
945592.062
 20
7242293.074
 30
0.0
 40
8.0
  1
124.14'
 50
357.9839
  7
ROMANS
 72
     4
 11
945617.52004
 21
7242296.180301
 31
0.0
210
0.0
220
0.0
230
1.0
  0
TEXT
  8
11
  6
CONTINUOUS
 62
     7
  5
172
 10
945497.398
 20
7242296.406
 30
0.0
 40
8.0
  1
98'
 50
357.9839
  7
ROMANS
 72
     4
 11
945506.865944
 21
7242300.075186
 31
0.0
210
0.0
220
0.0
230
1.0
  0
TEXT
  8
11
  6
CONTINUOUS
 62
     7
  5
173
 10
945394.545
 20
7242300.027
 30
0.0
 40
8.0
  1
98'
 50
357.9839
  7
ROMANS
 72
     4
 11
945404.012944
 21
7242303.696186
 31
0.0
210
0.0
220
0.0
230
1.0
  0
TEXT
  8
11
  6
CONTINUOUS
 62
     7
  5
174
 10
945299.368
 20
7242303.377
 30
0.0
 40
8.0
  1
98'
 50
357.9839
  7
ROMANS
 72
     4
 11
945308.835944
 21
7242307.046186
 31
0.0
210
0.0
220
0.0
230
1.0
  0
TEXT
  8
11
  6
CONTINUOUS
 62
     7
  5
175
 10
945201.504
 20
7242306.822
 30
0.0
 40
8.0
  1
98'
 50
357.9839
  7
ROMANS
 72
     4
 11
945210.971944
 21
7242310.491186
 31
0.0
210
0.0
220
0.0
230
1.0
  0
TEXT
  8
11
  6
CONTINUOUS
 62
     7
  5
176
 10
945100.187
 20
7242310.389
 30
0.0
 40
8.0
  1
98'
 50
357.9839
  7
ROMANS
 72
     4
 11
945109.654944
 21
7242314.058186
 31
0.0
210
0.0
220
0.0
230
1.0
  0
TEXT
  8
11
  6
CONTINUOUS
 62
     7
  5
177
 10
945004.242
 20
7242313.766
 30
0.0
 40
8.0
  1
98'
 50
357.9839
  7
ROMANS
 72
     4
 11
945013.709944
 21
7242317.435186
 31
0.0
210
0.0
220
0.0
230
1.0
  0
TEXT
  8
11
  6
CONTINUOUS
 62
     7
  5
178
 10
944906.763
 20
7242317.198
 30
0.0
 40
8.0
  1
98'
 50
357.9839
  7
ROMANS
 72
     4
 11
944916.230944
 21
7242320.867186
 31
0.0
210
0.0
220
0.0
230
1.0
  0
TEXT
  8
11
  6
CONTINUOUS
 62
     7
  5
179
 10
944809.283
 20
7242320.629
 30
0.0
 40
8.0
  1
98'
 50
357.9839
  7
ROMANS
 72
     4
 11
944818.750944
 21
7242324.298186
 31
0.0
210
0.0
220
0.0
230
1.0
  0
TEXT
  8
11
  6
CONTINUOUS
 62
     7
  5
17A
 10
944712.57
 20
7242324.034
 30
0.0
 40
8.0
  1
98'
 50
357.9839
  7
ROMANS
 72
     4
 11
944722.037944
 21
7242327.703186
 31
0.0
210
0.0
220
0.0
230
1.0
  0
TEXT
  8
11
  6
CONTINUOUS
 62
     7
  5
17B
 10
944612.789
 20
7242327.546
 30
0.0
 40
8.0
  1
98'
 50
357.9839
  7
ROMANS
 72
     4
 11
944622.256944
 21
7242331.215186
 31
0.0
210
0.0
220
0.0
230
1.0
  0
TEXT
  8
11
  6
CONTINUOUS
 62
     7
  5
17C
 10
944502.643
 20
7242331.424
 30
0.0
 40
8.0
  1
85.01'
 50
357.9839
  7
ROMANS
 72
     4
 11
944524.103516
 21
7242334.671022
 31
0.0
210
0.0
220
0.0
230
1.0
  0
TEXT
  8
11
  6
CONTINUOUS
 62
     7
  5
17D
 10
944504.625
 20
7242500.546
 30
0.0
 40
8.0
  1
101.01'
 50
357.9839
  7
ROMANS
 72
     4
 11
944530.08304
 21
7242503.652301
 31
0.0
210
0.0
220
0.0
230
1.0
  0
TEXT
  8
11
  6
CONTINUOUS
 62
     7
  5
17E
 10
944513.869
 20
7242470.061
 30
0.0
 40
8.0
  1
100'
 50
357.9839
  7
ROMANS
 72
     4
 11
944527.334468
 21
7242473.589465
 31
0.0
210
0.0
220
0.0
230
1.0
  0
TEXT
  8
11
  6
CONTINUOUS
 62
     7
  5
17F
 10
944487.189
 20
7242562.191
 30
0.0
 40
8.0
  1
135'
 50
87.9839
  7
ROMANS
 72
     4
 11
944483.660535
 21
7242575.656468
 31
0.0
210
0.0
220
0.0
230
1.0
  0
TEXT
  8
11
  6
CONTINUOUS
 62
     7
  5
180
 10
944481.387
 20
7242397.356
 30
0.0
 40
8.0
  1
135'
 50
87.9839
  7
ROMANS
 72
     4
 11
944477.858535
 21
7242410.821468
 31
0.0
210
0.0
220
0.0
230
1.0
  0
TEXT
  8
11
  6
CONTINUOUS
 62
     7
  5
181
 10
944580.657
 20
7242392.153
 30
0.0
 40
8.0
  1
150'
 50
87.9839
  7
ROMANS
 72
     4
 11
944577.128535
 21
7242405.618468
 31
0.0
210
0.0
220
0.0
230
1.0
  0
TEXT
  8
11
  6
CONTINUOUS
 62
     7
  5
182
 10
944478.934
 20
7242334.59
 30
0.0
 40
8.0
  1
R=15'
 50
42.9839
  7
ROMANS
 72
     4
 11
944488.886704
 21
7242349.333696
 31
0.0
210
0.0
220
0.0
230
1.0
  0
TEXT
  8
11
  6
CONTINUOUS
 62
     7
  5
183
 10
944471.617
 20
7242261.741
 30
0.0
 40
8.0
  1
R=15'
 50
312.9839
  7
ROMANS
 72
     4
 11
944486.360696
 21
7242251.788296
 31
0.0
210
0.0
220
0.0
230
1.0
  0
TEXT
  8
11
  6
CONTINUOUS
 62
     7
  5
184
 10
944518.584
 20
7242260.264
 30
0.0
 40
8.0
  1
95'
 50
357.9839
  7
ROMANS
 72
     4
 11
944528.051944
 21
7242263.933186
 31
0.0
210
0.0
220
0.0
230
1.0
  0
TEXT
  8
11
  6
CONTINUOUS
 62
     7
  5
185
 10
944446.433
 20
7242262.804
 30
0.0
 40
8.0
  1
30'
 50
357.9839
  7
ROMANS
 72
     4
 11
944455.900944
 21
7242266.473186
 31
0.0
210
0.0
220
0.0
230
1.0
  0
TEXT
  8
11
  6
CONTINUOUS
 62
     7
  5
186
 10
944459.677
 20
7242639.02
 30
0.0
 40
8.0
  1
30'
 50
357.9839
  7
ROMANS
 72
     4
 11
944469.144944
 21
7242642.689186
 31
0.0
210
0.0
220
0.0
230
1.0
  0
TEXT
  8
11
  6
CONTINUOUS
 62
     7
  5
187
 10
944502.495
 20
7242670.702
 30
0.0
 40
8.0
  1
60'
 50
87.9839
  7
ROMANS
 72
     4
 11
944498.825814
 21
7242680.169944
 31
0.0
210
0.0
220
0.0
230
1.0
  0
TEXT
  8
11
  6
CONTINUOUS
 62
     7
  5
188
 10
944487.481
 20
7242484.35
 30
0.0
 40
8.0
  1
20'
 50
87.9839
  7
ROMANS
 72
     4
 11
944483.811814
 21
7242493.817944
 31
0.0
210
0.0
220
0.0
230
1.0
  0
TEXT
  8
11
  6
CONTINUOUS
 62
     7
  5
189
 10
944493.03
 20
7242292.661
 30
0.0
 40
8.0
  1
60'
 50
87.9839
  7
ROMANS
 72
     4
 11
944489.360814
 21
7242302.128944
 31
0.0
210
0.0
220
0.0
230
1.0
  0
TEXT
  8
11
  6
CONTINUOUS
 62
     7
  5
18A
 10
944475.659
 20
7242104.854
 30
0.0
 40
8.0
  1
20'
 50
87.9839
  7
ROMANS
 72
     4
 11
944471.989814
 21
7242114.321944
 31
0.0
210
0.0
220
0.0
230
1.0
  0
TEXT
  8
11
  6
CONTINUOUS
 62
     7
  5
18B
 10
944473.529
 20
7242169.796
 30
0.0
 40
8.0
  1
135.01'
 50
87.9839
  7
ROMANS
 72
     4
 11
944470.422699
 21
7242195.25404
 31
0.0
210
0.0
220
0.0
230
1.0
  0
TEXT
  8
11
  6
CONTINUOUS
 62
     7
  5
18C
 10
944583.05
 20
7242169.62
 30
0.0
 40
8.0
  1
150.04'
 50
87.9839
  7
ROMANS
 72
     4
 11
944579.943699
 21
7242195.07804
 31
0.0
210
0.0
220
0.0
230
1.0
  0
TEXT
  8
11
  6
CONTINUOUS
 62
     7
  5
18D
 10
944616.373
 20
7242257.108
 30
0.0
 40
8.0
  1
105'
 50
357.9839
  7
ROMANS
 72
     4
 11
944629.838468
 21
7242260.636465
 31
0.0
210
0.0
220
0.0
230
1.0
  0
TEXT
  8
11
  6
CONTINUOUS
 62
     7
  5
18E
 10
944722.615
 20
7242253.368
 30
0.0
 40
8.0
  1
105'
 50
357.9839
  7
ROMANS
 72
     4
 11
944736.080468
 21
7242256.896465
 31
0.0
210
0.0
220
0.0
230
1.0
  0
TEXT
  8
11
  6
CONTINUOUS
 62
     7
  5
18F
 10
944832.244
 20
7242249.508
 30
0.0
 40
8.0
  1
105'
 50
357.9839
  7
ROMANS
 72
     4
 11
944845.709468
 21
7242253.036465
 31
0.0
210
0.0
220
0.0
230
1.0
  0
TEXT
  8
11
  6
CONTINUOUS
 62
     7
  5
190
 10
944936.64
 20
7242245.833
 30
0.0
 40
8.0
  1
105'
 50
357.9839
  7
ROMANS
 72
     4
 11
944950.105468
 21
7242249.361465
 31
0.0
210
0.0
220
0.0
230
1.0
  0
TEXT
  8
11
  6
CONTINUOUS
 62
     7
  5
191
 10
945040.725
 20
7242242.169
 30
0.0
 40
8.0
  1
105'
 50
357.9839
  7
ROMANS
 72
     4
 11
945054.190468
 21
7242245.697465
 31
0.0
210
0.0
220
0.0
230
1.0
  0
TEXT
  8
11
  6
CONTINUOUS
 62
     7
  5
192
 10
945149.124
 20
7242238.354
 30
0.0
 40
8.0
  1
105'
 50
357.9839
  7
ROMANS
 72
     4
 11
945162.589468
 21
7242241.882465
 31
0.0
210
0.0
220
0.0
230
1.0
  0
TEXT
  8
11
  6
CONTINUOUS
 62
     7
  5
193
 10
945253.21
 20
7242234.69
 30
0.0
 40
8.0
  1
105'
 50
357.9839
  7
ROMANS
 72
     4
 11
945266.675468
 21
7242238.218465
 31
0.0
210
0.0
220
0.0
230
1.0
  0
TEXT
  8
11
  6
CONTINUOUS
 62
     7
  5
194
 10
945350.83
 20
7242231.253
 30
0.0
 40
8.0
  1
105'
 50
357.9839
  7
ROMANS
 72
     4
 11
945364.295468
 21
7242234.781465
 31
0.0
210
0.0
220
0.0
230
1.0
  0
TEXT
  8
11
  6
CONTINUOUS
 62
     7
  5
195
 10
945466.618
 20
7242227.177
 30
0.0
 40
8.0
  1
105'
 50
357.9839
  7
ROMANS
 72
     4
 11
945480.083468
 21
7242230.705465
 31
0.0
210
0.0
220
0.0
230
1.0
  0
TEXT
  8
11
  6
CONTINUOUS
 62
     7
  5
196
 10
945568.241
 20
7242223.6
 30
0.0
 40
8.0
  1
105'
 50
357.9839
  7
ROMANS
 72
     4
 11
945581.706468
 21
7242227.128465
 31
0.0
210
0.0
220
0.0
230
1.0
  0
TEXT
  8
11
  6
CONTINUOUS
 62
     7
  5
197
 10
945653.924
 20
7242220.584
 30
0.0
 40
8.0
  1
82.32'
 50
357.9839
  7
ROMANS
 72
     4
 11
945675.384516
 21
7242223.831022
 31
0.0
210
0.0
220
0.0
230
1.0
  0
TEXT
  8
11
  6
CONTINUOUS
 62
     7
  5
198
 10
945659.773
 20
7242079.116
 30
0.0
 40
8.0
  1
139.29'
 50
357.9839
  7
ROMANS
 72
     4
 11
945685.23104
 21
7242082.222301
 31
0.0
210
0.0
220
0.0
230
1.0
  0
TEXT
  8
11
  6
CONTINUOUS
 62
     7
  5
199
 10
945631.537
 20
7242130.549
 30
0.0
 40
8.0
  1
150.36'
 50
87.9839
  7
ROMANS
 72
     4
 11
945628.430699
 21
7242156.00704
 31
0.0
210
0.0
220
0.0
230
1.0
  0
TEXT
  8
11
  6
CONTINUOUS
 62
     7
  5
19A
 10
945526.835
 20
7242134.235
 30
0.0
 40
8.0
  1
150.33'
 50
87.9839
  7
ROMANS
 72
     4
 11
945523.728699
 21
7242159.69304
 31
0.0
210
0.0
220
0.0
230
1.0
  0
TEXT
  8
11
  6
CONTINUOUS
 62
     7
  5
19B
 10
945421.657
 20
7242141.909
 30
0.0
 40
8.0
  1
150.3'
 50
87.9839
  7
ROMANS
 72
     4
 11
945418.409978
 21
7242163.369516
 31
0.0
210
0.0
220
0.0
230
1.0
  0
TEXT
  8
11
  6
CONTINUOUS
 62
     7
  5
19C
 10
945316.199
 20
7242141.65
 30
0.0
 40
8.0
  1
150.27'
 50
87.9839
  7
ROMANS
 72
     4
 11
945313.092699
 21
7242167.10804
 31
0.0
210
0.0
220
0.0
230
1.0
  0
TEXT
  8
11
  6
CONTINUOUS
 62
     7
  5
19D
 10
945211.495
 20
7242145.336
 30
0.0
 40
8.0
  1
150.24'
 50
87.9839
  7
ROMANS
 72
     4
 11
945208.388699
 21
7242170.79404
 31
0.0
210
0.0
220
0.0
230
1.0
  0
TEXT
  8
11
  6
CONTINUOUS
 62
     7
  5
19E
 10
945106.933
 20
7242152.988
 30
0.0
 40
8.0
  1
150.2'
 50
87.9839
  7
ROMANS
 72
     4
 11
945103.685978
 21
7242174.448516
 31
0.0
210
0.0
220
0.0
230
1.0
  0
TEXT
  8
11
  6
CONTINUOUS
 62
     7
  5
19F
 10
945001.475
 20
7242152.729
 30
0.0
 40
8.0
  1
150.17'
 50
87.9839
  7
ROMANS
 72
     4
 11
944998.368699
 21
7242178.18704
 31
0.0
210
0.0
220
0.0
230
1.0
  0
TEXT
  8
11
  6
CONTINUOUS
 62
     7
  5
1A0
 10
944897.081
 20
7242156.404
 30
0.0
 40
8.0
  1
150.14'
 50
87.9839
  7
ROMANS
 72
     4
 11
944893.974699
 21
7242181.86204
 31
0.0
210
0.0
220
0.0
230
1.0
  0
TEXT
  8
11
  6
CONTINUOUS
 62
     7
  5
1A1
 10
944791.148
 20
7242160.133
 30
0.0
 40
8.0
  1
150.11'
 50
87.9839
  7
ROMANS
 72
     4
 11
944788.041699
 21
7242185.59104
 31
0.0
210
0.0
220
0.0
230
1.0
  0
TEXT
  8
11
  6
CONTINUOUS
 62
     7
  5
1A2
 10
944686.445
 20
7242163.819
 30
0.0
 40
8.0
  1
150.08'
 50
87.9839
  7
ROMANS
 72
     4
 11
944683.338699
 21
7242189.27704
 31
0.0
210
0.0
220
0.0
230
1.0
  0
TEXT
  8
11
  6
CONTINUOUS
 62
     7
  5
1A3
 10
945787.434
 20
7243076.56
 30
0.0
 40
8.0
  1
150'
 50
357.9839
  7
ROMANS
 72
     4
 11
945800.899468
 21
7243080.088465
 31
0.0
210
0.0
220
0.0
230
1.0
  0
TEXT
  8
11
  6
CONTINUOUS
 62
     7
  5
1A4
 10
945960.987
 20
7243070.45
 30
0.0
 40
8.0
  1
150'
 50
357.9839
  7
ROMANS
 72
     4
 11
945974.452468
 21
7243073.978465
 31
0.0
210
0.0
220
0.0
230
1.0
  0
TEXT
  8
11
  6
CONTINUOUS
 62
     7
  5
1A5
 10
945781.934
 20
7242853.168
 30
0.0
 40
8.0
  1
150'
 50
357.9839
  7
ROMANS
 72
     4
 11
945795.399468
 21
7242856.696465
 31
0.0
210
0.0
220
0.0
230
1.0
  0
TEXT
  8
11
  6
CONTINUOUS
 62
     7
  5
1A6
 10
945951.264
 20
7242861.403
 30
0.0
 40
8.0
  1
150'
 50
357.9839
  7
ROMANS
 72
     4
 11
945964.729468
 21
7242864.931465
 31
0.0
210
0.0
220
0.0
230
1.0
  0
TEXT
  8
11
  6
CONTINUOUS
 62
     7
  5
1A7
 10
945876.384
 20
7243072.837
 30
0.0
 40
8.0
  1
20'
 50
357.9839
  7
ROMANS
 72
     4
 11
945885.851944
 21
7243076.506186
 31
0.0
210
0.0
220
0.0
230
1.0
  0
TEXT
  8
11
  6
CONTINUOUS
 62
     7
  5
1A8
 10
946070.668
 20
7243176.767
 30
0.0
 40
8.0
  1
60'
 50
357.9839
  7
ROMANS
 72
     4
 11
946080.135944
 21
7243180.436186
 31
0.0
210
0.0
220
0.0
230
1.0
  0
TEXT
  8
11
  6
CONTINUOUS
 62
     7
  5
1A9
 10
946118.603
 20
7243188.053
 30
0.0
 40
8.0
  1
20'
 50
87.9839
  7
ROMANS
 72
     4
 11
946114.933814
 21
7243197.520944
 31
0.0
210
0.0
220
0.0
230
1.0
  0
TEXT
  8
11
  6
CONTINUOUS
 62
     7
  5
1AA
 10
946055.493
 20
7242779.596
 30
0.0
 40
8.0
  1
60'
 50
357.9839
  7
ROMANS
 72
     4
 11
946064.960944
 21
7242783.265186
 31
0.0
210
0.0
220
0.0
230
1.0
  0
TEXT
  8
11
  6
CONTINUOUS
 62
     7
  5
1AB
 10
946040.56
 20
7243011.096
 30
0.0
 40
8.0
  1
110'
 50
87.9839
  7
ROMANS
 72
     4
 11
946037.031535
 21
7243024.561468
 31
0.0
210
0.0
220
0.0
230
1.0
  0
TEXT
  8
11
  6
CONTINUOUS
 62
     7
  5
1AC
 10
945725.957
 20
7242905.646
 30
0.0
 40
8.0
  1
110'
 50
87.9839
  7
ROMANS
 72
     4
 11
945722.428535
 21
7242919.111468
 31
0.0
210
0.0
220
0.0
230
1.0
  0
TEXT
  8
11
  6
CONTINUOUS
 62
     7
  5
1AD
 10
945730.095
 20
7243023.208
 30
0.0
 40
8.0
  1
115'
 50
87.9839
  7
ROMANS
 72
     4
 11
945726.566535
 21
7243036.673468
 31
0.0
210
0.0
220
0.0
230
1.0
  0
TEXT
  8
11
  6
CONTINUOUS
 62
     7
  5
1AE
 10
946036.331
 20
7242907.733
 30
0.0
 40
8.0
  1
100'
 50
87.9839
  7
ROMANS
 72
     4
 11
946032.802535
 21
7242921.198468
 31
0.0
210
0.0
220
0.0
230
1.0
  0
TEXT
  8
11
  6
CONTINUOUS
 62
     7
  5
1AF
 10
946032.452
 20
7242797.539
 30
0.0
 40
8.0
  1
90.46'
 50
87.9839
  7
ROMANS
 72
     4
 11
946029.204978
 21
7242818.999516
 31
0.0
210
0.0
220
0.0
230
1.0
  0
TEXT
  8
11
  6
CONTINUOUS
 62
     7
  5
1B0
 10
945891.338
 20
7242784.931
 30
0.0
 40
8.0
  1
140.46'
 50
87.9839
  7
ROMANS
 72
     4
 11
945888.231699
 21
7242810.38904
 31
0.0
210
0.0
220
0.0
230
1.0
  0
TEXT
  8
11
  6
CONTINUOUS
 62
     7
  5
1B1
 10
945862.483
 20
7242771.158
 30
0.0
 40
8.0
  1
132.46'
 50
87.9839
  7
ROMANS
 72
     4
 11
945859.376699
 21
7242796.61604
 31
0.0
210
0.0
220
0.0
230
1.0
  0
TEXT
  8
11
  6
CONTINUOUS
 62
     7
  5
1B2
 10
945714.51
 20
7242842.468
 30
0.0
 40
8.0
  1
25.16'
 50
357.9839
  7
ROMANS
 72
     4
 11
945735.970516
 21
7242845.715022
 31
0.0
210
0.0
220
0.0
230
1.0
  0
TEXT
  8
11
  6
CONTINUOUS
 62
     7
  5
1B3
 10
945559.684
 20
7242354.629
 30
0.0
 40
8.0
  1
150'
 50
87.9839
  7
ROMANS
 72
     4
 11
945556.155535
 21
7242368.094468
 31
0.0
210
0.0
220
0.0
230
1.0
  0
TEXT
  8
11
  6
CONTINUOUS
 62
     7
  5
1B4
 10
945585.078
 20
7242434.123
 30
0.0
 40
8.0
  1
93.21'
 50
357.9839
  7
ROMANS
 72
     4
 11
945606.538516
 21
7242437.370022
 31
0.0
210
0.0
220
0.0
230
1.0
  0
TEXT
  8
11
  6
CONTINUOUS
 62
     7
  5
1B5
 10
945484.948
 20
7242507.837
 30
0.0
 40
8.0
  1
132.88'
 50
87.9839
  7
ROMANS
 72
     4
 11
945481.841699
 21
7242533.29504
 31
0.0
210
0.0
220
0.0
230
1.0
  0
TEXT
  8
11
  6
CONTINUOUS
 62
     7
  5
1B6
 10
945384.932
 20
7242520.017
 30
0.0
 40
8.0
  1
146.62'
 50
87.9839
  7
ROMANS
 72
     4
 11
945381.825699
 21
7242545.47504
 31
0.0
210
0.0
220
0.0
230
1.0
  0
TEXT
  8
11
  6
CONTINUOUS
 62
     7
  5
1B7
 10
945285.783
 20
7242535.421
 30
0.0
 40
8.0
  1
150'
 50
87.9839
  7
ROMANS
 72
     4
 11
945282.254535
 21
7242548.886468
 31
0.0
210
0.0
220
0.0
230
1.0
  0
TEXT
  8
11
  6
CONTINUOUS
 62
     7
  5
1B8
 10
945315.813
 20
7242720.532
 30
0.0
 40
8.0
  1
150.01'
 50
87.9839
  7
ROMANS
 72
     4
 11
945312.706699
 21
7242745.99004
 31
0.0
210
0.0
220
0.0
230
1.0
  0
TEXT
  8
11
  6
CONTINUOUS
 62
     7
  5
1B9
 10
945413.934
 20
7242729.338
 30
0.0
 40
8.0
  1
155.16'
 50
87.9839
  7
ROMANS
 72
     4
 11
945410.827699
 21
7242754.79604
 31
0.0
210
0.0
220
0.0
230
1.0
  0
TEXT
  8
11
  6
CONTINUOUS
 62
     7
  5
1BA
 10
945511.665
 20
7242716.486
 30
0.0
 40
8.0
  1
169.89'
 50
87.9839
  7
ROMANS
 72
     4
 11
945508.558699
 21
7242741.94404
 31
0.0
210
0.0
220
0.0
230
1.0
  0
TEXT
  8
11
  6
CONTINUOUS
 62
     7
  5
1BB
 10
945597.556
 20
7242683.504
 30
0.0
 40
8.0
  1
193.14'
 50
73.922978
  7
ROMANS
 72
     1
 11
945596.884328
 21
7242710.061668
 31
0.0
210
0.0
220
0.0
230
1.0
 73
     3
  0
POLYLINE
  8
21
  6
DASHDOT
 62
     7
  5
1BC
 66
     1
 10
0.0
 20
0.0
 30
0.0
  0
VERTEX
  8
21
  6
DASHDOT
 62
     7
  5
1BD
 10
945242.265
 20
7243215.02
 30
0.0
  0
VERTEX
  8
21
  6
DASHDOT
 62
     7
  5
1BE
 10
945237.093
 20
7243065.11
 30
0.0
  0
VERTEX
  8
21
  6
DASHDOT
 62
     7
  5
1BF
 10
945239.092
 20
7243065.04
 30
0.0
  0
VERTEX
  8
21
  6
DASHDOT
 62
     7
  5
1C0
 10
945244.265
 20
7243214.951
 30
0.0
  0
VERTEX
  8
21
  6
DASHDOT
 62
     7
  5
1C1
 10
945242.265
 20
7243215.02
 30
0.0
  0
SEQEND
  8
21
  6
DASHDOT
 62
     7
  5
1C2
  0
LINE
  8
21
  6
DASHDOT
 62
     7
  5
1C3
 10
945094.725
 20
7242099.241
 30
0.0
 11
945096.724
 21
7242099.172
 31
0.0
  0
POLYLINE
  8
21
  6
DASHDOT
 62
     7
  5
1C4
 66
     1
 10
0.0
 20
0.0
 30
0.0
  0
VERTEX
  8
21
  6
DASHDOT
 62
     7
  5
1C5
 10
945099.905
 20
7242249.355
 30
0.0
  0
VERTEX
  8
21
  6
DASHDOT
 62
     7
  5
1C6
 10
945094.725
 20
7242099.241
 30
0.0
  0
VERTEX
  8
21
  6
DASHDOT
 62
     7
  5
1C7
 10
945096.724
 20
7242099.172
 30
0.0
  0
VERTEX
  8
21
  6
DASHDOT
 62
     7
  5
1C8
 10
945101.903
 20
7242249.286
 30
0.0
  0
VERTEX
  8
21
  6
DASHDOT
 62
     7
  5
1C9
 10
945099.905
 20
7242249.355
 30
0.0
  0
SEQEND
  8
21
  6
DASHDOT
 62
     7
  5
1CA
  0
LINE
  8
21
  6
DASHDOT
 62
     7
  5
1CB
 10
945307.94
 20
7242682.423
 30
0.0
 11
945305.941
 21
7242682.494
 31
0.0
  0
POLYLINE
  8
21
  6
DASHDOT
 62
     7
  5
1CC
 66
     1
 10
0.0
 20
0.0
 30
0.0
  0
VERTEX
  8
21
  6
DASHDOT
 62
     7
  5
1CD
 10
945311.114
 20
7242832.418
 30
0.0
  0
VERTEX
  8
21
  6
DASHDOT
 62
     7
  5
1CE
 10
945305.941
 20
7242682.494
 30
0.0
  0
VERTEX
  8
21
  6
DASHDOT
 62
     7
  5
1CF
 10
945307.94
 20
7242682.423
 30
0.0
  0
VERTEX
  8
21
  6
DASHDOT
 62
     7
  5
1D0
 10
945313.113
 20
7242832.349
 30
0.0
  0
VERTEX
  8
21
  6
DASHDOT
 62
     7
  5
1D1
 10
945311.114
 20
7242832.418
 30
0.0
  0
SEQEND
  8
21
  6
DASHDOT
 62
     7
  5
1D2
  0
TEXT
  8
22
  6
CONTINUOUS
 62
     3
  5
1D3
 10
945318.665
 20
7242779.611
 30
0.0
 40
6.0
  1
2'USE-LPL
 50
87.9839
  7
ROMANS
 72
     4
 11
945316.57275
 21
7242805.450601
 31
0.0
210
0.0
220
0.0
230
1.0
  0
TEXT
  8
11
  6
CONTINUOUS
 62
     7
  5
1D4
 10
945054.49
 20
7243233.171
 30
0.0
 40
8.0
  1
1256.92'
 50
357.9839
  7
ROMANS
 72
     4
 11
945083.945564
 21
7243236.13658
 31
0.0
210
0.0
220
0.0
230
1.0
  0
TEXT
  8
11
  6
CONTINUOUS
 62
     7
  5
1D5
 10
946052.43
 20
7243114.941
 30
0.0
 40
8.0
  1
129.84'
 50
87.9839
  7
ROMANS
 72
     4
 11
946049.323699
 21
7243140.39904
 31
0.0
210
0.0
220
0.0
230
1.0
  0
TEXT
  8
11
  6
CONTINUOUS
 62
     7
  5
1D6
 10
946099.375
 20
7242978.775
 30
0.0
 40
8.0
  1
398.62'
 50
87.9839
  7
ROMANS
 72
     4
 11
946096.268699
 21
7243004.23304
 31
0.0
210
0.0
220
0.0
230
1.0
  0
TEXT
  8
11
  6
CONTINUOUS
 62
     7
  5
1D7
 10
946347.305
 20
7242758.13
 30
0.0
 40
8.0
  1
280.24'
 50
357.9839
  7
ROMANS
 72
     4
 11
946372.76304
 21
7242761.236301
 31
0.0
210
0.0
220
0.0
230
1.0
  0
TEXT
  8
11
  6
CONTINUOUS
 62
     7
  5
1D8
 10
946453.521
 20
7242406.883
 30
0.0
 40
8.0
  1
730.18'
 50
87.9839
  7
ROMANS
 72
     4
 11
946450.414699
 21
7242432.34104
 31
0.0
210
0.0
220
0.0
230
1.0
  0
TEXT
  8
11
  6
CONTINUOUS
 62
     7
  5
1D9
 10
946483.187
 20
7243175.528
 30
0.0
 40
8.0
  1
20'
 50
87.9839
  7
ROMANS
 72
     4
 11
946479.517814
 21
7243184.995944
 31
0.0
210
0.0
220
0.0
230
1.0
  0
TEXT
  8
11
  6
CONTINUOUS
 62
     7
  5
1DA
 10
946310.379
 20
7243178.568
 30
0.0
 40
8.0
  1
376.68'
 50
357.9839
  7
ROMANS
 72
     4
 11
946335.83704
 21
7243181.674301
 31
0.0
210
0.0
220
0.0
230
1.0
  0
TEXT
  8
11
  6
CONTINUOUS
 62
     7
  5
1DB
 10
946178.558
 20
7243194.587
 30
0.0
 40
8.0
  1
436.76'
 50
357.9839
  7
ROMANS
 72
     4
 11
946204.01604
 21
7243197.693301
 31
0.0
210
0.0
220
0.0
230
1.0
  0
ARC
  8
6
  6
CONTINUOUS
 62
     7
  5
1DC
 10
945708.333771
 20
7242213.353948
 30
0.0
 40
15.0
 50
20.967822
 51
87.9839
210
0.0
220
0.0
230
1.0
  0
LINE
  8
6
  6
CONTINUOUS
 62
     7
  5
1DD
 10
946467.36
 20
7242762.004
 30
0.0
 11
946439.21
 21
7242032.429
 31
0.0
  0
LINE
  8
6
  6
CONTINUOUS
 62
     7
  5
1DE
 10
946409.501
 20
7242688.975
 30
0.0
 11
946384.242
 21
7242034.342
 31
0.0
  0
LINE
  8
6
  6
CONTINUOUS
 62
     7
  5
1DF
 10
945722.34
 20
7242218.722
 30
0.0
 11
945741.913
 21
7242167.75
 31
0.0
  0
ARC
  8
6
  6
CONTINUOUS
 62
     7
  5
1E0
 10
945476.732648
 20
7242065.920486
 30
0.0
 40
284.059954
 50
2.046175
 51
21.006894
210
0.0
220
0.0
230
1.0
  0
ARC
  8
6
  6
CONTINUOUS
 62
     7
  5
1E1
 10
945905.638843
 20
7242466.391327
 30
0.0
 40
259.999519
 50
166.263983
 51
181.263033
210
0.0
220
0.0
230
1.0
  0
LINE
  8
6
  6
CONTINUOUS
 62
     7
  5
1E2
 10
946106.749
 20
7243185.192
 30
0.0
 11
946093.003
 21
7242786.809
 31
0.0
  0
ARC
  8
6
  6
CONTINUOUS
 62
     7
  5
1E3
 10
946107.993941
 20
7242786.281427
 30
0.0
 40
15.0
 50
177.9839
 51
272.6952
210
0.0
220
0.0
230
1.0
  0
ARC
  8
6
  6
CONTINUOUS
 62
     7
  5
1E4
 10
946153.766927
 20
7241819.452633
 30
0.0
 40
952.89
 50
87.9839
 51
92.711106
210
0.0
220
0.0
230
1.0
  0
LINE
  8
6
  6
CONTINUOUS
 62
     7
  5
1E5
 10
946187.29
 20
7242771.753
 30
0.0
 11
946467.36
 21
7242762.004
 31
0.0
  0
ARC
  8
6
  6
CONTINUOUS
 62
     7
  5
1E6
 10
946154.168056
 20
7241819.50939
 30
0.0
 40
952.89
 50
98.108922
 51
106.658572
210
0.0
220
0.0
230
1.0
  0
ARC
  8
6
  6
CONTINUOUS
 62
     7
  5
1E7
 10
945673.314701
 20
7242304.615422
 30
0.0
 40
15.0
 50
267.9839
 51
20.955781
210
0.0
220
0.0
230
1.0
  0
LINE
  8
6
  6
CONTINUOUS
 62
     7
  5
1E8
 10
945687.322
 20
7242309.98
 30
0.0
 11
945663.072
 21
7242373.134
 31
0.0
  0
ARC
  8
6
  6
CONTINUOUS
 62
     7
  5
1E9
 10
945905.761929
 20
7242466.41621
 30
0.0
 40
260.0
 50
185.697864
 51
201.025108
210
0.0
220
0.0
230
1.0
  0
TEXT
  8
11
  6
CONTINUOUS
 62
     7
  5
1EA
 10
945740.783
 20
7242142.303
 30
0.0
 40
8.0
  1
93.58'
 50
281.717575
  7
ROMANS
 72
     1
 11
945752.948753
 21
7242123.039269
 31
0.0
210
0.0
220
0.0
230
1.0
 73
     3
  0
TEXT
  8
11
  6
CONTINUOUS
 62
     7
  5
1EB
 10
945717.96
 20
7242202.232
 30
0.0
 40
8.0
  1
54.6'
 50
291.006808
  7
ROMANS
 72
     1
 11
945731.641817
 21
7242188.91882
 31
0.0
210
0.0
220
0.0
230
1.0
 73
     3
  0
TEXT
  8
11
  6
CONTINUOUS
 62
     7
  5
1EC
 10
945699.442
 20
7242200.985
 30
0.0
 40
8.0
  1
R=15'
 50
42.9839
  7
ROMANS
 72
     4
 11
945709.394704
 21
7242215.728696
 31
0.0
210
0.0
220
0.0
230
1.0
  0
TEXT
  8
11
  6
CONTINUOUS
 62
     7
  5
1ED
 10
945659.606
 20
7242312.987
 30
0.0
 40
8.0
  1
R=15'
 50
312.9839
  7
ROMANS
 72
     4
 11
945674.349696
 21
7242303.034296
 31
0.0
210
0.0
220
0.0
230
1.0
  0
TEXT
  8
11
  6
CONTINUOUS
 62
     7
  5
1EE
 10
945651.876
 20
7242374.394
 30
0.0
 40
8.0
  1
67.65'
 50
291.006
  7
ROMANS
 72
     1
 11
945666.991851
 21
7242357.345522
 31
0.0
210
0.0
220
0.0
230
1.0
 73
     3
  0
TEXT
  8
11
  6
CONTINUOUS
 62
     7
  5
1EF
 10
945637.286
 20
7242430.8
 30
0.0
 40
8.0
  1
69.33'
 50
282.039042
  7
ROMANS
 72
     1
 11
945649.559852
 21
7242411.603852
 31
0.0
210
0.0
220
0.0
230
1.0
 73
     3
  0
TEXT
  8
11
  6
CONTINUOUS
 62
     7
  5
1F0
 10
945643.255
 20
7242482.097
 30
0.0
 40
8.0
  1
68.01'
 50
81.955994
  7
ROMANS
 72
     1
 11
945646.240344
 21
7242503.221092
 31
0.0
210
0.0
220
0.0
230
1.0
  0
TEXT
  8
11
  6
CONTINUOUS
 62
     7
  5
1F1
 10
945630.303
 20
7242516.623
 30
0.0
 40
8.0
  1
R=15'
 50
42.9839
  7
ROMANS
 72
     4
 11
945640.255704
 21
7242531.366696
 31
0.0
210
0.0
220
0.0
230
1.0
  0
TEXT
  8
11
  6
CONTINUOUS
 62
     7
  5
1F2
 10
945535.822
 20
7242574.412
 30
0.0
 40
8.0
  1
173.89'
 50
341.974406
  7
ROMANS
 72
     1
 11
945562.388101
 21
7242574.179948
 31
0.0
210
0.0
220
0.0
230
1.0
 73
     3
  0
TEXT
  8
11
  6
CONTINUOUS
 62
     7
  5
1F3
 10
945633.494
 20
7242570.877
 30
0.0
 40
8.0
  1
60'
 50
52.9839
  7
ROMANS
 72
     4
 11
945635.918968
 21
7242580.737244
 31
0.0
210
0.0
220
0.0
230
1.0
  0
TEXT
  8
11
  6
CONTINUOUS
 62
     7
  5
1F4
 10
945603.904
 20
7242627.984
 30
0.0
 40
8.0
  1
101.11'
 50
339.263033
  7
ROMANS
 72
     1
 11
945627.596757
 21
7242619.01378
 31
0.0
210
0.0
220
0.0
230
1.0
  0
TEXT
  8
11
  6
CONTINUOUS
 62
     7
  5
1F5
 10
945529.635
 20
7242650.625
 30
0.0
 40
8.0
  1
75'
 50
344.505825
  7
ROMANS
 72
     1
 11
945538.62978
 21
7242648.131511
 31
0.0
210
0.0
220
0.0
230
1.0
  0
TEXT
  8
11
  6
CONTINUOUS
 62
     7
  5
1F6
 10
945434.02
 20
7242671.458
 30
0.0
 40
8.0
  1
99.1'
 50
349.548778
  7
ROMANS
 72
     1
 11
945451.06544
 21
7242668.313822
 31
0.0
210
0.0
220
0.0
230
1.0
  0
TEXT
  8
11
  6
CONTINUOUS
 62
     7
  5
1F7
 10
945333.84
 20
7242683.229
 30
0.0
 40
8.0
  1
98.14'
 50
354.982561
  7
ROMANS
 72
     1
 11
945355.092251
 21
7242681.363151
 31
0.0
210
0.0
220
0.0
230
1.0
  0
TEXT
  8
11
  6
CONTINUOUS
 62
     7
  5
1F8
 10
945302.724
 20
7242682.279
 30
0.0
 40
8.0
  1
4.52'
 50
87.9839
  7
ROMANS
 72
     4
 11
945299.336257
 21
7242699.741992
 31
0.0
210
0.0
220
0.0
230
1.0
  0
TEXT
  8
11
  6
CONTINUOUS
 62
     7
  5
1F9
 10
945686.116
 20
7242611.005
 30
0.0
 40
8.0
  1
43.49'
 50
52.710442
  7
ROMANS
 72
     1
 11
945699.040458
 21
7242627.977191
 31
0.0
210
0.0
220
0.0
230
1.0
  0
TEXT
  8
11
  6
CONTINUOUS
 62
     7
  5
1FA
 10
945670.071
 20
7242630.468
 30
0.0
 40
8.0
  1
R=15"
 50
267.9839
  7
ROMANS
 72
     4
 11
945673.414768
 21
7242611.755782
 31
0.0
210
0.0
220
0.0
230
1.0
  0
TEXT
  8
11
  6
CONTINUOUS
 62
     7
  5
1FB
 10
945685.7
 20
7242651.618
 30
0.0
 40
8.0
  1
R=15'
 50
357.9839
  7
ROMANS
 72
     4
 11
945703.162992
 21
7242655.005743
 31
0.0
210
0.0
220
0.0
230
1.0
  0
ARC
  8
6
  6
CONTINUOUS
 62
     7
  5
1FC
 10
945265.518521
 20
7241662.644431
 30
0.0
 40
1020.65
 50
66.764458
 51
87.9839
210
0.0
220
0.0
230
1.0
  0
ARC
  8
6
  6
CONTINUOUS
 62
     7
  5
1FD
 10
945701.940482
 20
7242651.060814
 30
0.0
 40
15.000398
 50
317.750906
 51
38.333303
210
0.0
220
0.0
230
1.0
  0
ARC
  8
6
  6
CONTINUOUS
 62
     7
  5
1FE
 10
945906.465682
 20
7242467.227241
 30
0.0
 40
260.0
 50
138.067061
 51
147.689175
210
0.0
220
0.0
230
1.0
  0
ARC
  8
6
  6
CONTINUOUS
 62
     7
  5
1FF
 10
945929.389268
 20
7242830.90542
 30
0.0
 40
274.96
 50
182.15495
 51
218.333567
210
0.0
220
0.0
230
1.0
  0
ARC
  8
6
  6
CONTINUOUS
 62
     7
  5
200
 10
945780.275696
 20
7242692.918897
 30
0.0
 40
1.0
 50
118.916211
 51
118.916214
210
0.0
220
0.0
230
1.0
  0
ARC
  8
6
  6
CONTINUOUS
 62
     7
  5
201
 10
945780.276802
 20
7242692.919769
 30
0.0
 40
1.0
 50
118.995683
 51
118.995686
210
0.0
220
0.0
230
1.0
  0
ARC
  8
6
  6
CONTINUOUS
 62
     7
  5
202
 10
945905.509983
 20
7242466.209009
 30
0.0
 40
260.0
 50
110.967522
 51
118.916211
210
0.0
220
0.0
230
1.0
  0
ARC
  8
6
  6
CONTINUOUS
 62
     7
  5
203
 10
945923.005851
 20
7242473.658776
 30
0.0
 40
260.0
 50
103.8482
 51
115.158908
210
0.0
220
0.0
230
1.0
  0
TEXT
  8
11
  6
CONTINUOUS
 62
     7
  5
204
 10
945716.599
 20
7242804.428
 30
0.0
 40
8.0
  1
148.27'
 50
283.834833
  7
ROMANS
 72
     1
 11
945722.656724
 21
7242779.829934
 31
0.0
210
0.0
220
0.0
230
1.0
  0
TEXT
  8
11
  6
CONTINUOUS
 62
     7
  5
205
 10
945774.329
 20
7242692.701
 30
0.0
 40
8.0
  1
R=15'
 50
80.387886
  7
ROMANS
 72
     1
 11
945777.223216
 21
7242709.790658
 31
0.0
210
0.0
220
0.0
230
1.0
  0
TEXT
  8
11
  6
CONTINUOUS
 62
     7
  5
206
 10
945778.967
 20
7242696.598
 30
0.0
 40
8.0
  1
36.04'
 50
24.159689
  7
ROMANS
 72
     1
 11
945798.432319
 21
7242705.329605
 31
0.0
210
0.0
220
0.0
230
1.0
  0
TEXT
  8
11
  6
CONTINUOUS
 62
     7
  5
207
 10
945818.79
 20
7242714.97
 30
0.0
 40
8.0
  1
51.13'
 50
18.739758
  7
ROMANS
 72
     1
 11
945838.992086
 21
7242721.823657
 31
0.0
210
0.0
220
0.0
230
1.0
  0
TEXT
  8
11
  6
CONTINUOUS
 62
     7
  5
208
 10
945928.806
 20
7242747.765
 30
0.0
 40
8.0
  1
142.06'
 50
12.138478
  7
ROMANS
 72
     1
 11
945953.573589
 21
7242753.092111
 31
0.0
210
0.0
220
0.0
230
1.0
  0
TEXT
  8
11
  6
CONTINUOUS
 62
     7
  5
209
 10
946005.54
 20
7242785.111
 30
0.0
 40
8.0
  1
R=15'
 50
317.188261
  7
ROMANS
 72
     1
 11
946018.25606
 21
7242773.330959
 31
0.0
210
0.0
220
0.0
230
1.0
  0
TEXT
  8
11
  6
CONTINUOUS
 62
     7
  5
20A
 10
946151.198
 20
7242763.018
 30
0.0
 40
8.0
  1
78.59'
 50
358.006389
  7
ROMANS
 72
     1
 11
946172.797391
 21
7242770.270989
 31
0.0
210
0.0
220
0.0
230
1.0
 73
     3
  0
TEXT
  8
11
  6
CONTINUOUS
 62
     7
  5
20B
 10
946077.174
 20
7242754.022
 30
0.0
 40
8.0
  1
R=15'
 50
40.788339
  7
ROMANS
 72
     1
 11
946085.071925
 21
7242771.402746
 31
0.0
210
0.0
220
0.0
230
1.0
 73
     3
  0
ARC
  8
6
  6
CONTINUOUS
 62
     7
  5
20C
 10
945476.732823
 20
7242066.06757
 30
0.0
 40
344.06
 50
357.9839
 51
20.9839
210
0.0
220
0.0
230
1.0
  0
LINE
  8
6
  6
CONTINUOUS
 62
     7
  5
20D
 10
945797.975
 20
7242189.277
 30
0.0
 11
945719.112
 21
7242394.656
 31
0.0
  0
ARC
  8
6
  6
CONTINUOUS
 62
     7
  5
20E
 10
945905.819499
 20
7242466.349945
 30
0.0
 40
199.999551
 50
111.006869
 51
201.006294
210
0.0
220
0.0
230
1.0
  0
ARC
  8
6
  6
CONTINUOUS
 62
     7
  5
20F
 10
946154.207259
 20
7241819.511178
 30
0.0
 40
892.889781
 50
88.006936
 51
111.006908
210
0.0
220
0.0
230
1.0
  0
LINE
  8
6
  6
CONTINUOUS
 62
     7
  5
210
 10
946185.261
 20
7242711.861
 30
0.0
 11
946395.084
 21
7242704.557
 31
0.0
  0
ARC
  8
6
  6
CONTINUOUS
 62
     7
  5
211
 10
946394.561853
 20
7242689.566007
 30
0.0
 40
15.000001
 50
357.789097
 51
88.006819
210
0.0
220
0.0
230
1.0
  0
TEXT
  8
11
  6
CONTINUOUS
 62
     7
  5
212
 10
946402.81
 20
7242037.235
 30
0.0
 40
8.0
  1
55'
 50
357.9839
  7
ROMANS
 72
     4
 11
946412.277944
 21
7242040.904186
 31
0.0
210
0.0
220
0.0
230
1.0
  0
TEXT
  8
11
  6
CONTINUOUS
 62
     7
  5
213
 10
946425.495
 20
7242681.662
 30
0.0
 40
8.0
  1
55'
 50
357.9839
  7
ROMANS
 72
     4
 11
946434.962944
 21
7242685.331186
 31
0.0
210
0.0
220
0.0
230
1.0
  0
TEXT
  8
11
  6
CONTINUOUS
 62
     7
  5
214
 10
946406.475
 20
7242720.869
 30
0.0
 40
8.0
  1
60'
 50
87.9839
  7
ROMANS
 72
     4
 11
946402.805814
 21
7242730.336944
 31
0.0
210
0.0
220
0.0
230
1.0
  0
TEXT
  8
11
  6
CONTINUOUS
 62
     7
  5
215
 10
945687.707
 20
7242244.143
 30
0.0
 40
8.0
  1
60'
 50
87.9839
  7
ROMANS
 72
     4
 11
945684.037814
 21
7242253.610944
 31
0.0
210
0.0
220
0.0
230
1.0
  0
TEXT
  8
11
  6
CONTINUOUS
 62
     7
  5
216
 10
945730.519
 20
7242675.478
 30
0.0
 40
8.0
  1
60'
 50
42.9839
  7
ROMANS
 72
     4
 11
945734.619341
 21
7242684.767354
 31
0.0
210
0.0
220
0.0
230
1.0
  0
TEXT
  8
11
  6
CONTINUOUS
 62
     7
  5
217
 10
946089.42
 20
7242046.582
 30
0.0
 40
8.0
  1
564'
 50
357.9839
  7
ROMANS
 72
     4
 11
946102.885468
 21
7242050.110465
 31
0.0
210
0.0
220
0.0
230
1.0
  0
TEXT
  8
11
  6
CONTINUOUS
 62
     7
  5
218
 10
945811.047
 20
7242158.93
 30
0.0
 40
8.0
  1
137.19'
 50
281.369661
  7
ROMANS
 72
     1
 11
945816.0413
 21
7242134.093162
 31
0.0
210
0.0
220
0.0
230
1.0
  0
TEXT
  8
11
  6
CONTINUOUS
 62
     7
  5
219
 10
945750.531
 20
7242318.412
 30
0.0
 40
8.0
  1
220'
 50
291.006342
  7
ROMANS
 72
     1
 11
945755.310856
 21
7242305.964168
 31
0.0
210
0.0
220
0.0
230
1.0
  0
TEXT
  8
11
  6
CONTINUOUS
 62
     7
  5
21A
 10
945712.266
 20
7242529.379
 30
0.0
 40
8.0
  1
282.84'
 50
64.870067
  7
ROMANS
 72
     1
 11
945723.024228
 21
7242552.314157
 31
0.0
210
0.0
220
0.0
230
1.0
  0
TEXT
  8
11
  6
CONTINUOUS
 62
     7
  5
21B
 10
945886.825
 20
7242673.892
 30
0.0
 40
8.0
  1
356.03'
 50
15.768917
  7
ROMANS
 72
     1
 11
945911.205569
 21
7242680.776722
 31
0.0
210
0.0
220
0.0
230
1.0
  0
TEXT
  8
11
  6
CONTINUOUS
 62
     7
  5
21C
 10
946248.641
 20
7242699.649
 30
0.0
 40
8.0
  1
209.95'
 50
358.006278
  7
ROMANS
 72
     1
 11
946274.236985
 21
7242706.762822
 31
0.0
210
0.0
220
0.0
230
1.0
 73
     3
  0
TEXT
  8
11
  6
CONTINUOUS
 62
     7
  5
21D
 10
946381.442
 20
7242675.587
 30
0.0
 40
8.0
  1
R=15'
 50
42.9839
  7
ROMANS
 72
     4
 11
946391.394704
 21
7242690.330696
 31
0.0
210
0.0
220
0.0
230
1.0
  0
TEXT
  8
11
  6
CONTINUOUS
 62
     7
  5
21E
 10
946393.987
 20
7242343.776
 30
0.0
 40
8.0
  1
655.12'
 50
87.9839
  7
ROMANS
 72
     4
 11
946390.880699
 21
7242369.23404
 31
0.0
210
0.0
220
0.0
230
1.0
  0
TEXT
  8
10
  6
CONTINUOUS
 62
   134
  5
21F
 10
946045.38
 20
7242414.072
 30
0.0
 40
13.999
  1
TRACT "A"
 50
357.9839
  7
ROMANS
 72
     4
 11
946106.104802
 21
7242418.938694
 31
0.0
210
0.0
220
0.0
230
1.0
  0
TEXT
  8
19
  6
CONTINUOUS
 62
     1
  5
220
 10
944817.164
 20
7242283.143
 30
0.0
 40
24.0
  1
112TH        STREET
 50
357.9839
  7
ROMANC
 72
     4
 11
945070.359595
 21
7242286.237413
 31
0.0
210
0.0
220
0.0
230
1.0
  0
TEXT
  8
19
  6
CONTINUOUS
 62
     1
  5
221
 10
944833.361
 20
7242662.689
 30
0.0
 40
24.0
  1
111TH        STREET
 50
357.9839
  7
ROMANC
 72
     4
 11
945083.628409
 21
7242665.886491
 31
0.0
210
0.0
220
0.0
230
1.0
  0
TEXT
  8
19
  6
CONTINUOUS
 62
     1
  5
222
 10
944843.741
 20
7243038.12
 30
0.0
 40
24.0
  1
110TH        STREET
 50
357.9839
  7
ROMANC
 72
     4
 11
945096.936595
 21
7243041.214413
 31
0.0
210
0.0
220
0.0
230
1.0
  0
TEXT
  8
19
  6
CONTINUOUS
 62
     1
  5
223
 10
946076.056
 20
7242805.5
 30
0.0
 40
24.0
  1
PARIS AVENUE
 50
87.9839
  7
ROMANC
 72
     4
 11
946069.468111
 21
7242959.455065
 31
0.0
210
0.0
220
0.0
230
1.0
  0
TEXT
  8
19
  6
CONTINUOUS
 62
     1
  5
224
 10
945695.757
 20
7242792.363
 30
0.0
 40
24.0
  1
AVENUE   Q
 50
87.9839
  7
ROMANC
 72
     4
 11
945688.431204
 21
7242925.356049
 31
0.0
210
0.0
220
0.0
230
1.0
  0
TEXT
  8
19
  6
CONTINUOUS
 62
     1
  5
225
 10
946168.954
 20
7242723.661
 30
0.0
 40
24.0
  1
111TH ST
 50
357.9839
  7
ROMANC
 72
     4
 11
946260.023017
 21
7242732.462611
 31
0.0
210
0.0
220
0.0
230
1.0
  0
TEXT
  8
19
  6
CONTINUOUS
 62
     1
  5
226
 10
946431.68
 20
7242178.081
 30
0.0
 40
24.0
  1
AVENUE       P
 50
87.9839
  7
ROMANC
 72
     4
 11
946426.208945
 21
7242363.762414
 31
0.0
210
0.0
220
0.0
230
1.0
  0
TEXT
  8
19
  6
CONTINUOUS
 62
     1
  5
227
 10
944897.113
 20
7242741.304
 30
0.0
 40
24.0
  1
AVENUE  S
 50
87.9839
  7
ROMANC
 72
     4
 11
944889.288593
 21
7242860.132822
 31
0.0
210
0.0
220
0.0
230
1.0
  0
TEXT
  8
19
  6
CONTINUOUS
 62
     1
  5
228
 10
944467.58
 20
7242326.354
 30
0.0
 40
24.0
  1
AVENUE  T
 50
87.9839
  7
ROMANC
 72
     4
 11
944459.775575
 21
7242445.750471
 31
0.0
210
0.0
220
0.0
230
1.0
  0
TEXT
  8
19
  6
CONTINUOUS
 62
     1
  5
229
 10
944493.346
 20
7243119.045
 30
0.0
 40
24.0
  1
AVE T
 50
87.9839
  7
ROMANC
 72
     4
 11
944483.56715
 21
7243182.353212
 31
0.0
210
0.0
220
0.0
230
1.0
  0
TEXT
  8
11
  6
CONTINUOUS
 62
     7
  5
22A
 10
945686.002
 20
7242376.2
 30
0.0
 40
8.0
  1
60'
 50
357.9839
  7
ROMANS
 72
     4
 11
945695.469944
 21
7242379.869186
 31
0.0
210
0.0
220
0.0
230
1.0
  0
POLYLINE
  8
21
  6
DASHDOT
 62
     7
  5
22B
 66
     1
 10
0.0
 20
0.0
 30
0.0
  0
VERTEX
  8
21
  6
DASHDOT
 62
     7
  5
22C
 10
946385.013
 20
7242054.328
 30
0.0
  0
VERTEX
  8
21
  6
DASHDOT
 62
     7
  5
22D
 10
945820.666
 20
7242073.973
 30
0.0
  0
VERTEX
  8
21
  6
DASHDOT
 62
     7
  5
22E
 10
945820.666074
 20
7242073.972776
 30
0.0
 42
-0.01544
  0
VERTEX
  8
21
  6
DASHDOT
 62
     7
  5
22F
 10
945820.579843
 20
7242053.963429
 30
0.0
  0
VERTEX
  8
21
  6
DASHDOT
 62
     7
  5
230
 10
945820.58
 20
7242053.963
 30
0.0
  0
VERTEX
  8
21
  6
DASHDOT
 62
     7
  5
231
 10
946384.242
 20
7242034.342
 30
0.0
  0
VERTEX
  8
21
  6
DASHDOT
 62
     7
  5
232
 10
946385.013
 20
7242054.328
 30
0.0
  0
SEQEND
  8
21
  6
DASHDOT
 62
     7
  5
233
  0
TEXT
  8
22
  6
CONTINUOUS
 62
     3
  5
234
 10
946139.481
 20
7242048.31
 30
0.0
 40
6.0
  1
20' UTILITY EASEMENT
 50
357.9839
  7
ROMANS
 72
     4
 11
946198.550019
 21
7242049.232504
 31
0.0
210
0.0
220
0.0
230
1.0
  0
TEXT
  8
11
  6
CONTINUOUS
 62
     7
  5
235
 10
945739.465
 20
7242060.365
 30
0.0
 40
8.0
  1
20'
 50
87.9839
  7
ROMANS
 72
     4
 11
945735.795814
 21
7242069.832944
 31
0.0
210
0.0
220
0.0
230
1.0
  0
TEXT
  8
19
  6
CONTINUOUS
 62
     1
  5
236
 10
945690.704
 20
7242367.933
 30
0.0
 40
24.0
  1
PARIS    AVE
 50
287.9839
  7
ROMANC
 72
     4
 11
945747.274839
 21
7242232.525678
 31
0.0
210
0.0
220
0.0
230
1.0
  0
TEXT
  8
11
  6
CONTINUOUS
 62
     7
  5
237
 10
945719.967
 20
7243130.571
 30
0.0
 40
8.0
  1
129.84'
 50
87.9839
  7
ROMANS
 72
     4
 11
945716.860699
 21
7243156.02904
 31
0.0
210
0.0
220
0.0
230
1.0
  0
LINE
  8
6
  6
CONTINUOUS
 62
     7
  5
238
 10
944431.426
 20
7242102.318
 30
0.0
 11
944452.496
 21
7242711.954
 31
0.0
  0
LINE
  8
6
  6
CONTINUOUS
 62
     7
  5
239
 10
944463.549
 20
7243031.763
 30
0.0
 11
944471.494
 21
7243261.626
 31
0.0
  0
TEXT
  8
15
  6
CONTINUOUS
 62
    30
  5
23B
 10
944987.059
 20
7242875.858
 30
0.0
 40
50.0
  1
SUN
 50
27.9839
  7
ROMANC
 72
     4
 11
945045.204727
 21
7242935.063699
 31
0.0
210
0.0
220
0.0
230
1.0
  0
TEXT
  8
15
  6
CONTINUOUS
 62
    30
  5
23C
 10
944991.967
 20
7242643.092
 30
0.0
 40
50.0
  1
COUNTRY
 50
27.9839
  7
ROMANC
 72
     4
 11
945150.236278
 21
7242755.498253
 31
0.0
210
0.0
220
0.0
230
1.0
  0
SOLID
  8
21
  6
DASHDOT
 62
     7
  5
23D
 10
941144.604
 20
7241783.618
 30
0.0
 11
941237.48
 21
7244421.984
 31
0.0
 12
941184.579
 22
7241782.211
 32
0.0
 13
941277.455
 23
7244420.577
 33
0.0
  0
TEXT
  8
19
  6
CONTINUOUS
 62
     1
  5
23E
 10
941209.61
 20
7242917.815
 30
0.0
 40
24.0
  1
UNIVERSITY AVE
 50
87.9839
  7
ROMANC
 72
     4
 11
941203.879666
 21
7243096.130976
 31
0.0
210
0.0
220
0.0
230
1.0
  0
TEXT
  8
22
  6
CONTINUOUS
 62
     3
  5
240
 10
941215.935
 20
7243554.732
 30
0.0
 40
6.0
  1
2640'
 50
87.9839
  7
txt
 72
     4
 11
941213.401378
 21
7243568.033367
 31
0.0
210
0.0
220
0.0
230
1.0
  0
TEXT
  8
11
  6
CONTINUOUS
 62
     7
  5
241
 10
941257.47
 20
7243540.985
 30
0.0
 40
8.0
  1
2640'
 50
87.9839
  7
txt
 72
     4
 11
941254.091861
 21
7243558.720823
 31
0.0
210
0.0
220
0.0
230
1.0
  0
TEXT
  8
13
  6
CONTINUOUS
 62
    14
  5
243
 10
941238.249
 20
7243532.623
 30
0.0
 40
8.0
  1
V450 P145
 50
87.9839
  7
txt
 72
     4
 11
941235.445918
 21
7243566.694704
 31
0.0
210
0.0
220
0.0
230
1.0
  0
SOLID
  8
21
  6
DASHDOT
 62
     7
  5
244
 10
941330.356
 20
7247060.35
 30
0.0
 11
941237.48
 21
7244421.984
 31
0.0
 12
941370.331
 22
7247058.943
 32
0.0
 13
941277.455
 23
7244420.577
 33
0.0
  0
SOLID
  8
21
  6
DASHDOT
 62
     7
  5
245
 10
941334.19
 20
7247060.23
 30
0.0
 11
943972.875
 21
7246976.909
 31
0.0
 12
941332.454
 22
7247005.257
 32
0.0
 13
943971.139
 23
7246921.937
 33
0.0
  0
TEXT
  8
22
  6
CONTINUOUS
 62
     3
  5
246
 10
941297.06
 20
7245875.79
 30
0.0
 40
6.0
  1
2640'
 50
87.9839
  7
txt
 72
     4
 11
941294.526378
 21
7245889.091367
 31
0.0
210
0.0
220
0.0
230
1.0
  0
TEXT
  8
13
  6
CONTINUOUS
 62
    14
  5
247
 10
941318.033
 20
7245857.72
 30
0.0
 40
8.0
  1
V450 P148
 50
87.9839
  7
txt
 72
     4
 11
941315.229918
 21
7245891.791704
 31
0.0
210
0.0
220
0.0
230
1.0
  0
TEXT
  8
11
  6
CONTINUOUS
 62
     7
  5
248
 10
941338.922
 20
7245869.308
 30
0.0
 40
8.0
  1
2585'
 50
87.9839
  7
txt
 72
     4
 11
941335.544987
 21
7245887.075803
 31
0.0
210
0.0
220
0.0
230
1.0
  0
TEXT
  8
19
  6
CONTINUOUS
 62
     1
  5
249
 10
941267.101
 20
7244322.108
 30
0.0
 40
24.0
  1
UNIVERSITY AVE
 50
87.9839
  7
ROMANC
 72
     4
 11
941261.370666
 21
7244500.423976
 31
0.0
210
0.0
220
0.0
230
1.0
  0
TEXT
  8
19
  6
CONTINUOUS
 62
     1
  5
24A
 10
941305.308
 20
7245407.454
 30
0.0
 40
24.0
  1
UNIVERSITY AVE
 50
87.9839
  7
ROMANC
 72
     4
 11
941299.577666
 21
7245585.769976
 31
0.0
210
0.0
220
0.0
230
1.0
  0
LINE
  8
6
  6
CONTINUOUS
 62
     7
  5
24B
 10
941370.009
 20
7247010.043
 30
0.0
 11
943968.714
 21
7246927.985
 31
0.0
  0
LINE
  8
6
  6
CONTINUOUS
 62
     7
  5
24C
 10
941370.465
 20
7247029.025
 30
0.0
 11
941186.648
 21
7241807.259
 31
0.0
  0
LINE
  8
6
  6
CONTINUOUS
 62
     7
  5
24D
 10
946483.977
 20
7243192.188
 30
0.0
 11
946483.205
 21
7243172.203
 31
0.0
  0
LINE
  8
6
  6
CONTINUOUS
 62
     7
  5
24E
 10
946483.205
 20
7243172.203
 30
0.0
 11
946106.749
 21
7243185.192
 31
0.0
  0
TEXT
  8
11
  6
CONTINUOUS
 62
     7
  5
24F
 10
945054.49
 20
7243233.171
 30
0.0
 40
8.0
  1
1256.92'
 50
357.9839
  7
ROMANS
 72
     4
 11
945083.945564
 21
7243236.13658
 31
0.0
210
0.0
220
0.0
230
1.0
  0
TEXT
  8
11
  6
CONTINUOUS
 62
     7
  5
250
 10
946178.558
 20
7243194.587
 30
0.0
 40
8.0
  1
436.76'
 50
357.9839
  7
ROMANS
 72
     4
 11
946204.01604
 21
7243197.693301
 31
0.0
210
0.0
220
0.0
230
1.0
  0
LINE
  8
6
  6
CONTINUOUS
 62
     7
  5
251
 10
944487.301
 20
7243721.319
 30
0.0
 11
946446.746
 21
7243653.787
 31
0.0
  0
LINE
  8
6
  6
CONTINUOUS
 62
     7
  5
252
 10
946424.094
 20
7243454.377
 30
0.0
 11
944728.985
 21
7243512.627
 31
0.0
  0
LINE
  8
6
  6
CONTINUOUS
 62
     7
  5
253
 10
946439.606
 20
7243468.785
 30
0.0
 11
946446.746
 21
7243653.787
 31
0.0
  0
LINE
  8
6
  6
CONTINUOUS
 62
     7
  5
254
 10
946429.002
 20
7243194.056
 30
0.0
 11
946436.135
 21
7243378.858
 31
0.0
  0
LINE
  8
7
  6
CONTINUOUS
 62
     7
  5
255
 10
946319.921
 20
7243658.158
 30
0.0
 11
946313.05
 21
7243458.193
 31
0.0
  0
ARC
  8
6
  6
CONTINUOUS
 62
     7
  5
256
 10
946424.61726
 20
7243469.36836
 30
0.0
 40
15.0
 50
268.002597
 51
357.769997
210
0.0
220
0.0
230
1.0
  0
LINE
  8
7
  6
CONTINUOUS
 62
     7
  5
257
 10
946194.995
 20
7243662.463
 30
0.0
 11
946188.124
 21
7243462.486
 31
0.0
  0
LINE
  8
7
  6
CONTINUOUS
 62
     7
  5
258
 10
946070.069
 20
7243666.769
 30
0.0
 11
946063.197
 21
7243466.78
 31
0.0
  0
LINE
  8
7
  6
CONTINUOUS
 62
     7
  5
259
 10
945945.143
 20
7243671.074
 30
0.0
 11
945938.271
 21
7243471.072
 31
0.0
  0
LINE
  8
7
  6
CONTINUOUS
 62
     7
  5
25A
 10
945820.218
 20
7243675.38
 30
0.0
 11
945813.345
 21
7243475.365
 31
0.0
  0
LINE
  8
7
  6
CONTINUOUS
 62
     7
  5
25B
 10
945695.292
 20
7243679.685
 30
0.0
 11
945688.418
 21
7243479.657
 31
0.0
  0
LINE
  8
7
  6
CONTINUOUS
 62
     7
  5
25C
 10
945570.366
 20
7243683.991
 30
0.0
 11
945563.492
 21
7243483.951
 31
0.0
  0
LINE
  8
7
  6
CONTINUOUS
 62
     7
  5
25D
 10
945445.44
 20
7243688.297
 30
0.0
 11
945438.566
 21
7243488.244
 31
0.0
  0
LINE
  8
7
  6
CONTINUOUS
 62
     7
  5
25E
 10
945320.514
 20
7243692.602
 30
0.0
 11
945313.639
 21
7243492.536
 31
0.0
  0
LINE
  8
7
  6
CONTINUOUS
 62
     7
  5
25F
 10
945195.588
 20
7243696.908
 30
0.0
 11
945188.713
 21
7243496.83
 31
0.0
  0
LINE
  8
7
  6
CONTINUOUS
 62
     7
  5
260
 10
945070.662
 20
7243701.213
 30
0.0
 11
945063.787
 21
7243501.122
 31
0.0
  0
LINE
  8
7
  6
CONTINUOUS
 62
     7
  5
261
 10
944945.737
 20
7243705.519
 30
0.0
 11
944938.861
 21
7243505.415
 31
0.0
  0
LINE
  8
7
  6
CONTINUOUS
 62
     7
  5
262
 10
944820.812
 20
7243709.825
 30
0.0
 11
944813.935
 21
7243509.709
 31
0.0
  0
LINE
  8
7
  6
CONTINUOUS
 62
     7
  5
263
 10
944695.886
 20
7243714.13
 30
0.0
 11
944689.695
 21
7243533.986
 31
0.0
  0
LINE
  8
7
  6
CONTINUOUS
 62
     7
  5
264
 10
946227.281
 20
7243200.988
 30
0.0
 11
946234.149
 21
7243400.87
 31
0.0
  0
LINE
  8
7
  6
CONTINUOUS
 62
     7
  5
265
 10
946102.355
 20
7243205.28
 30
0.0
 11
946109.223
 21
7243405.162
 31
0.0
  0
LINE
  8
7
  6
CONTINUOUS
 62
     7
  5
266
 10
945977.429
 20
7243209.573
 30
0.0
 11
945984.297
 21
7243409.455
 31
0.0
  0
LINE
  8
7
  6
CONTINUOUS
 62
     7
  5
267
 10
945852.502
 20
7243213.866
 30
0.0
 11
945859.371
 21
7243413.748
 31
0.0
  0
LINE
  8
6
  6
CONTINUOUS
 62
     7
  5
268
 10
945727.576
 20
7243218.159
 30
0.0
 11
945733.93
 21
7243403.05
 31
0.0
  0
LINE
  8
6
  6
CONTINUOUS
 62
     7
  5
269
 10
945667.611
 20
7243220.22
 30
0.0
 11
945673.965
 21
7243405.11
 31
0.0
  0
LINE
  8
7
  6
CONTINUOUS
 62
     7
  5
26A
 10
945542.685
 20
7243224.512
 30
0.0
 11
945549.553
 21
7243424.395
 31
0.0
  0
LINE
  8
7
  6
CONTINUOUS
 62
     7
  5
26B
 10
945417.759
 20
7243228.805
 30
0.0
 11
945424.627
 21
7243428.687
 31
0.0
  0
LINE
  8
7
  6
CONTINUOUS
 62
     7
  5
26C
 10
945292.833
 20
7243233.099
 30
0.0
 11
945299.701
 21
7243432.981
 31
0.0
  0
LINE
  8
7
  6
CONTINUOUS
 62
     7
  5
26D
 10
945167.906
 20
7243237.391
 30
0.0
 11
945174.774
 21
7243437.273
 31
0.0
  0
LINE
  8
7
  6
CONTINUOUS
 62
     7
  5
26E
 10
945042.98
 20
7243241.684
 30
0.0
 11
945049.848
 21
7243441.566
 31
0.0
  0
LINE
  8
7
  6
CONTINUOUS
 62
     7
  5
26F
 10
944918.054
 20
7243245.976
 30
0.0
 11
944924.922
 21
7243445.859
 31
0.0
  0
LINE
  8
7
  6
CONTINUOUS
 62
     7
  5
270
 10
944793.127
 20
7243250.27
 30
0.0
 11
944799.995
 21
7243450.152
 31
0.0
  0
LINE
  8
7
  6
CONTINUOUS
 62
     7
  5
271
 10
944668.201
 20
7243254.563
 30
0.0
 11
944674.432
 21
7243435.886
 31
0.0
  0
ARC
  8
6
  6
CONTINUOUS
 62
     7
  5
272
 10
946421.146195
 20
7243379.434804
 30
0.0
 40
15.0
 50
357.796731
 51
88.003306
210
0.0
220
0.0
230
1.0
  0
LINE
  8
6
  6
CONTINUOUS
 62
     7
  5
273
 10
946421.669
 20
7243394.426
 30
0.0
 11
945749.435
 21
7243417.526
 31
0.0
  0
LINE
  8
6
  6
CONTINUOUS
 62
     7
  5
274
 10
945659.488
 20
7243420.616
 30
0.0
 11
944726.929
 21
7243452.662
 31
0.0
  0
LINE
  8
6
  6
CONTINUOUS
 62
     7
  5
275
 10
946429.002
 20
7243194.056
 30
0.0
 11
945727.576
 21
7243218.159
 31
0.0
  0
LINE
  8
6
  6
CONTINUOUS
 62
     7
  5
276
 10
945667.611
 20
7243220.22
 30
0.0
 11
944471.365
 21
7243261.327
 31
0.0
  0
LINE
  8
6
  6
CONTINUOUS
 62
     7
  5
277
 10
944487.301
 20
7243721.319
 30
0.0
 11
944471.365
 21
7243261.327
 31
0.0
  0
ARC
  8
6
  6
CONTINUOUS
 62
     7
  5
278
 10
944687.980474
 20
7243484.015869
 30
0.0
 40
50.0
 50
34.905381
 51
321.16555
210
0.0
220
0.0
230
1.0
  0
POLYLINE
  8
21
  6
DASHDOT
 62
     7
  5
279
 66
     1
 10
0.0
 20
0.0
 30
0.0
  0
VERTEX
  8
21
  6
DASHDOT
 62
     7
  5
27A
 10
944728.985
 20
7243512.627
 30
0.0
  0
VERTEX
  8
21
  6
DASHDOT
 62
     7
  5
27B
 10
946424.094
 20
7243454.377
 30
0.0
  0
VERTEX
  8
21
  6
DASHDOT
 62
     7
  5
27C
 10
946424.094458
 20
7243454.37792
 30
0.0
 42
0.317987
  0
VERTEX
  8
21
  6
DASHDOT
 62
     7
  5
27D
 10
946438.579522
 20
7243463.886516
 30
0.0
  0
VERTEX
  8
21
  6
DASHDOT
 62
     7
  5
27E
 10
946438.58
 20
7243463.886
 30
0.0
  0
VERTEX
  8
21
  6
DASHDOT
 62
     7
  5
27F
 10
944734.047
 20
7243522.459
 30
0.0
  0
VERTEX
  8
21
  6
DASHDOT
 62
     7
  5
280
 10
944734.047031
 20
7243522.459432
 30
0.0
 42
2.618033
  0
VERTEX
  8
21
  6
DASHDOT
 62
     7
  5
281
 10
944731.304034
 20
7243442.506438
 30
0.0
  0
VERTEX
  8
21
  6
DASHDOT
 62
     7
  5
282
 10
944731.304
 20
7243442.506
 30
0.0
  0
VERTEX
  8
21
  6
DASHDOT
 62
     7
  5
283
 10
945664.142
 20
7243410.451
 30
0.0
  0
VERTEX
  8
21
  6
DASHDOT
 62
     7
  5
284
 10
945657.617
 20
7243220.564
 30
0.0
  0
VERTEX
  8
21
  6
DASHDOT
 62
     7
  5
285
 10
945667.611
 20
7243220.22
 30
0.0
  0
VERTEX
  8
21
  6
DASHDOT
 62
     7
  5
286
 10
945673.965
 20
7243405.11
 30
0.0
  0
VERTEX
  8
21
  6
DASHDOT
 62
     7
  5
287
 10
945673.964461
 20
7243405.110282
 30
0.0
 42
0.414213
  0
VERTEX
  8
21
  6
DASHDOT
 62
     7
  5
288
 10
945659.488459
 20
7243420.616545
 30
0.0
  0
VERTEX
  8
21
  6
DASHDOT
 62
     7
  5
289
 10
945659.488
 20
7243420.616
 30
0.0
  0
VERTEX
  8
21
  6
DASHDOT
 62
     7
  5
28A
 10
944726.929
 20
7243452.662
 30
0.0
  0
VERTEX
  8
21
  6
DASHDOT
 62
     7
  5
28B
 10
944726.928537
 20
7243452.662702
 30
0.0
 42
-2.999998
  0
VERTEX
  8
21
  6
DASHDOT
 62
     7
  5
28C
 10
944728.985391
 20
7243512.62746
 30
0.0
  0
SEQEND
  8
21
  6
DASHDOT
 62
     7
  5
28D
  0
POLYLINE
  8
21
  6
DASHDOT
 62
     7
  5
28E
 66
     1
 10
0.0
 20
0.0
 30
0.0
  0
VERTEX
  8
21
  6
DASHDOT
 62
     7
  5
28F
 10
945733.93
 20
7243403.05
 30
0.0
  0
VERTEX
  8
21
  6
DASHDOT
 62
     7
  5
290
 10
945727.576
 20
7243218.159
 30
0.0
  0
VERTEX
  8
21
  6
DASHDOT
 62
     7
  5
291
 10
945737.57
 20
7243217.815
 30
0.0
  0
VERTEX
  8
21
  6
DASHDOT
 62
     7
  5
292
 10
945744.094
 20
7243407.703
 30
0.0
  0
VERTEX
  8
21
  6
DASHDOT
 62
     7
  5
293
 10
946435.452
 20
7243383.946
 30
0.0
  0
VERTEX
  8
21
  6
DASHDOT
 62
     7
  5
294
 10
946435.452037
 20
7243383.946407
 30
0.0
 42
0.316703
  0
VERTEX
  8
21
  6
DASHDOT
 62
     7
  5
295
 10
946421.723228
 20
7243394.423613
 30
0.0
  0
VERTEX
  8
21
  6
DASHDOT
 62
     7
  5
296
 10
946421.669
 20
7243394.426
 30
0.0
  0
VERTEX
  8
21
  6
DASHDOT
 62
     7
  5
297
 10
945749.435
 20
7243417.526
 30
0.0
  0
VERTEX
  8
21
  6
DASHDOT
 62
     7
  5
298
 10
945749.43584
 20
7243417.525766
 30
0.0
 42
0.414214
  0
VERTEX
  8
21
  6
DASHDOT
 62
     7
  5
299
 10
945733.92954
 20
7243403.049727
 30
0.0
  0
SEQEND
  8
21
  6
DASHDOT
 62
     7
  5
29A
  0
ARC
  8
6
  6
CONTINUOUS
 62
     7
  5
29B
 10
945658.973683
 20
7243405.624495
 30
0.0
 40
15.0
 50
358.033536
 51
88.033578
210
0.0
220
0.0
230
1.0
  0
ARC
  8
6
  6
CONTINUOUS
 62
     7
  5
29C
 10
945748.920669
 20
7243402.535219
 30
0.0
 40
15.0
 50
88.033536
 51
178.033578
210
0.0
220
0.0
230
1.0
  0
POLYLINE
  8
21
  6
DASHDOT
 62
     7
  5
29D
 66
     1
 10
0.0
 20
0.0
 30
0.0
  0
VERTEX
  8
21
  6
DASHDOT
 62
     7
  5
29E
 10
946404.021
 20
7243195.02
 30
0.0
  0
VERTEX
  8
21
  6
DASHDOT
 62
     7
  5
29F
 10
946410.766
 20
7243369.786
 30
0.0
  0
VERTEX
  8
21
  6
DASHDOT
 62
     7
  5
2A0
 10
945733.586
 20
7243393.056
 30
0.0
  0
SEQEND
  8
21
  6
DASHDOT
 62
     7
  5
2A1
  0
POLYLINE
  8
21
  6
DASHDOT
 62
     7
  5
2A2
 66
     1
 10
0.0
 20
0.0
 30
0.0
  0
VERTEX
  8
21
  6
DASHDOT
 62
     7
  5
2A3
 10
945673.617
 20
7243395.013
 30
0.0
  0
VERTEX
  8
21
  6
DASHDOT
 62
     7
  5
2A4
 10
944737.051
 20
7243427.196
 30
0.0
  0
VERTEX
  8
21
  6
DASHDOT
 62
     7
  5
2A5
 10
944737.051013
 20
7243427.197054
 30
0.0
 42
-2.290729
  0
VERTEX
  8
21
  6
DASHDOT
 62
     7
  5
2A6
 10
944740.823388
 20
7243537.132397
 30
0.0
  0
VERTEX
  8
21
  6
DASHDOT
 62
     7
  5
2A7
 10
944740.823
 20
7243537.132
 30
0.0
  0
VERTEX
  8
21
  6
DASHDOT
 62
     7
  5
2A8
 10
946415.005
 20
7243479.602
 30
0.0
  0
VERTEX
  8
21
  6
DASHDOT
 62
     7
  5
2A9
 10
946421.761
 20
7243654.649
 30
0.0
  0
SEQEND
  8
21
  6
DASHDOT
 62
     7
  5
2AA
  0
POLYLINE
  8
21
  6
DASHDOT
 62
     7
  5
2AB
 66
     1
 10
0.0
 20
0.0
 30
0.0
  0
VERTEX
  8
21
  6
DASHDOT
 62
     7
  5
2AC
 10
944640.827
 20
7243500.647
 30
0.0
  0
VERTEX
  8
21
  6
DASHDOT
 62
     7
  5
2AD
 10
944479.847
 20
7243506.18
 30
0.0
  0
VERTEX
  8
21
  6
DASHDOT
 62
     7
  5
2AE
 10
944478.809
 20
7243476.198
 30
0.0
  0
VERTEX
  8
21
  6
DASHDOT
 62
     7
  5
2AF
 10
944639.796
 20
7243470.665
 30
0.0
  0
VERTEX
  8
21
  6
DASHDOT
 62
     7
  5
2B0
 10
944639.795956
 20
7243470.664753
 30
0.0
 42
-0.153536
  0
VERTEX
  8
21
  6
DASHDOT
 62
     7
  5
2B1
 10
944640.82748
 20
7243500.647022
 30
0.0
  0
SEQEND
  8
21
  6
DASHDOT
 62
     7
  5
2B2
  0
LINE
  8
7
  6
CONTINUOUS
 62
     7
  5
2B3
 10
944479.324
 20
7243491.189
 30
0.0
 11
944638.01
 21
7243485.735
 31
0.0
  0
TEXT
  8
10
  6
CONTINUOUS
 62
   134
  5
2B4
 10
946382.139
 20
7243557.565
 30
0.0
 40
13.999
  1
1
 50
357.9839
  7
txt
 72
     4
 11
946384.587898
 21
7243564.483129
 31
0.0
210
0.0
220
0.0
230
1.0
  0
TEXT
  8
10
  6
CONTINUOUS
 62
   134
  5
2B5
 10
946254.738
 20
7243562.05
 30
0.0
 40
13.999
  1
2
 50
357.9839
  7
txt
 72
     4
 11
946259.665363
 21
7243568.880882
 31
0.0
210
0.0
220
0.0
230
1.0
  0
TEXT
  8
10
  6
CONTINUOUS
 62
   134
  5
2B6
 10
946129.815
 20
7243566.448
 30
0.0
 40
13.999
  1
3
 50
357.9839
  7
txt
 72
     4
 11
946134.742363
 21
7243573.278882
 31
0.0
210
0.0
220
0.0
230
1.0
  0
TEXT
  8
10
  6
CONTINUOUS
 62
   134
  5
2B7
 10
946004.562
 20
7243570.857
 30
0.0
 40
13.999
  1
4
 50
357.9839
  7
txt
 72
     4
 11
946009.820158
 21
7243577.676238
 31
0.0
210
0.0
220
0.0
230
1.0
  0
TEXT
  8
10
  6
CONTINUOUS
 62
   134
  5
2B8
 10
945879.97
 20
7243575.243
 30
0.0
 40
13.999
  1
5
 50
357.9839
  7
txt
 72
     4
 11
945884.897363
 21
7243582.073882
 31
0.0
210
0.0
220
0.0
230
1.0
  0
TEXT
  8
10
  6
CONTINUOUS
 62
   134
  5
2B9
 10
945755.377
 20
7243579.63
 30
0.0
 40
13.999
  1
6
 50
357.9839
  7
txt
 72
     4
 11
945759.974567
 21
7243586.472492
 31
0.0
210
0.0
220
0.0
230
1.0
  0
TEXT
  8
10
  6
CONTINUOUS
 62
   134
  5
2BA
 10
945630.069
 20
7243584.04
 30
0.0
 40
13.999
  1
7
 50
357.9839
  7
txt
 72
     4
 11
945635.051329
 21
7243590.868947
 31
0.0
210
0.0
220
0.0
230
1.0
  0
TEXT
  8
10
  6
CONTINUOUS
 62
   134
  5
2BB
 10
945505.202
 20
7243588.435
 30
0.0
 40
13.999
  1
8
 50
357.9839
  7
txt
 72
     4
 11
945510.129363
 21
7243595.265882
 31
0.0
210
0.0
220
0.0
230
1.0
  0
TEXT
  8
10
  6
CONTINUOUS
 62
   134
  5
2BC
 10
945380.609
 20
7243592.821
 30
0.0
 40
13.999
  1
9
 50
357.9839
  7
txt
 72
     4
 11
945385.206567
 21
7243599.663492
 31
0.0
210
0.0
220
0.0
230
1.0
  0
TEXT
  8
10
  6
CONTINUOUS
 62
   134
  5
2BD
 10
945250.895
 20
7243597.388
 30
0.0
 40
13.999
  1
10
 50
357.9839
  7
txt
 72
     4
 11
945260.283599
 21
7243604.061837
 31
0.0
210
0.0
220
0.0
230
1.0
  0
TEXT
  8
10
  6
CONTINUOUS
 62
   134
  5
2BE
 10
945128.395
 20
7243601.7
 30
0.0
 40
13.999
  1
11
 50
357.9839
  7
txt
 72
     4
 11
945135.360101
 21
7243608.45915
 31
0.0
210
0.0
220
0.0
230
1.0
  0
TEXT
  8
10
  6
CONTINUOUS
 62
   134
  5
2BF
 10
945000.994
 20
7243606.185
 30
0.0
 40
13.999
  1
12
 50
357.9839
  7
txt
 72
     4
 11
945010.438565
 21
7243612.856867
 31
0.0
210
0.0
220
0.0
230
1.0
  0
TEXT
  8
10
  6
CONTINUOUS
 62
   134
  5
2C0
 10
944876.072
 20
7243610.582
 30
0.0
 40
13.999
  1
13
 50
357.9839
  7
txt
 72
     4
 11
944885.516565
 21
7243617.253867
 31
0.0
210
0.0
220
0.0
230
1.0
  0
TEXT
  8
10
  6
CONTINUOUS
 62
   134
  5
2C1
 10
944750.819
 20
7243614.991
 30
0.0
 40
13.999
  1
14
 50
357.9839
  7
txt
 72
     4
 11
944760.593361
 21
7243621.651258
 31
0.0
210
0.0
220
0.0
230
1.0
  0
TEXT
  8
10
  6
CONTINUOUS
 62
   134
  5
2C2
 10
944576.969
 20
7243606.713
 30
0.0
 40
13.999
  1
15
 50
357.9839
  7
txt
 72
     4
 11
944586.413565
 21
7243613.384867
 31
0.0
210
0.0
220
0.0
230
1.0
  0
TEXT
  8
10
  6
CONTINUOUS
 62
   134
  5
2C3
 10
944568.863
 20
7243367.02
 30
0.0
 40
13.999
  1
16
 50
357.9839
  7
txt
 72
     4
 11
944577.97677
 21
7243373.703512
 31
0.0
210
0.0
220
0.0
230
1.0
  0
TEXT
  8
10
  6
CONTINUOUS
 62
   134
  5
2C4
 10
944730.745
 20
7243344.044
 30
0.0
 40
13.999
  1
17
 50
357.9839
  7
txt
 72
     4
 11
944740.243531
 21
7243350.713967
 31
0.0
210
0.0
220
0.0
230
1.0
  0
TEXT
  8
10
  6
CONTINUOUS
 62
   134
  5
2C5
 10
944855.721
 20
7243339.644
 30
0.0
 40
13.999
  1
18
 50
357.9839
  7
txt
 72
     4
 11
944865.165565
 21
7243346.315867
 31
0.0
210
0.0
220
0.0
230
1.0
  0
TEXT
  8
10
  6
CONTINUOUS
 62
   134
  5
2C6
 10
944980.975
 20
7243335.235
 30
0.0
 40
13.999
  1
19
 50
357.9839
  7
txt
 72
     4
 11
944990.08877
 21
7243341.918512
 31
0.0
210
0.0
220
0.0
230
1.0
  0
TEXT
  8
10
  6
CONTINUOUS
 62
   134
  5
2C7
 10
945103.144
 20
7243330.935
 30
0.0
 40
13.999
  1
20
 50
357.9839
  7
txt
 72
     4
 11
945115.011064
 21
7243337.52159
 31
0.0
210
0.0
220
0.0
230
1.0
  0
TEXT
  8
10
  6
CONTINUOUS
 62
   134
  5
2C8
 10
945230.489
 20
7243326.452
 30
0.0
 40
13.999
  1
21
 50
357.9839
  7
txt
 72
     4
 11
945239.933565
 21
7243333.123867
 31
0.0
210
0.0
220
0.0
230
1.0
  0
TEXT
  8
10
  6
CONTINUOUS
 62
   134
  5
2C9
 10
945342.836
 20
7243322.497
 30
0.0
 40
13.999
  1
22
 50
357.9839
  7
txt
 72
     4
 11
945354.75903
 21
7243329.08162
 31
0.0
210
0.0
220
0.0
230
1.0
  0
TEXT
  8
10
  6
CONTINUOUS
 62
   134
  5
2CA
 10
945477.926
 20
7243317.741
 30
0.0
 40
13.999
  1
23
 50
357.9839
  7
txt
 72
     4
 11
945489.84903
 21
7243324.32562
 31
0.0
210
0.0
220
0.0
230
1.0
  0
TEXT
  8
10
  6
CONTINUOUS
 62
   134
  5
2CB
 10
945602.519
 20
7243313.355
 30
0.0
 40
13.999
  1
24
 50
357.9839
  7
txt
 72
     4
 11
945614.771825
 21
7243319.92801
 31
0.0
210
0.0
220
0.0
230
1.0
  0
TEXT
  8
10
  6
CONTINUOUS
 62
   134
  5
2CC
 10
945784.801
 20
7243306.939
 30
0.0
 40
13.999
  1
25
 50
357.9839
  7
txt
 72
     4
 11
945796.72403
 21
7243313.52362
 31
0.0
210
0.0
220
0.0
230
1.0
  0
TEXT
  8
10
  6
CONTINUOUS
 62
   134
  5
2CD
 10
945910.053
 20
7243302.53
 30
0.0
 40
13.999
  1
26
 50
357.9839
  7
txt
 72
     4
 11
945921.646234
 21
7243309.126229
 31
0.0
210
0.0
220
0.0
230
1.0
  0
TEXT
  8
10
  6
CONTINUOUS
 62
   134
  5
2CE
 10
946034.592
 20
7243298.146
 30
0.0
 40
13.999
  1
27
 50
357.9839
  7
txt
 72
     4
 11
946046.568996
 21
7243304.72872
 31
0.0
210
0.0
220
0.0
230
1.0
  0
TEXT
  8
10
  6
CONTINUOUS
 62
   134
  5
2CF
 10
946159.569
 20
7243293.746
 30
0.0
 40
13.999
  1
28
 50
357.9839
  7
txt
 72
     4
 11
946171.49203
 21
7243300.33062
 31
0.0
210
0.0
220
0.0
230
1.0
  0
TEXT
  8
10
  6
CONTINUOUS
 62
   134
  5
2D0
 10
946321.372
 20
7243288.05
 30
0.0
 40
13.999
  1
29
 50
357.9839
  7
txt
 72
     4
 11
946332.965234
 21
7243294.646229
 31
0.0
210
0.0
220
0.0
230
1.0
  0
TEXT
  8
11
  6
CONTINUOUS
 62
     7
  5
2D1
 10
946367.565
 20
7243646.51
 30
0.0
 40
8.0
  1
126.9'
 50
358.0261
  7
txt
 72
     1
 11
946385.686958
 21
7243653.890182
 31
0.0
210
0.0
220
0.0
230
1.0
 73
     3
  0
TEXT
  8
11
  6
CONTINUOUS
 62
     7
  5
2D2
 10
946440.376
 20
7243541.008
 30
0.0
 40
8.0
  1
185.14'
 50
87.789861
  7
txt
 72
     1
 11
946441.186166
 21
7243562.000372
 31
0.0
210
0.0
220
0.0
230
1.0
  0
TEXT
  8
11
  6
CONTINUOUS
 62
     7
  5
2D3
 10
946353.096
 20
7243458.818
 30
0.0
 40
8.0
  1
111.11'
 50
358.031903
  7
txt
 72
     1
 11
946369.652228
 21
7243458.249073
 31
0.0
210
0.0
220
0.0
230
1.0
  0
TEXT
  8
11
  6
CONTINUOUS
 62
     7
  5
2D4
 10
946240.478
 20
7243462.688
 30
0.0
 40
8.0
  1
125'
 50
358.031903
  7
txt
 72
     1
 11
946252.690791
 21
7243462.268328
 31
0.0
210
0.0
220
0.0
230
1.0
  0
TEXT
  8
11
  6
CONTINUOUS
 62
     7
  5
2D5
 10
946114.908
 20
7243467.004
 30
0.0
 40
8.0
  1
125'
 50
358.031903
  7
txt
 72
     1
 11
946127.120791
 21
7243466.584328
 31
0.0
210
0.0
220
0.0
230
1.0
  0
TEXT
  8
11
  6
CONTINUOUS
 62
     7
  5
2D6
 10
945985.975
 20
7243471.434
 30
0.0
 40
8.0
  1
125'
 50
358.031903
  7
txt
 72
     1
 11
945998.187791
 21
7243471.014328
 31
0.0
210
0.0
220
0.0
230
1.0
  0
TEXT
  8
11
  6
CONTINUOUS
 62
     7
  5
2D7
 10
945866.56
 20
7243475.538
 30
0.0
 40
8.0
  1
125'
 50
358.031903
  7
txt
 72
     1
 11
945878.772791
 21
7243475.118328
 31
0.0
210
0.0
220
0.0
230
1.0
  0
TEXT
  8
11
  6
CONTINUOUS
 62
     7
  5
2D8
 10
945739.454
 20
7243479.905
 30
0.0
 40
8.0
  1
125'
 50
358.031903
  7
txt
 72
     1
 11
945751.666791
 21
7243479.485328
 31
0.0
210
0.0
220
0.0
230
1.0
  0
TEXT
  8
11
  6
CONTINUOUS
 62
     7
  5
2D9
 10
945617.201
 20
7243484.107
 30
0.0
 40
8.0
  1
125'
 50
358.031903
  7
txt
 72
     1
 11
945629.413791
 21
7243483.687328
 31
0.0
210
0.0
220
0.0
230
1.0
  0
TEXT
  8
11
  6
CONTINUOUS
 62
     7
  5
2DA
 10
945489.661
 20
7243488.489
 30
0.0
 40
8.0
  1
125'
 50
358.031903
  7
txt
 72
     1
 11
945501.873791
 21
7243488.069328
 31
0.0
210
0.0
220
0.0
230
1.0
  0
TEXT
  8
11
  6
CONTINUOUS
 62
     7
  5
2DB
 10
945366.976
 20
7243492.705
 30
0.0
 40
8.0
  1
125'
 50
358.031903
  7
txt
 72
     1
 11
945379.188791
 21
7243492.285328
 31
0.0
210
0.0
220
0.0
230
1.0
  0
TEXT
  8
11
  6
CONTINUOUS
 62
     7
  5
2DC
 10
945240.398
 20
7243497.055
 30
0.0
 40
8.0
  1
125'
 50
358.031903
  7
txt
 72
     1
 11
945252.610791
 21
7243496.635328
 31
0.0
210
0.0
220
0.0
230
1.0
  0
TEXT
  8
11
  6
CONTINUOUS
 62
     7
  5
2DD
 10
945117.186
 20
7243501.289
 30
0.0
 40
8.0
  1
125'
 50
358.031903
  7
txt
 72
     1
 11
945129.398791
 21
7243500.869328
 31
0.0
210
0.0
220
0.0
230
1.0
  0
TEXT
  8
11
  6
CONTINUOUS
 62
     7
  5
2DE
 10
944992.05
 20
7243505.589
 30
0.0
 40
8.0
  1
125'
 50
358.031903
  7
txt
 72
     1
 11
945004.262791
 21
7243505.169328
 31
0.0
210
0.0
220
0.0
230
1.0
  0
TEXT
  8
11
  6
CONTINUOUS
 62
     7
  5
2DF
 10
944867.346
 20
7243509.874
 30
0.0
 40
8.0
  1
125'
 50
358.031903
  7
txt
 72
     1
 11
944879.558791
 21
7243509.454328
 31
0.0
210
0.0
220
0.0
230
1.0
  0
TEXT
  8
11
  6
CONTINUOUS
 62
     7
  5
2E0
 10
944763.203
 20
7243513.453
 30
0.0
 40
8.0
  1
85'
 50
358.031903
  7
txt
 72
     1
 11
944772.835315
 21
7243513.122002
 31
0.0
210
0.0
220
0.0
230
1.0
  0
TEXT
  8
11
  6
CONTINUOUS
 62
     7
  5
2E1
 10
944698.852
 20
7243538.681
 30
0.0
 40
8.0
  1
44.72'
 50
327.655072
  7
txt
 72
     1
 11
944715.801232
 21
7243527.947529
 31
0.0
210
0.0
220
0.0
230
1.0
  0
TEXT
  8
11
  6
CONTINUOUS
 62
     7
  5
2E2
 10
944642.343
 20
7243514.919
 30
0.0
 40
8.0
  1
70.71'
 50
36.541922
  7
txt
 72
     1
 11
944657.018296
 21
7243525.794774
 31
0.0
210
0.0
220
0.0
230
1.0
  0
TEXT
  8
11
  6
CONTINUOUS
 62
     7
  5
2E3
 10
944537.761
 20
7243491.181
 30
0.0
 40
8.0
  1
158.78'
 50
358.031533
  7
txt
 72
     1
 11
944560.01486
 21
7243490.41614
 31
0.0
210
0.0
220
0.0
230
1.0
  0
TEXT
  8
11
  6
CONTINUOUS
 62
     7
  5
2E4
 10
944631.578
 20
7243456.711
 30
0.0
 40
8.0
  1
61.73'
 50
312.599458
  7
txt
 72
     1
 11
944649.703266
 21
7243448.818673
 31
0.0
210
0.0
220
0.0
230
1.0
 73
     3
  0
TEXT
  8
11
  6
CONTINUOUS
 62
     7
  5
2E5
 10
944693.414
 20
7243421.941
 30
0.0
 40
8.0
  1
55.11'
 50
20.660453
  7
txt
 72
     1
 11
944706.327764
 21
7243435.360382
 31
0.0
210
0.0
220
0.0
230
1.0
 73
     3
  0
TEXT
  8
11
  6
CONTINUOUS
 62
     7
  5
2E6
 10
944750.058
 20
7243441.862
 30
0.0
 40
8.0
  1
73.11'
 50
358.031856
  7
txt
 72
     1
 11
944767.172811
 21
7243449.278587
 31
0.0
210
0.0
220
0.0
230
1.0
 73
     3
  0
TEXT
  8
11
  6
CONTINUOUS
 62
     7
  5
2E7
 10
944849.054
 20
7243438.46
 30
0.0
 40
8.0
  1
125'
 50
358.031856
  7
txt
 72
     1
 11
944861.541542
 21
7243446.035599
 31
0.0
210
0.0
220
0.0
230
1.0
 73
     3
  0
TEXT
  8
11
  6
CONTINUOUS
 62
     7
  5
2E8
 10
944978.517
 20
7243434.011
 30
0.0
 40
8.0
  1
125'
 50
358.031856
  7
txt
 72
     1
 11
944991.004542
 21
7243441.586599
 31
0.0
210
0.0
220
0.0
230
1.0
 73
     3
  0
TEXT
  8
11
  6
CONTINUOUS
 62
     7
  5
2E9
 10
945103.124
 20
7243429.729
 30
0.0
 40
8.0
  1
125'
 50
358.031856
  7
txt
 72
     1
 11
945115.611542
 21
7243437.304599
 31
0.0
210
0.0
220
0.0
230
1.0
 73
     3
  0
TEXT
  8
11
  6
CONTINUOUS
 62
     7
  5
2EA
 10
945229.221
 20
7243425.396
 30
0.0
 40
8.0
  1
125'
 50
358.031856
  7
txt
 72
     1
 11
945241.708542
 21
7243432.971599
 31
0.0
210
0.0
220
0.0
230
1.0
 73
     3
  0
TEXT
  8
11
  6
CONTINUOUS
 62
     7
  5
2EB
 10
945348.588
 20
7243421.294
 30
0.0
 40
8.0
  1
125'
 50
358.031856
  7
txt
 72
     1
 11
945361.075542
 21
7243428.869599
 31
0.0
210
0.0
220
0.0
230
1.0
 73
     3
  0
TEXT
  8
11
  6
CONTINUOUS
 62
     7
  5
2EC
 10
945475.167
 20
7243416.944
 30
0.0
 40
8.0
  1
125'
 50
358.031856
  7
txt
 72
     1
 11
945487.654542
 21
7243424.519599
 31
0.0
210
0.0
220
0.0
230
1.0
 73
     3
  0
TEXT
  8
11
  6
CONTINUOUS
 62
     7
  5
2ED
 10
945604.635
 20
7243412.494
 30
0.0
 40
8.0
  1
110'
 50
358.031856
  7
txt
 72
     1
 11
945615.674397
 21
7243420.119363
 31
0.0
210
0.0
220
0.0
230
1.0
 73
     3
  0
TEXT
  8
11
  6
CONTINUOUS
 62
     7
  5
2EE
 10
945795.585
 20
7243405.935
 30
0.0
 40
8.0
  1
110'
 50
358.031858
  7
txt
 72
     1
 11
945806.624396
 21
7243413.560364
 31
0.0
210
0.0
220
0.0
230
1.0
 73
     3
  0
TEXT
  8
11
  6
CONTINUOUS
 62
     7
  5
2EF
 10
945913.023
 20
7243401.9
 30
0.0
 40
8.0
  1
125'
 50
358.031858
  7
txt
 72
     1
 11
945925.510542
 21
7243409.475599
 31
0.0
210
0.0
220
0.0
230
1.0
 73
     3
  0
TEXT
  8
11
  6
CONTINUOUS
 62
     7
  5
2F0
 10
946039.121
 20
7243397.566
 30
0.0
 40
8.0
  1
125'
 50
358.031858
  7
txt
 72
     1
 11
946051.608542
 21
7243405.141599
 31
0.0
210
0.0
220
0.0
230
1.0
 73
     3
  0
TEXT
  8
11
  6
CONTINUOUS
 62
     7
  5
2F1
 10
946162.863
 20
7243393.314
 30
0.0
 40
8.0
  1
125'
 50
358.031858
  7
txt
 72
     1
 11
946175.350542
 21
7243400.889599
 31
0.0
210
0.0
220
0.0
230
1.0
 73
     3
  0
TEXT
  8
11
  6
CONTINUOUS
 62
     7
  5
2F2
 10
946312.854
 20
7243388.16
 30
0.0
 40
8.0
  1
187.63'
 50
358.031858
  7
txt
 72
     1
 11
946335.193726
 21
7243395.397038
 31
0.0
210
0.0
220
0.0
230
1.0
 73
     3
  0
TEXT
  8
11
  6
CONTINUOUS
 62
     7
  5
2F3
 10
946429.508
 20
7243259.026
 30
0.0
 40
8.0
  1
184.94'
 50
87.78965
  7
txt
 72
     1
 11
946430.372856
 21
7243281.433316
 31
0.0
210
0.0
220
0.0
230
1.0
  0
TEXT
  8
11
  6
CONTINUOUS
 62
     7
  5
2F4
 10
946242.099
 20
7243281.219
 30
0.0
 40
8.0
  1
200'
 50
88.032028
  7
txt
 72
     1
 11
946242.565143
 21
7243294.784994
 31
0.0
210
0.0
220
0.0
230
1.0
  0
TEXT
  8
11
  6
CONTINUOUS
 62
     7
  5
2F5
 10
945865.056
 20
7243300.084
 30
0.0
 40
8.0
  1
200'
 50
88.032028
  7
txt
 72
     1
 11
945865.522143
 21
7243313.649994
 31
0.0
210
0.0
220
0.0
230
1.0
  0
TEXT
  8
11
  6
CONTINUOUS
 62
     7
  5
2F6
 10
945988.659
 20
7243289.173
 30
0.0
 40
8.0
  1
200'
 50
88.032028
  7
txt
 72
     1
 11
945989.125143
 21
7243302.738994
 31
0.0
210
0.0
220
0.0
230
1.0
  0
TEXT
  8
11
  6
CONTINUOUS
 62
     7
  5
2F7
 10
946115.423
 20
7243284.891
 30
0.0
 40
8.0
  1
200'
 50
88.032028
  7
txt
 72
     1
 11
946115.889143
 21
7243298.456994
 31
0.0
210
0.0
220
0.0
230
1.0
  0
TEXT
  8
11
  6
CONTINUOUS
 62
     7
  5
2F8
 10
945782.705
 20
7243218.266
 30
0.0
 40
8.0
  1
125'
 50
358.031903
  7
txt
 72
     1
 11
945794.917791
 21
7243217.846328
 31
0.0
210
0.0
220
0.0
230
1.0
  0
TEXT
  8
11
  6
CONTINUOUS
 62
     7
  5
2F9
 10
945601.661
 20
7243224.488
 30
0.0
 40
8.0
  1
125'
 50
358.031911
  7
txt
 72
     1
 11
945613.873792
 21
7243224.06833
 31
0.0
210
0.0
220
0.0
230
1.0
  0
TEXT
  8
11
  6
CONTINUOUS
 62
     7
  5
2FA
 10
945670.004
 20
7243305.603
 30
0.0
 40
8.0
  1
185'
 50
88.031906
  7
txt
 72
     1
 11
945670.423671
 21
7243317.815791
 31
0.0
210
0.0
220
0.0
230
1.0
  0
TEXT
  8
11
  6
CONTINUOUS
 62
     7
  5
2FB
 10
945558.241
 20
7243309.144
 30
0.0
 40
8.0
  1
200'
 50
88.032028
  7
txt
 72
     1
 11
945558.707143
 21
7243322.709994
 31
0.0
210
0.0
220
0.0
230
1.0
  0
TEXT
  8
11
  6
CONTINUOUS
 62
     7
  5
2FC
 10
944681.48
 20
7243326.79
 30
0.0
 40
8.0
  1
181.43'
 50
88.031903
  7
txt
 72
     1
 11
944682.201444
 21
7243347.784608
 31
0.0
210
0.0
220
0.0
230
1.0
  0
TEXT
  8
11
  6
CONTINUOUS
 62
     7
  5
2FD
 10
944702.38
 20
7243599.723
 30
0.0
 40
8.0
  1
180.25'
 50
88.031897
  7
txt
 72
     1
 11
944695.147274
 21
7243622.188647
 31
0.0
210
0.0
220
0.0
230
1.0
 73
     3
  0
TEXT
  8
11
  6
CONTINUOUS
 62
     7
  5
2FE
 10
944827.728
 20
7243597.762
 30
0.0
 40
8.0
  1
200.24'
 50
88.031972
  7
txt
 72
     1
 11
944820.549333
 21
7243621.801708
 31
0.0
210
0.0
220
0.0
230
1.0
 73
     3
  0
TEXT
  8
11
  6
CONTINUOUS
 62
     7
  5
2FF
 10
944954.1
 20
7243591.017
 30
0.0
 40
8.0
  1
200.23'
 50
88.031975
  7
txt
 72
     1
 11
944946.914841
 21
7243614.867819
 31
0.0
210
0.0
220
0.0
230
1.0
 73
     3
  0
TEXT
  8
11
  6
CONTINUOUS
 62
     7
  5
300
 10
945077.711
 20
7243587.931
 30
0.0
 40
8.0
  1
200.21'
 50
88.031978
  7
txt
 72
     1
 11
945070.477143
 21
7243610.364656
 31
0.0
210
0.0
220
0.0
230
1.0
 73
     3
  0
TEXT
  8
11
  6
CONTINUOUS
 62
     7
  5
301
 10
945200.979
 20
7243580.256
 30
0.0
 40
8.0
  1
200.20'
 50
88.031981
  7
txt
 72
     1
 11
945193.79274
 21
7243604.074838
 31
0.0
210
0.0
220
0.0
230
1.0
 73
     3
  0
TEXT
  8
11
  6
CONTINUOUS
 62
     7
  5
302
 10
945327.202
 20
7243579.221
 30
0.0
 40
8.0
  1
200.19'
 50
88.031983
  7
txt
 72
     1
 11
945319.961651
 21
7243601.465766
 31
0.0
210
0.0
220
0.0
230
1.0
 73
     3
  0
TEXT
  8
11
  6
CONTINUOUS
 62
     7
  5
303
 10
945452.061
 20
7243572.866
 30
0.0
 40
8.0
  1
200.17'
 50
88.031986
  7
txt
 72
     1
 11
945444.828239
 21
7243595.331636
 31
0.0
210
0.0
220
0.0
230
1.0
 73
     3
  0
TEXT
  8
11
  6
CONTINUOUS
 62
     7
  5
304
 10
945577.433
 20
7243571.306
 30
0.0
 40
8.0
  1
200.16'
 50
88.031992
  7
txt
 72
     1
 11
945570.192647
 21
7243593.550765
 31
0.0
210
0.0
220
0.0
230
1.0
 73
     3
  0
TEXT
  8
11
  6
CONTINUOUS
 62
     7
  5
305
 10
945701.295
 20
7243566.755
 30
0.0
 40
8.0
  1
200.15'
 50
88.031994
  7
txt
 72
     1
 11
945694.061137
 21
7243589.188653
 31
0.0
210
0.0
220
0.0
230
1.0
 73
     3
  0
TEXT
  8
11
  6
CONTINUOUS
 62
     7
  5
306
 10
945826.217
 20
7243563.954
 30
0.0
 40
8.0
  1
200.14'
 50
88.031997
  7
txt
 72
     1
 11
945818.989661
 21
7243586.577541
 31
0.0
210
0.0
220
0.0
230
1.0
 73
     3
  0
TEXT
  8
11
  6
CONTINUOUS
 62
     7
  5
307
 10
945951.392
 20
7243555.132
 30
0.0
 40
8.0
  1
200.12'
 50
88.032
  7
txt
 72
     1
 11
945944.158135
 21
7243577.565653
 31
0.0
210
0.0
220
0.0
230
1.0
 73
     3
  0
TEXT
  8
11
  6
CONTINUOUS
 62
     7
  5
308
 10
946076.807
 20
7243554.767
 30
0.0
 40
8.0
  1
200.11'
 50
88.032003
  7
txt
 72
     1
 11
946069.524472
 21
7243575.784488
 31
0.0
210
0.0
220
0.0
230
1.0
 73
     3
  0
TEXT
  8
11
  6
CONTINUOUS
 62
     7
  5
309
 10
946201.298
 20
7243548.068
 30
0.0
 40
8.0
  1
200.10'
 50
88.032006
  7
txt
 72
     1
 11
946194.063033
 21
7243570.469671
 31
0.0
210
0.0
220
0.0
230
1.0
 73
     3
  0
TEXT
  8
11
  6
CONTINUOUS
 62
     7
  5
30A
 10
946325.408
 20
7243539.228
 30
0.0
 40
8.0
  1
200.09'
 50
88.032008
  7
txt
 72
     1
 11
946318.215203
 21
7243562.856946
 31
0.0
210
0.0
220
0.0
230
1.0
 73
     3
  0
TEXT
  8
11
  6
CONTINUOUS
 62
     7
  5
30B
 10
945741.21
 20
7243303.096
 30
0.0
 40
8.0
  1
185'
 50
88.031906
  7
txt
 72
     1
 11
945741.629671
 21
7243315.308791
 31
0.0
210
0.0
220
0.0
230
1.0
  0
TEXT
  8
11
  6
CONTINUOUS
 62
     7
  5
30C
 10
945433.318
 20
7243313.541
 30
0.0
 40
8.0
  1
200'
 50
88.032028
  7
txt
 72
     1
 11
945433.784143
 21
7243327.106994
 31
0.0
210
0.0
220
0.0
230
1.0
  0
TEXT
  8
11
  6
CONTINUOUS
 62
     7
  5
30D
 10
945308.396
 20
7243317.939
 30
0.0
 40
8.0
  1
200'
 50
88.032028
  7
txt
 72
     1
 11
945308.862143
 21
7243331.504994
 31
0.0
210
0.0
220
0.0
230
1.0
  0
TEXT
  8
11
  6
CONTINUOUS
 62
     7
  5
30E
 10
945183.473
 20
7243322.336
 30
0.0
 40
8.0
  1
200'
 50
88.032028
  7
txt
 72
     1
 11
945183.939143
 21
7243335.901994
 31
0.0
210
0.0
220
0.0
230
1.0
  0
TEXT
  8
11
  6
CONTINUOUS
 62
     7
  5
30F
 10
945058.551
 20
7243326.734
 30
0.0
 40
8.0
  1
200'
 50
88.032028
  7
txt
 72
     1
 11
945059.017143
 21
7243340.299994
 31
0.0
210
0.0
220
0.0
230
1.0
  0
TEXT
  8
11
  6
CONTINUOUS
 62
     7
  5
310
 10
944933.628
 20
7243331.131
 30
0.0
 40
8.0
  1
200'
 50
88.032028
  7
txt
 72
     1
 11
944934.094143
 21
7243344.696994
 31
0.0
210
0.0
220
0.0
230
1.0
  0
TEXT
  8
11
  6
CONTINUOUS
 62
     7
  5
311
 10
944808.705
 20
7243335.529
 30
0.0
 40
8.0
  1
200'
 50
88.032028
  7
txt
 72
     1
 11
944809.171143
 21
7243349.094994
 31
0.0
210
0.0
220
0.0
230
1.0
  0
TEXT
  8
11
  6
CONTINUOUS
 62
     7
  5
312
 10
945738.48
 20
7243409.461
 30
0.0
 40
8.0
  1
R=15'
 50
312.9839
  7
txt
 72
     4
 11
945751.971243
 21
7243400.852145
 31
0.0
210
0.0
220
0.0
230
1.0
  0
TEXT
  8
11
  6
CONTINUOUS
 62
     7
  5
313
 10
945652.457
 20
7243394.633
 30
0.0
 40
8.0
  1
R=15'
 50
42.9839
  7
txt
 72
     4
 11
945661.065855
 21
7243408.124243
 31
0.0
210
0.0
220
0.0
230
1.0
  0
TEXT
  8
11
  6
CONTINUOUS
 62
     7
  5
314
 10
946414.531
 20
7243367.806
 30
0.0
 40
8.0
  1
R=15'
 50
42.9839
  7
txt
 72
     4
 11
946423.139855
 21
7243381.297243
 31
0.0
210
0.0
220
0.0
230
1.0
  0
TEXT
  8
11
  6
CONTINUOUS
 62
     7
  5
315
 10
946412.634
 20
7243474.717
 30
0.0
 40
8.0
  1
R=15'
 50
312.9839
  7
txt
 72
     4
 11
946426.125243
 21
7243466.108145
 31
0.0
210
0.0
220
0.0
230
1.0
  0
TEXT
  8
19
  6
CONTINUOUS
 62
     1
  5
316
 10
945328.571
 20
7243452.663
 30
0.0
 40
24.0
  1
COUNTY ROAD 7250
 50
357.9839
  7
ROMANC
 72
     4
 11
945538.42744
 21
7243457.283043
 31
0.0
210
0.0
220
0.0
230
1.0
  0
TEXT
  8
11
  6
CONTINUOUS
 62
     7
  5
317
 10
944676.499
 20
7243483.623
 30
0.0
 40
8.0
  1
R=50'
 50
357.9839
  7
txt
 72
     4
 11
944693.511271
 21
7243487.02661
 31
0.0
210
0.0
220
0.0
230
1.0
  0
TEXT
  8
11
  6
CONTINUOUS
 62
     7
  5
318
 10
944742.314
 20
7243469.012
 30
0.0
 40
8.0
  1
60'
 50
87.9839
  7
txt
 72
     4
 11
944738.647734
 21
7243478.562893
 31
0.0
210
0.0
220
0.0
230
1.0
  0
TEXT
  8
11
  6
CONTINUOUS
 62
     7
  5
319
 10
945698.608
 20
7243391.168
 30
0.0
 40
8.0
  1
60'
 50
357.9839
  7
txt
 72
     4
 11
945708.158893
 21
7243394.834266
 31
0.0
210
0.0
220
0.0
230
1.0
  0
TEXT
  8
11
  6
CONTINUOUS
 62
     7
  5
31A
 10
946422.602
 20
7243418.129
 30
0.0
 40
8.0
  1
60'
 50
87.9839
  7
txt
 72
     4
 11
946418.935734
 21
7243427.679893
 31
0.0
210
0.0
220
0.0
230
1.0
  0
TEXT
  8
11
  6
CONTINUOUS
 62
     7
  5
31B
 10
946450.821
 20
7243199.358
 30
0.0
 40
8.0
  1
55'
 50
357.9839
  7
txt
 72
     4
 11
946460.593755
 21
7243203.016456
 31
0.0
210
0.0
220
0.0
230
1.0
  0
TEXT
  8
11
  6
CONTINUOUS
 62
     7
  5
31C
 10
946466.317
 20
7243639.557
 30
0.0
 40
8.0
  1
55'
 50
357.9839
  7
txt
 72
     4
 11
946476.089755
 21
7243643.215456
 31
0.0
210
0.0
220
0.0
230
1.0
  0
TEXT
  8
11
  6
CONTINUOUS
 62
     7
  5
31D
 10
946486.391
 20
7243391.888
 30
0.0
 40
8.0
  1
460.07'
 50
87.9839
  7
txt
 72
     4
 11
946483.224435
 21
7243415.6341
 31
0.0
210
0.0
220
0.0
230
1.0
  0
TEXT
  8
11
  6
CONTINUOUS
 62
     7
  5
31E
 10
945690.793
 20
7243222.585
 30
0.0
 40
8.0
  1
60'
 50
357.9839
  7
txt
 72
     4
 11
945700.343893
 21
7243226.251266
 31
0.0
210
0.0
220
0.0
230
1.0
  0
TEXT
  8
11
  6
CONTINUOUS
 62
     7
  5
31F
 10
944485.564
 20
7243371.114
 30
0.0
 40
8.0
  1
230'
 50
87.9839
  7
txt
 72
     4
 11
944482.04514
 21
7243384.852299
 31
0.0
210
0.0
220
0.0
230
1.0
  0
TEXT
  8
11
  6
CONTINUOUS
 62
     7
  5
320
 10
944493.335
 20
7243591.861
 30
0.0
 40
8.0
  1
230.27'
 50
87.9839
  7
txt
 72
     4
 11
944490.169596
 21
7243615.64008
 31
0.0
210
0.0
220
0.0
230
1.0
  0
TEXT
  8
11
  6
CONTINUOUS
 62
     7
  5
321
 10
944568.357
 20
7243708.519
 30
0.0
 40
8.0
  1
208.71'
 50
358.026114
  7
txt
 72
     1
 11
944590.855358
 21
7243715.748356
 31
0.0
210
0.0
220
0.0
230
1.0
 73
     3
  0
TEXT
  8
11
  6
CONTINUOUS
 62
     7
  5
322
 10
944551.958
 20
7243260.557
 30
0.0
 40
8.0
  1
196.95'
 50
358.031944
  7
txt
 72
     1
 11
944573.613219
 21
7243259.812871
 31
0.0
210
0.0
220
0.0
230
1.0
  0
TEXT
  8
19
  6
CONTINUOUS
 62
     1
  5
323
 10
946467.492
 20
7243362.601
 30
0.0
 40
24.0
  1
AVE P
 50
87.9839
  7
ROMANC
 72
     4
 11
946457.753044
 21
7243427.04251
 31
0.0
210
0.0
220
0.0
230
1.0
  0
TEXT
  8
22
  6
CONTINUOUS
 62
     3
  5
324
 10
946070.778
 20
7243397.446
 30
0.0
 40
6.0
  1
10'UTILLITY ESMT
 50
357.9839
  7
txt
 72
     4
 11
946113.021441
 21
7243398.9608
 31
0.0
210
0.0
220
0.0
230
1.0
  0
TEXT
  8
22
  6
CONTINUOUS
 62
     3
  5
325
 10
945526.663
 20
7243487.334
 30
0.0
 40
6.0
  1
10'UTILLITY ESMT
 50
357.9839
  7
txt
 72
     4
 11
945568.906441
 21
7243488.8488
 31
0.0
210
0.0
220
0.0
230
1.0
  0
TEXT
  8
22
  6
CONTINUOUS
 62
     3
  5
326
 10
945258.064
 20
7243425.759
 30
0.0
 40
6.0
  1
10'UTILLITY ESMT
 50
357.9839
  7
txt
 72
     4
 11
945300.307441
 21
7243427.2738
 31
0.0
210
0.0
220
0.0
230
1.0
  0
TEXT
  8
22
  6
CONTINUOUS
 62
     3
  5
327
 10
944542.019
 20
7243478.921
 30
0.0
 40
6.0
  1
30'DRE
 50
357.9839
  7
txt
 72
     4
 11
944557.185212
 21
7243481.388975
 31
0.0
210
0.0
220
0.0
230
1.0
  0
TEXT
  8
22
  6
CONTINUOUS
 62
     3
  5
328
 10
944491.176
 20
7243452.832
 30
0.0
 40
6.0
  1
20' GCE & UUE
 50
87.9839
  7
txt
 72
     4
 11
944489.386125
 21
7243487.261281
 31
0.0
210
0.0
220
0.0
230
1.0
  0
TEXT
  8
22
  6
CONTINUOUS
 62
     3
  5
329
 10
945602.921
 20
7243670.569
 30
0.0
 40
6.0
  1
20' GCE & UUE
 50
357.9839
  7
txt
 72
     4
 11
945637.350281
 21
7243672.358875
 31
0.0
210
0.0
220
0.0
230
1.0
  0
POLYLINE
  8
21
  6
DASHDOT
 62
     7
  5
32A
 66
     1
 10
0.0
 20
0.0
 30
0.0
  0
VERTEX
  8
21
  6
DASHDOT
 62
     7
  5
32B
 10
946445.974
 20
7243633.802
 30
0.0
  0
VERTEX
  8
21
  6
DASHDOT
 62
     7
  5
32C
 10
946446.746
 20
7243653.787
 30
0.0
  0
VERTEX
  8
21
  6
DASHDOT
 62
     7
  5
32D
 10
944487.301
 20
7243721.319
 30
0.0
  0
VERTEX
  8
21
  6
DASHDOT
 62
     7
  5
32E
 10
944471.365
 20
7243261.327
 30
0.0
  0
VERTEX
  8
21
  6
DASHDOT
 62
     7
  5
32F
 10
944491.353
 20
7243260.64
 30
0.0
  0
VERTEX
  8
21
  6
DASHDOT
 62
     7
  5
330
 10
944506.25
 20
7243690.647
 30
0.0
  0
VERTEX
  8
21
  6
DASHDOT
 62
     7
  5
331
 10
944516.59
 20
7243700.297
 30
0.0
  0
VERTEX
  8
21
  6
DASHDOT
 62
     7
  5
332
 10
946445.974
 20
7243633.802
 30
0.0
  0
SEQEND
  8
21
  6
DASHDOT
 62
     7
  5
333
  0
POLYLINE
  8
21
  6
DASHDOT
 62
     7
  5
334
 66
     1
 10
0.0
 20
0.0
 30
0.0
 70
     1
  0
VERTEX
  8
21
  6
DASHDOT
 62
     7
  5
335
 10
943973.299
 20
7246976.895
 30
0.0
  0
VERTEX
  8
21
  6
DASHDOT
 62
     7
  5
336
 10
943972.667
 20
7246956.904
 30
0.0
  0
VERTEX
  8
21
  6
DASHDOT
 62
     7
  5
337
 10
941329.725
 20
7247040.359
 30
0.0
  0
VERTEX
  8
21
  6
DASHDOT
 62
     7
  5
338
 10
941330.356
 20
7247060.35
 30
0.0
  0
SEQEND
  8
21
  6
DASHDOT
 62
     7
  5
339
  0
TEXT
  8
22
  6
CONTINUOUS
 62
     3
  5
33A
 10
942223.27
 20
7247025.305
 30
0.0
 40
6.0
  1
20'SANITARY SEWER LINE EASEMENT
 50
358.1914
  7
txt
 72
     4
 11
942311.402803
 21
7247025.523569
 31
0.0
210
0.0
220
0.0
230
1.0
  0
TEXT
  8
13
  6
CONTINUOUS
 62
    14
  5
33B
 10
942453.422
 20
7247017.092
 30
0.0
 40
8.0
  1
V1967 P853
 50
358.1914
  7
txt
 72
     4
 11
942490.850651
 21
7247019.912127
 31
0.0
210
0.0
220
0.0
230
1.0
  0
CIRCLE
  8
8
  6
CONTINUOUS
 62
     7
  5
33D
 10
946185.26064
 20
7242711.861092
 30
0.0
 40
1.0
210
0.0
220
0.0
230
1.0
  0
CIRCLE
  8
8
  6
CONTINUOUS
 62
     7
  5
33E
 10
946185.26064
 20
7242711.861092
 30
0.0
 40
2.0
210
0.0
220
0.0
230
1.0
  0
CIRCLE
  8
8
  6
CONTINUOUS
 62
     7
  5
33F
 10
946093.003227
 20
7242786.809132
 30
0.0
 40
2.0
210
0.0
220
0.0
230
1.0
  0
CIRCLE
  8
8
  6
CONTINUOUS
 62
     7
  5
340
 10
946187.289904
 20
7242771.752776
 30
0.0
 40
2.0
210
0.0
220
0.0
230
1.0
  0
CIRCLE
  8
8
  6
CONTINUOUS
 62
     7
  5
341
 10
946395.083561
 20
7242704.556933
 30
0.0
 40
2.0
210
0.0
220
0.0
230
1.0
  0
CIRCLE
  8
8
  6
CONTINUOUS
 62
     7
  5
342
 10
946409.501311
 20
7242688.975066
 30
0.0
 40
2.0
210
0.0
220
0.0
230
1.0
  0
CIRCLE
  8
8
  6
CONTINUOUS
 62
     7
  5
343
 10
946108.695496
 20
7242771.276458
 30
0.0
 40
2.0
210
0.0
220
0.0
230
1.0
  0
CIRCLE
  8
8
  6
CONTINUOUS
 62
     7
  5
344
 10
946032.639012
 20
7242777.20582
 30
0.0
 40
2.0
210
0.0
220
0.0
230
1.0
  0
CIRCLE
  8
8
  6
CONTINUOUS
 62
     7
  5
345
 10
946019.757774
 20
7242762.872113
 30
0.0
 40
2.0
210
0.0
220
0.0
230
1.0
  0
CIRCLE
  8
8
  6
CONTINUOUS
 62
     7
  5
346
 10
945834.123525
 20
7242653.056808
 30
0.0
 40
2.0
210
0.0
220
0.0
230
1.0
  0
CIRCLE
  8
8
  6
CONTINUOUS
 62
     7
  5
347
 10
945779.792055
 20
7242693.794424
 30
0.0
 40
2.0
210
0.0
220
0.0
230
1.0
  0
CIRCLE
  8
8
  6
CONTINUOUS
 62
     7
  5
348
 10
945760.773898
 20
7242697.620857
 30
0.0
 40
2.0
210
0.0
220
0.0
230
1.0
  0
CIRCLE
  8
8
  6
CONTINUOUS
 62
     7
  5
349
 10
945713.707076
 20
7242660.364621
 30
0.0
 40
2.0
210
0.0
220
0.0
230
1.0
  0
CIRCLE
  8
8
  6
CONTINUOUS
 62
     7
  5
34A
 10
945713.044531
 20
7242640.974927
 30
0.0
 40
2.0
210
0.0
220
0.0
230
1.0
  0
CIRCLE
  8
8
  6
CONTINUOUS
 62
     7
  5
34B
 10
944466.762283
 20
7242256.19235
 30
0.0
 40
2.0
210
0.0
220
0.0
230
1.0
  0
CIRCLE
  8
8
  6
CONTINUOUS
 62
     7
  5
34C
 10
944482.271025
 20
7242270.664706
 30
0.0
 40
2.0
210
0.0
220
0.0
230
1.0
  0
CIRCLE
  8
8
  6
CONTINUOUS
 62
     7
  5
34D
 10
944484.343868
 20
7242330.628902
 30
0.0
 40
2.0
210
0.0
220
0.0
230
1.0
  0
CIRCLE
  8
8
  6
CONTINUOUS
 62
     7
  5
34E
 10
944469.870513
 20
7242346.13768
 30
0.0
 40
2.0
210
0.0
220
0.0
230
1.0
  0
CIRCLE
  8
8
  6
CONTINUOUS
 62
     7
  5
34F
 10
944479.887921
 20
7242635.964672
 30
0.0
 40
2.0
210
0.0
220
0.0
230
1.0
  0
CIRCLE
  8
8
  6
CONTINUOUS
 62
     7
  5
350
 10
944495.396698
 20
7242650.438028
 30
0.0
 40
2.0
210
0.0
220
0.0
230
1.0
  0
CIRCLE
  8
8
  6
CONTINUOUS
 62
     7
  5
351
 10
944837.221476
 20
7242698.680385
 30
0.0
 40
2.0
210
0.0
220
0.0
230
1.0
  0
CIRCLE
  8
8
  6
CONTINUOUS
 62
     7
  5
352
 10
944852.729254
 20
7242713.153776
 30
0.0
 40
2.0
210
0.0
220
0.0
230
1.0
  0
CIRCLE
  8
8
  6
CONTINUOUS
 62
     7
  5
353
 10
944912.693591
 20
7242711.08493
 30
0.0
 40
2.0
210
0.0
220
0.0
230
1.0
  0
CIRCLE
  8
8
  6
CONTINUOUS
 62
     7
  5
354
 10
944927.167945
 20
7242695.576118
 30
0.0
 40
2.0
210
0.0
220
0.0
230
1.0
  0
CIRCLE
  8
8
  6
CONTINUOUS
 62
     7
  5
355
 10
944848.254318
 20
7243018.490215
 30
0.0
 40
2.0
210
0.0
220
0.0
230
1.0
  0
CIRCLE
  8
8
  6
CONTINUOUS
 62
     7
  5
356
 10
944862.727709
 20
7243002.982436
 30
0.0
 40
2.0
210
0.0
220
0.0
230
1.0
  0
CIRCLE
  8
8
  6
CONTINUOUS
 62
     7
  5
357
 10
944922.69201
 20
7243000.912592
 30
0.0
 40
2.0
210
0.0
220
0.0
230
1.0
  0
CIRCLE
  8
8
  6
CONTINUOUS
 62
     7
  5
358
 10
944938.200788
 20
7243015.385947
 30
0.0
 40
2.0
210
0.0
220
0.0
230
1.0
  0
CIRCLE
  8
8
  6
CONTINUOUS
 62
     7
  5
359
 10
944510.595249
 20
7243090.176545
 30
0.0
 40
2.0
210
0.0
220
0.0
230
1.0
  0
CIRCLE
  8
8
  6
CONTINUOUS
 62
     7
  5
35A
 10
944496.130853
 20
7243105.684006
 30
0.0
 40
2.0
210
0.0
220
0.0
230
1.0
  0
CIRCLE
  8
8
  6
CONTINUOUS
 62
     7
  5
35B
 10
945662.358143
 20
7243065.444846
 30
0.0
 40
2.0
210
0.0
220
0.0
230
1.0
  0
CIRCLE
  8
8
  6
CONTINUOUS
 62
     7
  5
35C
 10
945646.849366
 20
7243050.97149
 30
0.0
 40
2.0
210
0.0
220
0.0
230
1.0
  0
CIRCLE
  8
8
  6
CONTINUOUS
 62
     7
  5
35D
 10
945644.78052
 20
7242991.007154
 30
0.0
 40
2.0
210
0.0
220
0.0
230
1.0
  0
CIRCLE
  8
8
  6
CONTINUOUS
 62
     7
  5
35E
 10
945659.253911
 20
7242975.499375
 30
0.0
 40
2.0
210
0.0
220
0.0
230
1.0
  0
CIRCLE
  8
8
  6
CONTINUOUS
 62
     7
  5
35F
 10
945301.425317
 20
7242682.662629
 30
0.0
 40
2.0
210
0.0
220
0.0
230
1.0
  0
CIRCLE
  8
8
  6
CONTINUOUS
 62
     7
  5
360
 10
945299.348512
 20
7242622.699574
 30
0.0
 40
2.0
210
0.0
220
0.0
230
1.0
  0
CIRCLE
  8
8
  6
CONTINUOUS
 62
     7
  5
361
 10
945686.723857
 20
7242606.200371
 30
0.0
 40
2.0
210
0.0
220
0.0
230
1.0
  0
CIRCLE
  8
8
  6
CONTINUOUS
 62
     7
  5
362
 10
945668.177199
 20
7242600.510326
 30
0.0
 40
2.0
210
0.0
220
0.0
230
1.0
  0
CIRCLE
  8
8
  6
CONTINUOUS
 62
     7
  5
363
 10
945644.54095
 20
7242545.376728
 30
0.0
 40
2.0
210
0.0
220
0.0
230
1.0
  0
CIRCLE
  8
8
  6
CONTINUOUS
 62
     7
  5
364
 10
945653.07541
 20
7242528.127806
 30
0.0
 40
2.0
210
0.0
220
0.0
230
1.0
  0
CIRCLE
  8
8
  6
CONTINUOUS
 62
     7
  5
365
 10
945719.111707
 20
7242394.656006
 30
0.0
 40
2.0
210
0.0
220
0.0
230
1.0
  0
CIRCLE
  8
8
  6
CONTINUOUS
 62
     7
  5
366
 10
945663.071873
 20
7242373.134183
 30
0.0
 40
2.0
210
0.0
220
0.0
230
1.0
  0
CIRCLE
  8
8
  6
CONTINUOUS
 62
     7
  5
367
 10
945687.322098
 20
7242309.979958
 30
0.0
 40
2.0
210
0.0
220
0.0
230
1.0
  0
CIRCLE
  8
8
  6
CONTINUOUS
 62
     7
  5
368
 10
945672.786996
 20
7242289.624708
 30
0.0
 40
2.0
210
0.0
220
0.0
230
1.0
  0
CIRCLE
  8
8
  6
CONTINUOUS
 62
     7
  5
369
 10
945708.861476
 20
7242228.344662
 30
0.0
 40
2.0
210
0.0
220
0.0
230
1.0
  0
CIRCLE
  8
8
  6
CONTINUOUS
 62
     7
  5
36A
 10
945722.340274
 20
7242218.721517
 30
0.0
 40
2.0
210
0.0
220
0.0
230
1.0
  0
CIRCLE
  8
8
  6
CONTINUOUS
 62
     7
  5
36B
 10
945741.913209
 20
7242167.750383
 30
0.0
 40
2.0
210
0.0
220
0.0
230
1.0
  0
CIRCLE
  8
8
  6
CONTINUOUS
 62
     7
  5
36C
 10
945797.975241
 20
7242189.277428
 30
0.0
 40
2.0
210
0.0
220
0.0
230
1.0
  0
TEXT
  8
22
  6
CONTINUOUS
 62
     3
  5
36D
 10
945111.916
 20
7243417.937
 30
0.0
 40
6.0
  1
25' BUILDING SETBACK LINE
 50
357.9839
  7
txt
 72
     4
 11
945178.686249
 21
7243418.588404
 31
0.0
210
0.0
220
0.0
230
1.0
  0
TEXT
  8
22
  6
CONTINUOUS
 62
     3
  5
36E
 10
945549.258
 20
7243498.52
 30
0.0
 40
6.0
  1
25' BUILDING SETBACK LINE
 50
357.9839
  7
txt
 72
     4
 11
945616.028249
 21
7243499.171404
 31
0.0
210
0.0
220
0.0
230
1.0
  0
TEXT
  8
22
  6
CONTINUOUS
 62
     3
  5
36F
 10
945997.855
 20
7243386.75
 30
0.0
 40
6.0
  1
25' BUILDING SETBACK LINE
 50
357.9839
  7
txt
 72
     4
 11
946064.625249
 21
7243387.401404
 31
0.0
210
0.0
220
0.0
230
1.0
  0
CIRCLE
  8
8
  6
CONTINUOUS
 62
     7
  5
370
 10
945749.435388
 20
7243417.526385
 30
0.0
 40
2.0
210
0.0
220
0.0
230
1.0
  0
CIRCLE
  8
8
  6
CONTINUOUS
 62
     7
  5
371
 10
945733.929503
 20
7243403.049926
 30
0.0
 40
2.0
210
0.0
220
0.0
230
1.0
  0
CIRCLE
  8
8
  6
CONTINUOUS
 62
     7
  5
372
 10
945673.96485
 20
7243405.109777
 30
0.0
 40
2.0
210
0.0
220
0.0
230
1.0
  0
CIRCLE
  8
8
  6
CONTINUOUS
 62
     7
  5
373
 10
945659.488391
 20
7243420.615662
 30
0.0
 40
2.0
210
0.0
220
0.0
230
1.0
  0
CIRCLE
  8
8
  6
CONTINUOUS
 62
     7
  5
374
 10
945714.56381
 20
7242838.509756
 30
0.0
 40
2.0
210
0.0
220
0.0
230
1.0
  0
CIRCLE
  8
8
  6
CONTINUOUS
 62
     7
  5
375
 10
945812.471981
 20
7242708.993142
 30
0.0
 40
2.0
210
0.0
220
0.0
230
1.0
  0
TEXT
  8
11
  6
CONTINUOUS
 62
     7
  5
376
 10
944690.282
 20
7243594.41
 30
0.0
 40
6.0
  1
N00%%d02'53"W
 50
87.9839
  7
txt
 72
     4
 11
944688.359812
 21
7243625.080609
 31
0.0
210
0.0
220
0.0
230
1.0
  0
TEXT
  8
11
  6
CONTINUOUS
 62
     7
  5
377
 10
944667.567
 20
7243313.921
 30
0.0
 40
6.0
  1
N00%%d02'53"W
 50
87.9839
  7
txt
 72
     4
 11
944665.644812
 21
7243344.591609
 31
0.0
210
0.0
220
0.0
230
1.0
  0
TEXT
  8
11
  6
CONTINUOUS
 62
     7
  5
378
 10
944559.357
 20
7242915.495
 30
0.0
 40
6.0
  1
S00%%d02'24"E
 50
87.9839
  7
ROMANS
 72
     4
 11
944557.48023
 21
7242947.45581
 31
0.0
210
0.0
220
0.0
230
1.0
  0
TEXT
  8
11
  6
CONTINUOUS
 62
     7
  5
379
 10
944608.313
 20
7243133.256
 30
0.0
 40
6.0
  1
S00%%d02'24"E
 50
87.9839
  7
ROMANS
 72
     4
 11
944606.43623
 21
7243165.21681
 31
0.0
210
0.0
220
0.0
230
1.0
  0
TEXT
  8
11
  6
CONTINUOUS
 62
     7
  5
37A
 10
944553.585
 20
7242751.524
 30
0.0
 40
6.0
  1
S00%%d02'24"E
 50
87.9839
  7
ROMANS
 72
     4
 11
944551.70823
 21
7242783.48481
 31
0.0
210
0.0
220
0.0
230
1.0
  0
TEXT
  8
11
  6
CONTINUOUS
 62
     7
  5
37B
 10
944576.733
 20
7242542.184
 30
0.0
 40
6.0
  1
S00%%d02'24"E
 50
87.9839
  7
ROMANS
 72
     4
 11
944574.85623
 21
7242574.14481
 31
0.0
210
0.0
220
0.0
230
1.0
  0
TEXT
  8
11
  6
CONTINUOUS
 62
     7
  5
37C
 10
944570.756
 20
7242372.433
 30
0.0
 40
6.0
  1
S00%%d02'24"E
 50
87.9839
  7
ROMANS
 72
     4
 11
944568.87923
 21
7242404.39381
 31
0.0
210
0.0
220
0.0
230
1.0
  0
TEXT
  8
11
  6
CONTINUOUS
 62
     7
  5
37D
 10
944571.85
 20
7242158.253
 30
0.0
 40
6.0
  1
S00%%d02'24"E
 50
87.9839
  7
ROMANS
 72
     4
 11
944569.97323
 21
7242190.21381
 31
0.0
210
0.0
220
0.0
230
1.0
  0
TEXT
  8
11
  6
CONTINUOUS
 62
     7
  5
37E
 10
945623.043
 20
7242125.792
 30
0.0
 40
6.0
  1
N00%%d02'24"W
 50
87.9839
  7
ROMANS
 72
     4
 11
945621.175834
 21
7242158.025641
 31
0.0
210
0.0
220
0.0
230
1.0
  0
TEXT
  8
11
  6
CONTINUOUS
 62
     7
  5
37F
 10
945738.661
 20
7242321.43
 30
0.0
 40
6.0
  1
S23%%d01'21"E
 50
291.006342
  7
ROMANS
 72
     1
 11
945755.688517
 21
7242293.824216
 31
0.0
210
0.0
220
0.0
230
1.0
 73
     3
  0
TEXT
  8
11
  6
CONTINUOUS
 62
     7
  5
380
 10
945549.954
 20
7242336.449
 30
0.0
 40
6.0
  1
N00%%d02'24"W
 50
87.9839
  7
ROMANS
 72
     4
 11
945548.086834
 21
7242368.682641
 31
0.0
210
0.0
220
0.0
230
1.0
  0
TEXT
  8
11
  6
CONTINUOUS
 62
     7
  5
381
 10
945474.889
 20
7242501.695
 30
0.0
 40
6.0
  1
N00%%d02'24"W
 50
87.9839
  7
ROMANS
 72
     4
 11
945473.021834
 21
7242533.928641
 31
0.0
210
0.0
220
0.0
230
1.0
  0
TEXT
  8
11
  6
CONTINUOUS
 62
     7
  5
382
 10
945502.446
 20
7242707.415
 30
0.0
 40
6.0
  1
N00%%d02'24"W
 50
87.9839
  7
ROMANS
 72
     4
 11
945500.578834
 21
7242739.648641
 31
0.0
210
0.0
220
0.0
230
1.0
  0
TEXT
  8
11
  6
CONTINUOUS
 62
     7
  5
383
 10
945585.241
 20
7242684.105
 30
0.0
 40
6.0
  1
S14%%d03'39"W
 50
73.922978
  7
ROMANS
 72
     1
 11
945594.143724
 21
7242714.995701
 31
0.0
210
0.0
220
0.0
230
1.0
  0
TEXT
  8
11
  6
CONTINUOUS
 62
     7
  5
384
 10
945760.419
 20
7242863.003
 30
0.0
 40
6.0
  1
S89%%d57'36"W
 50
357.9839
  7
ROMANS
 72
     4
 11
945792.652641
 21
7242864.870166
 31
0.0
210
0.0
220
0.0
230
1.0
  0
TEXT
  8
11
  6
CONTINUOUS
 62
     7
  5
385
 10
945933.784
 20
7242871.959
 30
0.0
 40
6.0
  1
S89%%d57'36"W
 50
357.9839
  7
ROMANS
 72
     4
 11
945966.017641
 21
7242873.826166
 31
0.0
210
0.0
220
0.0
230
1.0
  0
TEXT
  8
11
  6
CONTINUOUS
 62
     7
  5
386
 10
946241.074
 20
7242711.246
 30
0.0
 40
6.0
  1
S89%%d58'39"W
 50
357.9839
  7
ROMANS
 72
     4
 11
946273.307641
 21
7242713.113166
 31
0.0
210
0.0
220
0.0
230
1.0
  0
TEXT
  8
11
  6
CONTINUOUS
 62
     7
  5
387
 10
946227.737
 20
7243259.992
 30
0.0
 40
6.0
  1
S00%%d02'53"E
 50
87.9839
  7
txt
 72
     4
 11
946225.779913
 21
7243289.671223
 31
0.0
210
0.0
220
0.0
230
1.0
  0
TEXT
  8
11
  6
CONTINUOUS
 62
     7
  5
388
 10
946313.692
 20
7243530.408
 30
0.0
 40
6.0
  1
S00%%d02'53"E
 50
87.9839
  7
txt
 72
     4
 11
946311.734913
 21
7243560.087223
 31
0.0
210
0.0
220
0.0
230
1.0
  0
TEXT
  8
11
  6
CONTINUOUS
 62
     7
  5
389
 10
943984.92
 20
7246985.917
 30
0.0
 40
8.0
  1
5280'
 50
358.1914
  7
ROMANS
 72
     1
 11
944002.496852
 21
7246993.365972
 31
0.0
210
0.0
220
0.0
230
1.0
 73
     3
  0
TEXT
  8
19
  6
CONTINUOUS
 62
     1
  5
38A
 10
946325.228
 20
7246871.464
 30
0.0
 40
24.0
  1
98TH ST
 50
358.1914
  7
ROMANC
 72
     4
 11
946413.055144
 21
7246880.696706
 31
0.0
210
0.0
220
0.0
230
1.0
  0
POLYLINE
  8
21
  6
DASHDOT
 62
     7
  5
38B
 66
     1
 10
0.0
 20
0.0
 30
0.0
  0
VERTEX
  8
21
  6
DASHDOT
 62
     7
  5
38C
 10
946611.56
 20
7246893.589
 30
0.0
  0
VERTEX
  8
21
  6
DASHDOT
 62
     7
  5
38D
 10
946610.928
 20
7246873.599
 30
0.0
  0
VERTEX
  8
21
  6
DASHDOT
 62
     7
  5
38E
 10
945951.258
 20
7246894.429
 30
0.0
  0
VERTEX
  8
21
  6
DASHDOT
 62
     7
  5
38F
 10
945951.888
 20
7246914.419
 30
0.0
  0
VERTEX
  8
21
  6
DASHDOT
 62
     7
  5
390
 10
946611.56
 20
7246893.589
 30
0.0
  0
SEQEND
  8
21
  6
DASHDOT
 62
     7
  5
391
  0
SOLID
  8
21
  6
DASHDOT
 62
     7
  5
392
 10
946611.56
 20
7246893.589
 30
0.0
 11
946609.666
 21
7246833.619
 31
0.0
 12
945951.888
 22
7246914.419
 32
0.0
 13
945949.994
 23
7246854.449
 33
0.0
  0
TEXT
  8
22
  6
CONTINUOUS
 62
     3
  5
393
 10
946286.109
 20
7246910.687
 30
0.0
 40
6.0
  1
660'
 50
358.1914
  7
txt
 72
     4
 11
946296.118741
 21
7246913.372423
 31
0.0
210
0.0
220
0.0
230
1.0
  0
TEXT
  8
22
  6
CONTINUOUS
 62
     3
  5
394
 10
946096.13
 20
7246902.306
 30
0.0
 40
6.0
  1
20'SSE
 50
358.1914
  7
txt
 72
     4
 11
946111.287175
 21
7246904.828885
 31
0.0
210
0.0
220
0.0
230
1.0
  0
TEXT
  8
22
  6
CONTINUOUS
 62
     3
  5
395
 10
946284.228
 20
7246851.132
 30
0.0
 40
6.0
  1
660'
 50
358.1914
  7
txt
 72
     4
 11
946294.237741
 21
7246853.817423
 31
0.0
210
0.0
220
0.0
230
1.0
  0
TEXT
  8
13
  6
CONTINUOUS
 62
    14
  5
396
 10
946201.954
 20
7246898.915
 30
0.0
 40
8.0
  1
V1991 P402
 50
358.1914
  7
txt
 72
     4
 11
946236.644016
 21
7246901.821604
 31
0.0
210
0.0
220
0.0
230
1.0
  0
TEXT
  8
13
  6
CONTINUOUS
 62
    14
  5
397
 10
946206.102
 20
7246864.3
 30
0.0
 40
8.0
  1
V1811 P667
 50
358.1914
  7
txt
 72
     4
 11
946239.249785
 21
7246867.255302
 31
0.0
210
0.0
220
0.0
230
1.0
  0
SOLID
  8
21
  6
DASHDOT
 62
     7
  5
398
 10
945951.888
 20
7246914.419
 30
0.0
 11
945949.994
 21
7246854.449
 31
0.0
 12
944632.546
 22
7246956.079
 32
0.0
 13
944630.652
 23
7246896.109
 33
0.0
  0
POLYLINE
  8
21
  6
DASHDOT
 62
     7
  5
399
 66
     1
 10
0.0
 20
0.0
 30
0.0
  0
VERTEX
  8
21
  6
DASHDOT
 62
     7
  5
39A
 10
944632.97
 20
7246956.065
 30
0.0
  0
VERTEX
  8
21
  6
DASHDOT
 62
     7
  5
39B
 10
945292.642
 20
7246935.234
 30
0.0
  0
VERTEX
  8
21
  6
DASHDOT
 62
     7
  5
39C
 10
945292.01
 20
7246915.244
 30
0.0
  0
VERTEX
  8
21
  6
DASHDOT
 62
     7
  5
39D
 10
944632.339
 20
7246936.074
 30
0.0
  0
VERTEX
  8
21
  6
DASHDOT
 62
     7
  5
39E
 10
944632.97
 20
7246956.065
 30
0.0
  0
SEQEND
  8
21
  6
DASHDOT
 62
     7
  5
39F
  0
TEXT
  8
22
  6
CONTINUOUS
 62
     3
  5
3A0
 10
945222.702
 20
7246945.199
 30
0.0
 40
6.0
  1
1320'
 50
358.1914
  7
txt
 72
     4
 11
945234.932634
 21
7246947.814294
 31
0.0
210
0.0
220
0.0
230
1.0
  0
TEXT
  8
22
  6
CONTINUOUS
 62
     3
  5
3A1
 10
944987.762
 20
7246933.124
 30
0.0
 40
6.0
  1
660'
 50
358.1914
  7
txt
 72
     4
 11
944997.771741
 21
7246935.809423
 31
0.0
210
0.0
220
0.0
230
1.0
  0
TEXT
  8
22
  6
CONTINUOUS
 62
     3
  5
3A2
 10
945220.84
 20
7246886.25
 30
0.0
 40
6.0
  1
1320'
 50
358.1914
  7
txt
 72
     4
 11
945233.070634
 21
7246888.865294
 31
0.0
210
0.0
220
0.0
230
1.0
  0
TEXT
  8
13
  6
CONTINUOUS
 62
    14
  5
3A3
 10
945200.539
 20
7246898.42
 30
0.0
 40
8.0
  1
V1811 P669
 50
358.1914
  7
txt
 72
     4
 11
945233.465895
 21
7246901.382277
 31
0.0
210
0.0
220
0.0
230
1.0
  0
TEXT
  8
13
  6
CONTINUOUS
 62
    14
  5
3A4
 10
944897.341
 20
7246940.146
 30
0.0
 40
8.0
  1
V1989 P822
 50
358.1914
  7
txt
 72
     4
 11
944934.517777
 21
7246942.974081
 31
0.0
210
0.0
220
0.0
230
1.0
  0
POLYLINE
  8
6
  6
CONTINUOUS
 62
     7
  5
3A5
 66
     1
 10
0.0
 20
0.0
 30
0.0
  0
VERTEX
  8
6
  6
CONTINUOUS
 62
     7
  5
3A6
 10
943971.139
 20
7246921.937
 30
0.0
  0
VERTEX
  8
6
  6
CONTINUOUS
 62
     7
  5
3A7
 10
943970.981
 20
7246916.939
 30
0.0
  0
VERTEX
  8
6
  6
CONTINUOUS
 62
     7
  5
3A8
 10
946609.666
 20
7246833.619
 30
0.0
  0
SEQEND
  8
6
  6
CONTINUOUS
 62
     7
  5
3A9
  0
POLYLINE
  8
21
  6
DASHDOT
 62
     7
  5
3AA
 66
     1
 10
0.0
 20
0.0
 30
0.0
 70
     1
  0
VERTEX
  8
21
  6
DASHDOT
 62
     7
  5
3AB
 10
943972.875
 20
7246976.909
 30
0.0
  0
VERTEX
  8
21
  6
DASHDOT
 62
     7
  5
3AC
 10
944368.678
 20
7246964.411
 30
0.0
  0
VERTEX
  8
21
  6
DASHDOT
 62
     7
  5
3AD
 10
944366.784
 20
7246904.441
 30
0.0
  0
VERTEX
  8
21
  6
DASHDOT
 62
     7
  5
3AE
 10
943970.981
 20
7246916.939
 30
0.0
  0
VERTEX
  8
21
  6
DASHDOT
 62
     7
  5
3AF
 10
943972.875
 20
7246976.909
 30
0.0
  0
SEQEND
  8
21
  6
DASHDOT
 62
     7
  5
3B0
  0
POLYLINE
  8
21
  6
DASHDOT
 62
     7
  5
3B1
 66
     1
 10
0.0
 20
0.0
 30
0.0
  0
VERTEX
  8
21
  6
DASHDOT
 62
     7
  5
3B2
 10
943973.299
 20
7246976.895
 30
0.0
  0
VERTEX
  8
21
  6
DASHDOT
 62
     7
  5
3B3
 10
944567.003
 20
7246958.148
 30
0.0
  0
VERTEX
  8
21
  6
DASHDOT
 62
     7
  5
3B4
 10
944566.372
 20
7246938.157
 30
0.0
  0
VERTEX
  8
21
  6
DASHDOT
 62
     7
  5
3B5
 10
943972.667
 20
7246956.904
 30
0.0
  0
VERTEX
  8
21
  6
DASHDOT
 62
     7
  5
3B6
 10
943973.299
 20
7246976.895
 30
0.0
  0
SEQEND
  8
21
  6
DASHDOT
 62
     7
  5
3B7
  0
SOLID
  8
21
  6
DASHDOT
 62
     7
  5
3B8
 10
944566.579
 20
7246958.162
 30
0.0
 11
944632.546
 21
7246956.079
 31
0.0
 12
944564.685
 22
7246898.192
 32
0.0
 13
944630.652
 23
7246896.109
 33
0.0
  0
SOLID
  8
21
  6
DASHDOT
 62
     7
  5
3B9
 10
944368.678
 20
7246964.411
 30
0.0
 11
944366.784
 21
7246904.441
 31
0.0
 12
944566.579
 22
7246958.162
 32
0.0
 13
944564.685
 23
7246898.192
 33
0.0
  0
TEXT
  8
11
  6
CONTINUOUS
 62
     7
  5
3BA
 10
943968.455
 20
7246951.652
 30
0.0
 40
6.0
  1
55'
 50
88.1914
  7
txt
 72
     4
 11
943965.684616
 21
7246958.971082
 31
0.0
210
0.0
220
0.0
230
1.0
  0
TEXT
  8
11
  6
CONTINUOUS
 62
     7
  5
3BB
 10
943978.098
 20
7246951.007
 30
0.0
 40
6.0
  1
60'
 50
88.1914
  7
txt
 72
     4
 11
943975.322377
 21
7246958.160164
 31
0.0
210
0.0
220
0.0
230
1.0
  0
TEXT
  8
22
  6
CONTINUOUS
 62
     3
  5
3BC
 10
944152.704
 20
7246980.152
 30
0.0
 40
6.0
  1
396'
 50
358.1914
  7
txt
 72
     4
 11
944162.737729
 21
7246982.836665
 31
0.0
210
0.0
220
0.0
230
1.0
  0
TEXT
  8
22
  6
CONTINUOUS
 62
     3
  5
3BD
 10
944182.323
 20
7246958.325
 30
0.0
 40
6.0
  1
594'
 50
358.1914
  7
txt
 72
     4
 11
944192.640587
 21
7246961.000702
 31
0.0
210
0.0
220
0.0
230
1.0
  0
TEXT
  8
22
  6
CONTINUOUS
 62
     3
  5
3BE
 10
944363.19
 20
7246938.847
 30
0.0
 40
6.0
  1
60'
 50
88.1914
  7
txt
 72
     4
 11
944360.414377
 21
7246946.000164
 31
0.0
210
0.0
220
0.0
230
1.0
  0
TEXT
  8
22
  6
CONTINUOUS
 62
     3
  5
3BF
 10
944150.811
 20
7246920.181
 30
0.0
 40
6.0
  1
396'
 50
358.1914
  7
txt
 72
     4
 11
944160.844729
 21
7246922.865665
 31
0.0
210
0.0
220
0.0
230
1.0
  0
TEXT
  8
13
  6
CONTINUOUS
 62
    14
  5
3C0
 10
944130.044
 20
7246931.057
 30
0.0
 40
8.0
  1
V1811 P671
 50
358.1914
  7
txt
 72
     4
 11
944161.964396
 21
7246934.051059
 31
0.0
210
0.0
220
0.0
230
1.0
  0
TEXT
  8
13
  6
CONTINUOUS
 62
    14
  5
3C1
 10
944261.946
 20
7246959.414
 30
0.0
 40
8.0
  1
V1976 P217
 50
358.1914
  7
txt
 72
     4
 11
944297.768452
 21
7246962.284846
 31
0.0
210
0.0
220
0.0
230
1.0
  0
POLYLINE
  8
21
  6
DASHDOT
 62
     7
  5
3C2
 66
     1
 10
0.0
 20
0.0
 30
0.0
  0
VERTEX
  8
21
  6
DASHDOT
 62
     7
  5
3C3
 10
944567.003
 20
7246958.148
 30
0.0
  0
VERTEX
  8
21
  6
DASHDOT
 62
     7
  5
3C4
 10
944566.372
 20
7246938.157
 30
0.0
  0
VERTEX
  8
21
  6
DASHDOT
 62
     7
  5
3C5
 10
944632.339
 20
7246936.074
 30
0.0
  0
VERTEX
  8
21
  6
DASHDOT
 62
     7
  5
3C6
 10
944632.97
 20
7246956.065
 30
0.0
  0
VERTEX
  8
21
  6
DASHDOT
 62
     7
  5
3C7
 10
944567.003
 20
7246958.148
 30
0.0
  0
SEQEND
  8
21
  6
DASHDOT
 62
     7
  5
3C8
  0
TEXT
  8
22
  6
CONTINUOUS
 62
     3
  5
3C9
 10
944590.568
 20
7246966.352
 30
0.0
 40
6.0
  1
66'
 50
358.1914
  7
txt
 72
     4
 11
944597.603223
 21
7246969.131347
 31
0.0
210
0.0
220
0.0
230
1.0
  0
TEXT
  8
22
  6
CONTINUOUS
 62
     3
  5
3CA
 10
944447.494
 20
7246971.961
 30
0.0
 40
6.0
  1
198'
 50
358.1914
  7
txt
 72
     4
 11
944456.607187
 21
7246974.674733
 31
0.0
210
0.0
220
0.0
230
1.0
  0
TEXT
  8
22
  6
CONTINUOUS
 62
     3
  5
3CB
 10
944445.577
 20
7246911.229
 30
0.0
 40
6.0
  1
198'
 50
358.1914
  7
txt
 72
     4
 11
944454.690187
 21
7246913.942733
 31
0.0
210
0.0
220
0.0
230
1.0
  0
TEXT
  8
22
  6
CONTINUOUS
 62
     3
  5
3CC
 10
944588.647
 20
7246905.505
 30
0.0
 40
6.0
  1
66'
 50
358.1914
  7
txt
 72
     4
 11
944595.682223
 21
7246908.284347
 31
0.0
210
0.0
220
0.0
230
1.0
  0
TEXT
  8
13
  6
CONTINUOUS
 62
    14
  5
3CD
 10
944420.902
 20
7246921.005
 30
0.0
 40
8.0
  1
V1811 P673
 50
358.1914
  7
txt
 72
     4
 11
944454.238691
 21
7246923.954337
 31
0.0
210
0.0
220
0.0
230
1.0
  0
TEXT
  8
13
  6
CONTINUOUS
 62
    14
  5
3CE
 10
944563.472
 20
7246916.711
 30
0.0
 40
8.0
  1
V1811 P675
 50
358.1914
  7
txt
 72
     4
 11
944596.808691
 21
7246919.660337
 31
0.0
210
0.0
220
0.0
230
1.0
  0
TEXT
  8
13
  6
CONTINUOUS
 62
    14
  5
3CF
 10
944561.944
 20
7246946.321
 30
0.0
 40
8.0
  1
V1991 P400
 50
358.1914
  7
txt
 72
     4
 11
944596.602032
 21
7246949.228614
 31
0.0
210
0.0
220
0.0
230
1.0
  0
CIRCLE
  8
8
  6
CONTINUOUS
 62
     7
  5
3D0
 10
946424.094448
 20
7243454.377474
 30
0.0
 40
2.0
210
0.0
220
0.0
230
1.0
  0
CIRCLE
  8
8
  6
CONTINUOUS
 62
     7
  5
3D1
 10
946439.6059
 20
7243468.784694
 30
0.0
 40
2.0
210
0.0
220
0.0
230
1.0
  0
CIRCLE
  8
8
  6
CONTINUOUS
 62
     7
  5
3D2
 10
946421.668823
 20
7243394.425697
 30
0.0
 40
2.0
210
0.0
220
0.0
230
1.0
  0
CIRCLE
  8
8
  6
CONTINUOUS
 62
     7
  5
3D3
 10
946436.135106
 20
7243378.858132
 30
0.0
 40
2.0
210
0.0
220
0.0
230
1.0
  0
POLYLINE
  8
21
  6
DASHDOT
 62
     7
  5
3D4
 66
     1
 10
0.0
 20
0.0
 30
0.0
  0
VERTEX
  8
21
  6
DASHDOT
 62
     7
  5
3D5
 10
941394.091575
 20
7246979.286392
 30
0.0
 42
-0.414262
  0
VERTEX
  8
21
  6
DASHDOT
 62
     7
  5
3D6
 10
941425.0149
 20
7247008.338902
 30
0.0
  0
VERTEX
  8
21
  6
DASHDOT
 62
     7
  5
3D7
 10
941425.014
 20
7247008.338
 30
0.0
  0
VERTEX
  8
21
  6
DASHDOT
 62
     7
  5
3D8
 10
941394.091
 20
7246979.286
 30
0.0
  0
SEQEND
  8
21
  6
DASHDOT
 62
     7
  5
3D9
  0
POLYLINE
  8
21
  6
DASHDOT
 62
     7
  5
3DA
 66
     1
 10
0.0
 20
0.0
 30
0.0
  0
VERTEX
  8
21
  6
DASHDOT
 62
     7
  5
3DB
 10
941362.985
 20
7246813.473
 30
0.0
  0
VERTEX
  8
21
  6
DASHDOT
 62
     7
  5
3DC
 10
941387.976
 20
7246812.773
 30
0.0
  0
VERTEX
  8
21
  6
DASHDOT
 62
     7
  5
3DD
 10
941393.026
 20
7246972.696
 30
0.0
  0
VERTEX
  8
21
  6
DASHDOT
 62
     7
  5
3DE
 10
941393.02543
 20
7246972.695172
 30
0.0
 42
-0.414268
  0
VERTEX
  8
21
  6
DASHDOT
 62
     7
  5
3DF
 10
941423.860551
 20
7247001.841844
 30
0.0
  0
VERTEX
  8
21
  6
DASHDOT
 62
     7
  5
3E0
 10
941423.86
 20
7247001.841
 30
0.0
  0
VERTEX
  8
21
  6
DASHDOT
 62
     7
  5
3E1
 10
941368.982
 20
7247003.378
 30
0.0
  0
VERTEX
  8
21
  6
DASHDOT
 62
     7
  5
3E2
 10
941362.985
 20
7246813.473
 30
0.0
  0
SEQEND
  8
21
  6
DASHDOT
 62
     7
  5
3E3
  0
TEXT
  8
13
  6
CONTINUOUS
 62
    14
  5
3E4
 10
941382.863
 20
7246875.54
 30
0.0
 40
8.0
  1
V6904 P100
 50
88.191381
  7
txt
 72
     1
 11
941384.047836
 21
7246913.062298
 31
0.0
210
0.0
220
0.0
230
1.0
  0
TEXT
  8
13
  6
CONTINUOUS
 62
    14
  5
3E5
 10
941439.136
 20
7246980.751
 30
0.0
 40
8.0
  1
V6904
 50
358.1914
  7
txt
 72
     4
 11
941458.085861
 21
7246984.154623
 31
0.0
210
0.0
220
0.0
230
1.0
  0
TEXT
  8
13
  6
CONTINUOUS
 62
    14
  5
3E6
 10
941444.296
 20
7246967.582
 30
0.0
 40
8.0
  1
P135
 50
358.1914
  7
txt
 72
     4
 11
941457.675637
 21
7246971.161511
 31
0.0
210
0.0
220
0.0
230
1.0
  0
LINE
  8
CONSTRUCTION_CLASS
  6
CONTINUOUS
 62
     2
  5
3E7
 10
941328.168
 20
7247085.548
 30
0.0
 11
946423.405
 21
7241622.914
 31
0.0
  0
LINE
  8
CONSTRUCTION_CLASS
  6
CONTINUOUS
 62
     2
  5
3E8
 10
941146.673
 20
7241808.666
 30
0.0
 11
946609.157
 21
7246899.646
 31
0.0
  0
CIRCLE
  8
CONSTRUCTION_CLASS
  6
CONTINUOUS
 62
     2
  5
3E9
 10
943876.813
 20
7244353.129
 30
0.0
 40
50.0
210
0.0
220
0.0
230
1.0
  0
CIRCLE
  8
CONSTRUCTION_CLASS
  6
CONTINUOUS
 62
     2
  5
3EA
 10
943876.813
 20
7244353.129
 30
0.0
 40
5000.0
210
0.0
220
0.0
230
1.0
  0
LINE
  8
58
  6
DIVIDE
 62
   216
  5
3EC
 10
941806.264
 20
7241785.447
 30
0.0
 11
941968.798
 21
7246402.587
 31
0.0
  0
LINE
  8
58
  6
DIVIDE
 62
   216
  5
3ED
 10
946585.938
 20
7246240.054
 30
0.0
 11
941968.798
 21
7246402.587
 31
0.0
  0
ENDSEC
  0
EOF
