  0
SECTION
  2
HEADER
  9
$ACADVER
  1
AC1009
  9
$INSBASE
 10
0.0
 20
0.0
 30
0.0
  9
$EXTMIN
 10
968860.374
 20
7246114.795
 30
0.0
  9
$EXTMAX
 10
974328.341
 20
7251614.01
 30
0.0
  9
$LIMMIN
 10
0.0
 20
0.0
  9
$LIMMAX
 10
12.0
 20
9.0
  9
$ORTHOMODE
 70
     0
  9
$REGENMODE
 70
     1
  9
$FILLMODE
 70
     1
  9
$QTEXTMODE
 70
     0
  9
$MIRRTEXT
 70
     1
  9
$DRAGMODE
 70
     2
  9
$LTSCALE
 40
1.0
  9
$OSMODE
 70
     0
  9
$ATTMODE
 70
     1
  9
$TEXTSIZE
 40
0.2
  9
$TRACEWID
 40
0.05
  9
$TEXTSTYLE
  7
STANDARD
  9
$CLAYER
  8
0
  9
$CELTYPE
  6
CONTINUOUS
  9
$CECOLOR
 62
   256
  9
$DIMSCALE
 40
1.0
  9
$DIMASZ
 40
0.18
  9
$DIMEXO
 40
0.0625
  9
$DIMDLI
 40
0.38
  9
$DIMRND
 40
0.0
  9
$DIMDLE
 40
0.0
  9
$DIMEXE
 40
0.18
  9
$DIMTP
 40
0.0
  9
$DIMTM
 40
0.0
  9
$DIMTXT
 40
0.18
  9
$DIMCEN
 40
0.09
  9
$DIMTSZ
 40
0.0
  9
$DIMTOL
 70
     0
  9
$DIMLIM
 70
     0
  9
$DIMTIH
 70
     1
  9
$DIMTOH
 70
     1
  9
$DIMSE1
 70
     0
  9
$DIMSE2
 70
     0
  9
$DIMTAD
 70
     0
  9
$DIMZIN
 70
     0
  9
$DIMBLK
  1

  9
$DIMASO
 70
     1
  9
$DIMSHO
 70
     1
  9
$DIMPOST
  1

  9
$DIMAPOST
  1

  9
$DIMALT
 70
     0
  9
$DIMALTD
 70
     2
  9
$DIMALTF
 40
25.4
  9
$DIMLFAC
 40
1.0
  9
$DIMTOFL
 70
     0
  9
$DIMTVP
 40
0.0
  9
$DIMTIX
 70
     0
  9
$DIMSOXD
 70
     0
  9
$DIMSAH
 70
     0
  9
$DIMBLK1
  1

  9
$DIMBLK2
  1

  9
$DIMSTYLE
  2
STANDARD
  9
$DIMCLRD
 70
     0
  9
$DIMCLRE
 70
     0
  9
$DIMCLRT
 70
     0
  9
$DIMTFAC
 40
1.0
  9
$DIMGAP
 40
0.09
  9
$LUNITS
 70
     2
  9
$LUPREC
 70
     4
  9
$AXISMODE
 70
     0
  9
$AXISUNIT
 10
0.0
 20
0.0
  9
$SKETCHINC
 40
0.1
  9
$FILLETRAD
 40
0.0
  9
$AUNITS
 70
     0
  9
$AUPREC
 70
     0
  9
$MENU
  1
acad
  9
$ELEVATION
 40
0.0
  9
$PELEVATION
 40
0.0
  9
$THICKNESS
 40
0.0
  9
$LIMCHECK
 70
     0
  9
$BLIPMODE
 70
     1
  9
$CHAMFERA
 40
0.0
  9
$CHAMFERB
 40
0.0
  9
$SKPOLY
 70
     0
  9
$TDCREATE
 40
2453013.903564815
  9
$TDUPDATE
 40
2453013.903564815
  9
$TDINDWG
 40
0.0000000000
  9
$TDUSRTIMER
 40
0.0000000000
  9
$USRTIMER
 70
     1
  9
$ANGBASE
 50
0.0
  9
$ANGDIR
 70
     0
  9
$PDMODE
 70
     0
  9
$PDSIZE
 40
0.0
  9
$PLINEWID
 40
0.0
  9
$COORDS
 70
     0
  9
$SPLFRAME
 70
     0
  9
$SPLINETYPE
 70
     6
  9
$SPLINESEGS
 70
    10
  9
$ATTDIA
 70
     0
  9
$ATTREQ
 70
     1
  9
$HANDLING
 70
     1
  9
$HANDSEED
  5
C9
  9
$SURFTAB1
 70
     6
  9
$SURFTAB2
 70
     6
  9
$SURFTYPE
 70
     6
  9
$SURFU
 70
     6
  9
$SURFV
 70
     6
  9
$UCSNAME
  2

  9
$UCSORG
 10
0.0
 20
0.0
 30
0.0
  9
$UCSXDIR
 10
1.0
 20
0.0
 30
0.0
  9
$UCSYDIR
 10
0.0
 20
1.0
 30
0.0
  9
$PUCSNAME
  2

  9
$PUCSORG
 10
0.0
 20
0.0
 30
0.0
  9
$PUCSXDIR
 10
1.0
 20
0.0
 30
0.0
  9
$PUCSYDIR
 10
0.0
 20
1.0
 30
0.0
  9
$USERI1
 70
     0
  9
$USERI2
 70
     0
  9
$USERI3
 70
     0
  9
$USERI4
 70
     0
  9
$USERI5
 70
     0
  9
$USERR1
 40
0.0
  9
$USERR2
 40
0.0
  9
$USERR3
 40
0.0
  9
$USERR4
 40
0.0
  9
$USERR5
 40
0.0
  9
$WORLDVIEW
 70
     1
  9
$SHADEDGE
 70
     3
  9
$SHADEDIF
 70
    70
  9
$TILEMODE
 70
     1
  9
$MAXACTVP
 70
    16
  9
$PINSBASE
 10
0.0
 20
0.0
 30
0.0
  9
$PLIMCHECK
 70
     0
  9
$PEXTMIN
 10
-1.000000E+20
 20
-1.000000E+20
 30
-1.000000E+20
  9
$PEXTMAX
 10
-1.000000E+20
 20
-1.000000E+20
 30
-1.000000E+20
  9
$PLIMMIN
 10
0.0
 20
0.0
  9
$PLIMMAX
 10
12.0
 20
9.0
  9
$UNITMODE
 70
     0
  9
$VISRETAIN
 70
     0
  9
$PLINEGEN
 70
     1
  9
$PSLTSCALE
 70
     0
  9
$TREEDEPTH
 70
  3020
  9
$DWGCODEPAGE
  3
ansi_1252
  0
ENDSEC
  0
SECTION
  2
TABLES
  0
TABLE
  2
VPORT
 70
     1
  0
VPORT
  2
*ACTIVE
 70
     0
 10
0.0
 20
0.0
 11
1.0
 21
1.0
 12
0.0
 22
0.0
 13
0.0
 23
0.0
 14
0.0
 24
0.0
 15
0.0
 25
0.0
 16
0.0
 26
0.0
 36
1.0
 17
968990.857304
 27
7251242.151566
 37
0.0
 40
415.254
 41
1.2213
 42
50.0
 43
0.004
 44
0.0
 50
1.752601
 51
0.0
 71
     0
 72
   100
 73
     1
 74
     0
 75
     0
 76
     0
 77
     0
 78
     0
  0
ENDTAB
  0
TABLE
  2
LTYPE
 70
     7
  0
LTYPE
  2
CONTINUOUS
 70
     0
  3
Solid line
 72
    65
 73
     0
 40
0.0
  0
LTYPE
  2
DOT
 70
    64
  3
. . . . . . . . . . . . . . . . . . . . . . . . . . . . . . . . .
 72
    65
 73
     2
 40
0.25
 49
0.0
 49
-0.25
  0
LTYPE
  2
HIDDEN
 70
    64
  3
__ __ __ __ __ __ __ __ __ __ __ __ __ __ __ __ __ __ __ __ __ 
 72
    65
 73
     2
 40
0.375
 49
0.25
 49
-0.125
  0
LTYPE
  2
DASHED
 70
    64
  3
__ __ __ __ __ __ __ __ __ __ __ __ __ __ __ __ __ __ __ __ __
 72
    65
 73
     2
 40
0.75
 49
0.5
 49
-0.25
  0
LTYPE
  2
DASHDOT
 70
    64
  3
__ . __ . __ . __ . __ . __ . __ . __ . __ . __ . __ . __ . _
 72
    65
 73
     4
 40
1.0
 49
0.5
 49
-0.25
 49
0.0
 49
-0.25
  0
LTYPE
  2
DIVIDE
 70
    64
  3
____ . . ____ . . ____ . . ____ . . ____ . . ____ . . ____ . .
 72
    65
 73
     6
 40
1.25
 49
0.5
 49
-0.25
 49
0.0
 49
-0.25
 49
0.0
 49
-0.25
  0
LTYPE
  2
CENTER
 70
    64
  3
____ _ ____ _ ____ _ ____ _ ____ _ ____ _ ____ _ ____ _ ____ _
 72
    65
 73
     4
 40
2.0
 49
1.25
 49
-0.25
 49
0.25
 49
-0.25
  0
ENDTAB
  0
TABLE
  2
LAYER
 70
    14
  0
LAYER
  2
0
 70
     0
 62
     7
  6
CONTINUOUS
  0
LAYER
  2
CONSTRUCTION_CLASS
 70
     1
 62
     7
  6
CONTINUOUS
  0
LAYER
  2
PATTERN_CLASS
 70
     0
 62
     7
  6
CONTINUOUS
  0
LAYER
  2
6
 70
    64
 62
     7
  6
CONTINUOUS
  0
LAYER
  2
27
 70
    64
 62
     7
  6
CONTINUOUS
  0
LAYER
  2
11
 70
    64
 62
     7
  6
CONTINUOUS
  0
LAYER
  2
19
 70
    64
 62
     7
  6
CONTINUOUS
  0
LAYER
  2
DEFPOINTS
 70
    64
 62
     7
  6
CONTINUOUS
  0
LAYER
  2
21
 70
    64
 62
     7
  6
CONTINUOUS
  0
LAYER
  2
1
 70
    64
 62
     7
  6
CONTINUOUS
  0
LAYER
  2
22
 70
    64
 62
     7
  6
CONTINUOUS
  0
LAYER
  2
58
 70
    64
 62
     7
  6
CONTINUOUS
  0
LAYER
  2
10
 70
    64
 62
     7
  6
CONTINUOUS
  0
LAYER
  2
28
 70
    64
 62
     7
  6
CONTINUOUS
  0
ENDTAB
  0
TABLE
  2
STYLE
 70
     4
  0
STYLE
  2
STANDARD
 70
     0
 40
0.0
 41
1.0
 50
0.0
 71
     0
 42
0.0
  3
txt
  4

  0
STYLE
  2
ROMANS
 70
     0
 40
0.2
 41
1.0
 50
0.0
 71
     0
 42
0.2
  3
ROMANS
  4

  0
STYLE
  2
ROMANC
 70
     0
 40
0.2
 41
1.0
 50
0.0
 71
     0
 42
0.2
  3
ROMANC
  4

  0
STYLE
  2
txt
 70
     0
 40
0.2
 41
1.0
 50
0.0
 71
     0
 42
0.2
  3
TXT
  4

  0
ENDTAB
  0
TABLE
  2
VIEW
 70
     0
  0
ENDTAB
  0
TABLE
  2
UCS
 70
     0
  0
ENDTAB
  0
TABLE
  2
APPID
 70
     1
  0
APPID
  2
ACAD
 70
     0
  0
ENDTAB
  0
TABLE
  2
DIMSTYLE
 70
     2
  0
DIMSTYLE
  2
STANDARD
 70
     0
  3

  4

  5

  6

  7

 40
1.0
 41
0.18
 42
0.0625
 43
0.38
 44
0.18
 45
0.0
 46
0.0
 47
0.0
 48
0.0
140
0.18
141
0.09
142
0.0
143
25.4
144
1.0
145
0.0
146
1.0
147
0.09
 71
     0
 72
     0
 73
     1
 74
     1
 75
     0
 76
     0
 77
     0
 78
     0
170
     0
171
     2
172
     0
173
     0
174
     0
175
     0
176
     0
177
     0
178
     0
  0
DIMSTYLE
  2
MSADIM
 70
     0
  3

  4

  5

  6

  7

 40
1.0
 41
8.0
 42
4.0
 43
0.0
 44
4.0
 45
0.0
 46
0.0
 47
0.0
 48
0.0
140
8.0
141
4.0
142
0.0
143
25.4
144
1.0
145
4.0
146
1.0
147
4.0
 71
     0
 72
     0
 73
     1
 74
     1
 75
     1
 76
     1
 77
     0
 78
     2
170
     0
171
     2
172
     0
173
     0
174
     0
175
     0
176
     0
177
     0
178
     0
  0
ENDTAB
  0
ENDSEC
  0
SECTION
  2
BLOCKS
  0
BLOCK
  8
11
  6
CONTINUOUS
 62
     7
  5
74
  2
*D0
 70
     1
 10
0.0
 20
0.0
 30
0.0
  3
*N0
  0
TEXT
  8
11
  6
CONTINUOUS
 62
     7
  5
75
 10
970505.907
 20
7250371.713
 30
0.0
 40
8.0
  1
N56%%d05'04"W
 50
326.084386
  7
ROMANS
 72
     1
 11
970545.9419
 21
7250354.435001
 31
0.0
210
0.0
220
0.0
230
1.0
 73
     3
  0
TEXT
  8
11
  6
CONTINUOUS
 62
     7
  5
76
 10
970526.063
 20
7250377.441
 30
0.0
 40
8.0
  1
4052.25'
 50
326.084386
  7
ROMANS
 72
     1
 11
970550.405291
 21
7250361.074029
 31
0.0
210
0.0
220
0.0
230
1.0
  0
ENDBLK
  8
11
  6
CONTINUOUS
 62
     7
  5
77
  0
BLOCK
  8
11
  6
CONTINUOUS
 62
     7
  5
7A
  2
*D1
 70
     1
 10
0.0
 20
0.0
 30
0.0
  3
*N1
  0
TEXT
  8
11
  6
CONTINUOUS
 62
     7
  5
7B
 10
972448.048
 20
7249259.96
 30
0.0
 40
8.0
  1
N35%%d08'00"E
 50
54.866658
  7
ROMANS
 72
     1
 11
972465.963434
 21
7249299.320986
 31
0.0
210
0.0
220
0.0
230
1.0
 73
     3
  0
TEXT
  8
11
  6
CONTINUOUS
 62
     7
  5
7C
 10
972451.748
 20
7249293.021
 30
0.0
 40
8.0
  1
500'
 50
54.866658
  7
ROMANS
 72
     1
 11
972459.420892
 21
7249303.924927
 31
0.0
210
0.0
220
0.0
230
1.0
  0
ENDBLK
  8
11
  6
CONTINUOUS
 62
     7
  5
7D
  0
BLOCK
  8
11
  6
CONTINUOUS
 62
     7
  5
80
  2
*D2
 70
     1
 10
0.0
 20
0.0
 30
0.0
  3
*N2
  0
TEXT
  8
11
  6
CONTINUOUS
 62
     7
  5
81
 10
972356.623
 20
7249738.389
 30
0.0
 40
8.0
  1
N54%%d52'00"W
 50
324.866672
  7
ROMANS
 72
     1
 11
972396.281675
 21
7249720.264101
 31
0.0
210
0.0
220
0.0
230
1.0
 73
     3
  0
TEXT
  8
11
  6
CONTINUOUS
 62
     7
  5
82
 10
972383.439
 20
7249739.083
 30
0.0
 40
8.0
  1
599.9'
 50
324.866672
  7
ROMANS
 72
     1
 11
972400.88545
 21
7249726.806263
 31
0.0
210
0.0
220
0.0
230
1.0
  0
ENDBLK
  8
11
  6
CONTINUOUS
 62
     7
  5
83
  0
ENDSEC
  0
SECTION
  2
ENTITIES
  0
ARC
  8
6
  6
CONTINUOUS
 62
     7
  5
29
 10
968478.932214
 20
7248686.76342
 30
0.0
 40
2814.79
 50
48.800014
 51
71.750022
210
0.0
220
0.0
230
1.0
  0
LINE
  8
6
  6
CONTINUOUS
 62
     7
  5
2A
 10
969134.633
 20
7251437.016
 30
0.0
 11
969360.42
 21
7251359.968
 31
0.0
  0
LINE
  8
6
  6
CONTINUOUS
 62
     7
  5
2B
 10
970859.695
 20
7250343.571
 30
0.0
 11
970333.004
 21
7250804.653
 31
0.0
  0
ARC
  8
6
  6
CONTINUOUS
 62
     7
  5
2C
 10
972779.636345
 20
7252536.702137
 30
0.0
 40
2914.79
 50
228.799994
 51
246.549983
210
0.0
220
0.0
230
1.0
  0
LINE
  8
6
  6
CONTINUOUS
 62
     7
  5
2D
 10
971619.699
 20
7249862.653
 30
0.0
 11
972024.368
 21
7249687.116
 31
0.0
  0
ARC
  8
6
  6
CONTINUOUS
 62
     7
  5
2E
 10
970904.226004
 20
7247104.80729
 30
0.0
 40
2814.79
 50
54.633317
 51
66.549992
210
0.0
220
0.0
230
1.0
  0
LINE
  8
6
  6
CONTINUOUS
 62
     7
  5
2F
 10
974184.617
 20
7248228.186
 30
0.0
 11
972533.447
 21
7249400.168
 31
0.0
  0
LINE
  8
6
  6
CONTINUOUS
 62
     7
  5
30
 10
974191.069
 20
7248432.079
 30
0.0
 11
972142.644
 21
7249886.026
 31
0.0
  0
ARC
  8
6
  6
CONTINUOUS
 62
     7
  5
31
 10
975435.814498
 20
7254525.675728
 30
0.0
 40
5689.58
 50
217.900014
 51
234.633308
210
0.0
220
0.0
230
1.0
  0
LINE
  8
6
  6
CONTINUOUS
 62
     7
  5
32
 10
970946.258
 20
7251030.651
 30
0.0
 11
970576.498
 21
7251505.63
 31
0.0
  0
LINE
  8
27
  6
CONTINUOUS
 62
    32
  5
34
 10
970641.462
 20
7251503.574
 30
0.0
 11
970985.713
 21
7251061.364
 31
0.0
  0
ARC
  8
27
  6
CONTINUOUS
 62
    32
  5
35
 10
975435.814533
 20
7254525.676727
 30
0.0
 40
5639.58
 50
217.900022
 51
234.633306
210
0.0
220
0.0
230
1.0
  0
LINE
  8
27
  6
CONTINUOUS
 62
    32
  5
36
 10
972171.584
 20
7249926.8
 30
0.0
 11
974192.965
 21
7248492.047
 31
0.0
  0
LINE
  8
6
  6
CONTINUOUS
 62
     7
  5
37
 10
971025.167
 20
7251092.079
 30
0.0
 11
970706.426
 21
7251501.519
 31
0.0
  0
ARC
  8
6
  6
CONTINUOUS
 62
     7
  5
38
 10
975435.813534
 20
7254525.676763
 30
0.0
 40
5589.58
 50
217.900028
 51
234.633308
210
0.0
220
0.0
230
1.0
  0
LINE
  8
6
  6
CONTINUOUS
 62
     7
  5
39
 10
974194.862
 20
7248552.015
 30
0.0
 11
972200.525
 21
7249967.573
 31
0.0
  0
LINE
  8
6
  6
CONTINUOUS
 62
     7
  5
3A
 10
970770.308
 20
7251419.458
 30
0.0
 11
973476.973
 21
7251333.831
 31
0.0
  0
LINE
  8
6
  6
CONTINUOUS
 62
     7
  5
3B
 10
974268.304
 20
7251338.038
 30
0.0
 11
973476.973
 21
7251333.831
 31
0.0
  0
TEXT
  8
11
  6
CONTINUOUS
 62
     7
  5
3E
 10
969119.496
 20
7251442.572
 30
0.0
 40
8.0
  1
N 73%%d47'42" W
 50
341.749969
  7
ROMANS
 72
     1
 11
969167.801488
 21
7251426.64321
 31
0.0
210
0.0
220
0.0
230
1.0
  0
TEXT
  8
11
  6
CONTINUOUS
 62
     7
  5
3F
 10
969882.9
 20
7251131.07
 30
0.0
 40
8.0
  1
R=2814.79'
 50
329.954667
  7
ROMANS
 72
     4
 11
969917.220153
 21
7251115.839942
 31
0.0
210
0.0
220
0.0
230
1.0
  0
TEXT
  8
11
  6
CONTINUOUS
 62
     7
  5
40
 10
969875.61
 20
7251116.615
 30
0.0
 40
8.0
  1
1119.95'?
 50
329.954667
  7
ROMANS
 72
     4
 11
969907.449259
 21
7251102.819906
 31
0.0
210
0.0
220
0.0
230
1.0
  0
TEXT
  8
11
  6
CONTINUOUS
 62
     7
  5
41
 10
969915.061
 20
7251313.92
 30
0.0
 40
8.0
  1
R=3869.71'
 50
335.954667
  7
ROMANS
 72
     4
 11
969950.785118
 21
7251302.360807
 31
0.0
210
0.0
220
0.0
230
1.0
  0
TEXT
  8
11
  6
CONTINUOUS
 62
     7
  5
42
 10
970576.424
 20
7250596.241
 30
0.0
 40
8.0
  1
N 50%%d50'42" W
 50
318.800008
  7
ROMANS
 72
     1
 11
970614.694837
 21
7250562.737425
 31
0.0
210
0.0
220
0.0
230
1.0
  0
TEXT
  8
11
  6
CONTINUOUS
 62
     7
  5
43
 10
970588.241
 20
7250566.505
 30
0.0
 40
8.0
  1
700'
 50
318.800008
  7
ROMANS
 72
     1
 11
970603.543216
 21
7250563.741356
 31
0.0
210
0.0
220
0.0
230
1.0
 73
     3
  0
TEXT
  8
11
  6
CONTINUOUS
 62
     7
  5
44
 10
971209.165
 20
7250083.802
 30
0.0
 40
8.0
  1
R=3914.79'
 50
327.954667
  7
ROMANS
 72
     4
 11
971242.932725
 21
7250067.383464
 31
0.0
210
0.0
220
0.0
230
1.0
  0
TEXT
  8
11
  6
CONTINUOUS
 62
     7
  5
45
 10
971204.974
 20
7250070.914
 30
0.0
 40
8.0
  1
889.38'?
 50
327.954667
  7
ROMANS
 72
     4
 11
971232.921907
 21
7250058.138495
 31
0.0
210
0.0
220
0.0
230
1.0
  0
TEXT
  8
11
  6
CONTINUOUS
 62
     7
  5
46
 10
971770.711
 20
7249800.416
 30
0.0
 40
8.0
  1
N 68%%d35'42" W
 50
336.549969
  7
ROMANS
 72
     1
 11
971817.374014
 21
7249780.174716
 31
0.0
210
0.0
220
0.0
230
1.0
  0
TEXT
  8
11
  6
CONTINUOUS
 62
     7
  5
47
 10
971786.318
 20
7249778.387
 30
0.0
 40
8.0
  1
441.10'
 50
336.549969
  7
ROMANS
 72
     1
 11
971812.742277
 21
7249775.645015
 31
0.0
210
0.0
220
0.0
230
1.0
 73
     3
  0
TEXT
  8
11
  6
CONTINUOUS
 62
     7
  5
48
 10
972266.161
 20
7249554.646
 30
0.0
 40
8.0
  1
584.38'?
 50
330.954667
  7
ROMANS
 72
     4
 11
972294.739224
 21
7249543.350684
 31
0.0
210
0.0
220
0.0
230
1.0
  0
TEXT
  8
11
  6
CONTINUOUS
 62
     7
  5
49
 10
972272.661
 20
7249569.546
 30
0.0
 40
8.0
  1
R=2814.79'
 50
330.954667
  7
ROMANS
 72
     4
 11
972307.241727
 21
7249554.917231
 31
0.0
210
0.0
220
0.0
230
1.0
  0
TEXT
  8
11
  6
CONTINUOUS
 62
     7
  5
4A
 10
973307.195
 20
7248854.65
 30
0.0
 40
8.0
  1
N 56%%d40'42" W
 50
324.633314
  7
ROMANS
 72
     1
 11
973348.672785
 21
7248825.209554
 31
0.0
210
0.0
220
0.0
230
1.0
  0
TEXT
  8
11
  6
CONTINUOUS
 62
     7
  5
4B
 10
972561.174
 20
7249404.178
 30
0.0
 40
8.0
  1
50'
 50
54.633
  7
ROMANS
 72
     4
 11
972563.314203
 21
7249414.103947
 31
0.0
210
0.0
220
0.0
230
1.0
  0
TEXT
  8
11
  6
CONTINUOUS
 62
     7
  5
4C
 10
972598.488
 20
7249460.65
 30
0.0
 40
8.0
  1
80'
 50
54.633
  7
ROMANS
 72
     4
 11
972600.628203
 21
7249470.575947
 31
0.0
210
0.0
220
0.0
230
1.0
  0
TEXT
  8
11
  6
CONTINUOUS
 62
     7
  5
4D
 10
972627.448
 20
7249507.784
 30
0.0
 40
8.0
  1
40'
 50
54.633
  7
ROMANS
 72
     4
 11
972629.588203
 21
7249517.709947
 31
0.0
210
0.0
220
0.0
230
1.0
  0
TEXT
  8
11
  6
CONTINUOUS
 62
     7
  5
4E
 10
974130.73
 20
7248431.965
 30
0.0
 40
8.0
  1
40'
 50
54.633
  7
ROMANS
 72
     4
 11
974132.870203
 21
7248441.890947
 31
0.0
210
0.0
220
0.0
230
1.0
  0
TEXT
  8
11
  6
CONTINUOUS
 62
     7
  5
4F
 10
974111.268
 20
7248387.508
 30
0.0
 40
8.0
  1
80'
 50
54.633
  7
ROMANS
 72
     4
 11
974113.408203
 21
7248397.433947
 31
0.0
210
0.0
220
0.0
230
1.0
  0
TEXT
  8
11
  6
CONTINUOUS
 62
     7
  5
50
 10
974083.348
 20
7248352.767
 30
0.0
 40
8.0
  1
50'
 50
54.633
  7
ROMANS
 72
     4
 11
974085.488203
 21
7248362.692947
 31
0.0
210
0.0
220
0.0
230
1.0
  0
TEXT
  8
11
  6
CONTINUOUS
 62
     7
  5
51
 10
974138.889
 20
7248495.116
 30
0.0
 40
8.0
  1
50'
 50
54.633
  7
ROMANS
 72
     4
 11
974141.029203
 21
7248505.041947
 31
0.0
210
0.0
220
0.0
230
1.0
  0
TEXT
  8
11
  6
CONTINUOUS
 62
     7
  5
52
 10
974153.388
 20
7248535.907
 30
0.0
 40
8.0
  1
50'
 50
54.633
  7
ROMANS
 72
     4
 11
974155.528203
 21
7248545.832947
 31
0.0
210
0.0
220
0.0
230
1.0
  0
TEXT
  8
11
  6
CONTINUOUS
 62
     7
  5
53
 10
972196.169
 20
7249932.229
 30
0.0
 40
8.0
  1
50'
 50
54.633
  7
ROMANS
 72
     4
 11
972198.309203
 21
7249942.154947
 31
0.0
210
0.0
220
0.0
230
1.0
  0
TEXT
  8
11
  6
CONTINUOUS
 62
     7
  5
54
 10
972165.751
 20
7249889.161
 30
0.0
 40
8.0
  1
50'
 50
54.633
  7
ROMANS
 72
     4
 11
972167.891203
 21
7249899.086947
 31
0.0
210
0.0
220
0.0
230
1.0
  0
TEXT
  8
11
  6
CONTINUOUS
 62
     7
  5
55
 10
971379.194
 20
7250519.146
 30
0.0
 40
8.0
  1
R=5689.58'
 50
314.954667
  7
ROMANS
 72
     4
 11
971408.402186
 21
7250495.552892
 31
0.0
210
0.0
220
0.0
230
1.0
  0
TEXT
  8
11
  6
CONTINUOUS
 62
     7
  5
56
 10
971395.934
 20
7250525.445
 30
0.0
 40
8.0
  1
1655.75'?
 50
314.954667
  7
ROMANS
 72
     4
 11
971423.117929
 21
7250503.879355
 31
0.0
210
0.0
220
0.0
230
1.0
  0
TEXT
  8
11
  6
CONTINUOUS
 62
     7
  5
57
 10
970703.703
 20
7251324.321
 30
0.0
 40
8.0
  1
N 39%%d56'42" W?
 50
307.899928
  7
ROMANS
 72
     1
 11
970743.474511
 21
7251286.2554
 31
0.0
210
0.0
220
0.0
230
1.0
 73
     3
  0
TEXT
  8
11
  6
CONTINUOUS
 62
     7
  5
58
 10
970565.269
 20
7251471.012
 30
0.0
 40
8.0
  1
40'
 50
37.899667
  7
ROMANS
 72
     4
 11
970570.176433
 21
7251479.901432
 31
0.0
210
0.0
220
0.0
230
1.0
  0
TEXT
  8
11
  6
CONTINUOUS
 62
     7
  5
59
 10
970629.394
 20
7251469.524
 30
0.0
 40
8.0
  1
50'
 50
37.899667
  7
ROMANS
 72
     4
 11
970634.301433
 21
7251478.413432
 31
0.0
210
0.0
220
0.0
230
1.0
  0
TEXT
  8
11
  6
CONTINUOUS
 62
     7
  5
5A
 10
970690.486
 20
7251472.963
 30
0.0
 40
8.0
  1
50'
 50
37.899667
  7
ROMANS
 72
     4
 11
970695.393433
 21
7251481.852432
 31
0.0
210
0.0
220
0.0
230
1.0
  0
TEXT
  8
11
  6
CONTINUOUS
 62
     7
  5
5B
 10
970800.211
 20
7251453.542
 30
0.0
 40
8.0
  1
80'
 50
87.954667
  7
ROMANS
 72
     4
 11
970796.546681
 21
7251463.012814
 31
0.0
210
0.0
220
0.0
230
1.0
  0
TEXT
  8
11
  6
CONTINUOUS
 62
     7
  5
5C
 10
973481.213
 20
7251366.179
 30
0.0
 40
8.0
  1
80'
 50
87.954667
  7
ROMANS
 72
     4
 11
973477.548681
 21
7251375.649814
 31
0.0
210
0.0
220
0.0
230
1.0
  0
TEXT
  8
11
  6
CONTINUOUS
 62
     7
  5
5D
 10
972058.814
 20
7251381.697
 30
0.0
 40
8.0
  1
N 89%%d46' E
 50
358.187978
  7
ROMANS
 72
     1
 11
972097.294748
 21
7251380.479611
 31
0.0
210
0.0
220
0.0
230
1.0
  0
TEXT
  8
11
  6
CONTINUOUS
 62
     7
  5
5E
 10
972066.475
 20
7251367.447
 30
0.0
 40
8.0
  1
2708.02'
 50
358.187978
  7
ROMANS
 72
     1
 11
972096.046296
 21
7251374.515476
 31
0.0
210
0.0
220
0.0
230
1.0
 73
     3
  0
TEXT
  8
11
  6
CONTINUOUS
 62
     7
  5
5F
 10
973841.763
 20
7251338.77
 30
0.0
 40
8.0
  1
N 87%%d39' E
 50
0.304622
  7
ROMANS
 72
     1
 11
973880.262456
 21
7251338.97469
 31
0.0
210
0.0
220
0.0
230
1.0
  0
TEXT
  8
11
  6
CONTINUOUS
 62
     7
  5
60
 10
973847.904
 20
7251324.803
 30
0.0
 40
8.0
  1
800.6'
 50
0.304622
  7
ROMANS
 72
     1
 11
973869.194165
 21
7251332.916307
 31
0.0
210
0.0
220
0.0
230
1.0
 73
     3
  0
TEXT
  8
11
  6
CONTINUOUS
 62
     7
  5
61
 10
974256.738
 20
7251355.564
 30
0.0
 40
8.0
  1
50'
 50
87.954667
  7
ROMANS
 72
     4
 11
974253.073681
 21
7251365.034814
 31
0.0
210
0.0
220
0.0
230
1.0
  0
TEXT
  8
11
  6
CONTINUOUS
 62
     7
  5
62
 10
971990.346
 20
7251449.895
 30
0.0
 40
8.0
  1
N 89%%d46' E
 50
358.188
  7
ROMANS
 72
     1
 11
972029.079709
 21
7251456.673626
 31
0.0
210
0.0
220
0.0
230
1.0
 73
     3
  0
TEXT
  8
11
  6
CONTINUOUS
 62
     7
  5
63
 10
969363.935
 20
7251390.92
 30
0.0
 40
8.0
  1
80'
 50
71.749667
  7
ROMANS
 72
     4
 11
969363.05902
 21
7251401.036202
 31
0.0
210
0.0
220
0.0
230
1.0
  0
TEXT
  8
11
  6
CONTINUOUS
 62
     7
  5
64
 10
969389.212
 20
7251473.88
 30
0.0
 40
8.0
  1
80'
 50
71.749667
  7
ROMANS
 72
     4
 11
969388.33602
 21
7251483.996202
 31
0.0
210
0.0
220
0.0
230
1.0
  0
TEXT
  8
11
  6
CONTINUOUS
 62
     7
  5
65
 10
968972.763
 20
7249396.985
 30
0.0
 40
8.0
  1
N 0%%d38'30" W
 50
88.596333
  7
ROMANS
 72
     4
 11
968969.912188
 21
7249443.932922
 31
0.0
210
0.0
220
0.0
230
1.0
  0
TEXT
  8
11
  6
CONTINUOUS
 62
     7
  5
66
 10
969008.328
 20
7251452.258
 30
0.0
 40
8.0
  1
20'
 50
357.954667
  7
ROMANS
 72
     4
 11
969017.797815
 21
7251455.922355
 31
0.0
210
0.0
220
0.0
230
1.0
  0
TEXT
  8
11
  6
CONTINUOUS
 62
     7
  5
67
 10
968907.595
 20
7246311.206
 30
0.0
 40
8.0
  1
20'
 50
357.954667
  7
ROMANS
 72
     4
 11
968917.064815
 21
7246314.870355
 31
0.0
210
0.0
220
0.0
230
1.0
  0
TEXT
  8
11
  6
CONTINUOUS
 62
     7
  5
68
 10
971763.969
 20
7246190.16
 30
0.0
 40
8.0
  1
N 89%%d43'32" E
 50
358.229117
  7
ROMANS
 72
     1
 11
971814.444881
 21
7246188.599407
 31
0.0
210
0.0
220
0.0
230
1.0
  0
TEXT
  8
11
  6
CONTINUOUS
 62
     7
  5
69
 10
974189.002
 20
7249031.231
 30
0.0
 40
8.0
  1
N 0%%d33'27" W?
 50
88.512167
  7
ROMANS
 72
     4
 11
974186.313734
 21
7249081.785844
 31
0.0
210
0.0
220
0.0
230
1.0
  0
TEXT
  8
19
  6
CONTINUOUS
 62
     1
  5
6C
 10
970487.035
 20
7251486.733
 30
0.0
 40
24.0
  1
SPUR   331
 50
307.899667
  7
ROMANC
 72
     4
 11
970572.883703
 21
7251395.989208
 31
0.0
210
0.0
220
0.0
230
1.0
  0
TEXT
  8
19
  6
CONTINUOUS
 62
     1
  5
6D
 10
969556.103
 20
7251364.959
 30
0.0
 40
24.0
  1
U.S. 84
 50
337.954667
  7
ROMANC
 72
     4
 11
969622.260835
 21
7251351.11515
 31
0.0
210
0.0
220
0.0
230
1.0
  0
TEXT
  8
19
  6
CONTINUOUS
 62
     1
  5
6E
 10
973775.376
 20
7248612.548
 30
0.0
 40
24.0
  1
U.S. 84
 50
324.633
  7
ROMANC
 72
     4
 11
973836.563779
 21
7248583.832725
 31
0.0
210
0.0
220
0.0
230
1.0
  0
TEXT
  8
11
  6
CONTINUOUS
 62
     7
  5
6F
 10
970866.081
 20
7250361.606
 30
0.0
 40
8.0
  1
50'
 50
48.799667
  7
ROMANS
 72
     4
 11
970869.218945
 21
7250371.263028
 31
0.0
210
0.0
220
0.0
230
1.0
  0
TEXT
  8
11
  6
CONTINUOUS
 62
     7
  5
70
 10
970437.966
 20
7251484.331
 30
0.0
 40
8.0
  1
50'
 50
26.783
  7
ROMANS
 72
     4
 11
970444.495301
 21
7251492.107446
 31
0.0
210
0.0
220
0.0
230
1.0
  0
INSERT
  8
11
  6
CONTINUOUS
 62
     7
  5
78
  2
*D0
 10
972352.287
 20
7249144.727
 30
0.0
 70
     0
 71
     0
  0
INSERT
  8
11
  6
CONTINUOUS
 62
     7
  5
7E
  2
*D1
 10
972352.287
 20
7249144.727
 30
0.0
 70
     0
 71
     0
  0
INSERT
  8
11
  6
CONTINUOUS
 62
     7
  5
84
  2
*D2
 10
972640.029
 20
7249553.635
 30
0.0
 70
     0
 71
     0
  0
TEXT
  8
19
  6
CONTINUOUS
 62
     1
  5
85
 10
971824.813
 20
7249934.012
 30
0.0
 40
24.0
  1
U.S. 84
 50
324.633
  7
ROMANC
 72
     4
 11
971886.000779
 21
7249905.296725
 31
0.0
210
0.0
220
0.0
230
1.0
  0
TEXT
  8
11
  6
CONTINUOUS
 62
     7
  5
86
 10
969935.737
 20
7251514.561
 30
0.0
 40
8.0
  1
1096.32'
 50
358.188
  7
ROMANS
 72
     4
 11
969965.181813
 21
7251517.631488
 31
0.0
210
0.0
220
0.0
230
1.0
  0
LINE
  8
21
  6
DASHDOT
 62
     7
  5
88
 10
969004.613
 20
7251448.355
 30
0.0
 11
969349.548
 21
7251330.235
 31
0.0
  0
LINE
  8
21
  6
DASHDOT
 62
     7
  5
89
 10
970310.037
 20
7250781.826
 30
0.0
 11
970836.727
 21
7250320.743
 31
0.0
  0
LINE
  8
21
  6
DASHDOT
 62
     7
  5
8A
 10
970836.727
 20
7250320.743
 30
0.0
 11
970858.006
 21
7250345.05
 31
0.0
  0
ARC
  8
21
  6
DASHDOT
 62
     7
  5
8B
 10
968479.019179
 20
7248690.270417
 30
0.0
 40
2779.79
 50
48.8
 51
71.750006
210
0.0
220
0.0
230
1.0
  0
ARC
  8
21
  6
DASHDOT
 62
     7
  5
8C
 10
972779.72331
 20
7252540.209134
 30
0.0
 40
2949.79
 50
228.799997
 51
246.549983
210
0.0
220
0.0
230
1.0
  0
LINE
  8
21
  6
DASHDOT
 62
     7
  5
8D
 10
971605.858
 20
7249834.05
 30
0.0
 11
972010.527
 21
7249658.515
 31
0.0
  0
LINE
  8
21
  6
DASHDOT
 62
     7
  5
8E
 10
972513.275
 20
7249375.134
 30
0.0
 11
974183.4
 21
7248189.7
 31
0.0
  0
ARC
  8
21
  6
DASHDOT
 62
     7
  5
8F
 10
970904.312969
 20
7247108.314287
 30
0.0
 40
2779.79
 50
54.633311
 51
66.549989
210
0.0
220
0.0
230
1.0
  0
LINE
  8
21
  6
DASHDOT
 62
     7
  5
90
 10
970821.101
 20
7251357.83
 30
0.0
 11
973472.053
 21
7251273.965
 31
0.0
  0
LINE
  8
21
  6
DASHDOT
 62
     7
  5
91
 10
971567.338
 20
7251334.223
 30
0.0
 11
971569.233
 21
7251394.184
 31
0.0
  0
LINE
  8
21
  6
DASHDOT
 62
     7
  5
92
 10
973471.184
 20
7251246.48
 30
0.0
 11
973472.053
 21
7251273.965
 31
0.0
  0
LINE
  8
21
  6
DASHDOT
 62
     7
  5
93
 10
973481.179
 20
7251246.165
 30
0.0
 11
973482.054
 21
7251273.865
 31
0.0
  0
LINE
  8
21
  6
DASHDOT
 62
     7
  5
94
 10
973471.184
 20
7251246.48
 30
0.0
 11
973481.179
 21
7251246.165
 31
0.0
  0
LINE
  8
21
  6
DASHDOT
 62
     7
  5
95
 10
973482.054
 20
7251273.865
 30
0.0
 11
974266.406
 21
7251278.034
 31
0.0
  0
POLYLINE
  8
1
  6
HIDDEN
 62
   253
  5
97
 66
     1
 10
0.0
 20
0.0
 30
0.0
  0
VERTEX
  8
1
  6
HIDDEN
 62
   253
  5
98
 10
969050.809
 20
7251548.466
 30
0.0
  0
VERTEX
  8
1
  6
HIDDEN
 62
   253
  5
99
 10
974328.341
 20
7251386.983
 30
0.0
  0
VERTEX
  8
1
  6
HIDDEN
 62
   253
  5
9A
 10
974164.827
 20
7246174.121
 30
0.0
  0
VERTEX
  8
1
  6
HIDDEN
 62
   253
  5
9B
 10
968887.174
 20
7246331.722
 30
0.0
  0
VERTEX
  8
1
  6
HIDDEN
 62
   253
  5
9C
 10
969050.809
 20
7251548.466
 30
0.0
  0
SEQEND
  8
1
  6
HIDDEN
 62
   253
  5
9D
  0
TEXT
  8
19
  6
CONTINUOUS
 62
     1
  5
9E
 10
968896.355
 20
7246386.261
 30
0.0
 40
24.0
  1
OLIVE AVE
 50
88.188
  7
ROMANC
 72
     4
 11
968887.874341
 21
7246497.695881
 31
0.0
210
0.0
220
0.0
230
1.0
  0
TEXT
  8
19
  6
CONTINUOUS
 62
     1
  5
9F
 10
968969.324
 20
7248720.286
 30
0.0
 40
24.0
  1
OLIVE AVE
 50
88.188
  7
ROMANC
 72
     4
 11
968960.843341
 21
7248831.720881
 31
0.0
210
0.0
220
0.0
230
1.0
  0
TEXT
  8
19
  6
CONTINUOUS
 62
     1
  5
A0
 10
969047.764
 20
7251047.789
 30
0.0
 40
24.0
  1
OLIVE AVE
 50
88.188
  7
ROMANC
 72
     4
 11
969039.283341
 21
7251159.223881
 31
0.0
210
0.0
220
0.0
230
1.0
  0
TEXT
  8
22
  6
CONTINUOUS
 62
     3
  5
A2
 10
972292.177
 20
7251339.915
 30
0.0
 40
8.0
  1
63.5' WIDE TRANSMISSION LINE ESMT.-LPL
 50
357.954667
  7
ROMANS
 72
     4
 11
972442.556984
 21
7251338.547034
 31
0.0
210
0.0
220
0.0
230
1.0
  0
TEXT
  8
22
  6
CONTINUOUS
 62
     3
  5
A3
 10
970942.035
 20
7251384.171
 30
0.0
 40
8.0
  1
63.5' WIDE TRANSMISSION LINE ESMT.-LPL
 50
357.954667
  7
ROMANS
 72
     4
 11
971092.414984
 21
7251382.803034
 31
0.0
210
0.0
220
0.0
230
1.0
  0
TEXT
  8
22
  6
CONTINUOUS
 62
     3
  5
A4
 10
973278.892
 20
7248846.381
 30
0.0
 40
8.0
  1
35' HWY. RESERVATION
 50
324.633328
  7
ROMANS
 72
     1
 11
973342.922281
 21
7248800.93308
 31
0.0
210
0.0
220
0.0
230
1.0
  0
TEXT
  8
22
  6
CONTINUOUS
 62
     3
  5
A5
 10
970490.382
 20
7250640.671
 30
0.0
 40
8.0
  1
35' HWY. RESERVATION
 50
318.799894
  7
ROMANS
 72
     1
 11
970549.461523
 21
7250588.950595
 31
0.0
210
0.0
220
0.0
230
1.0
  0
TEXT
  8
19
  6
CONTINUOUS
 62
     1
  5
A6
 10
970944.662
 20
7251445.414
 30
0.0
 40
24.0
  1
FARM RD 3020 (E 82ND ST)
 50
358.188
  7
ROMANC
 72
     4
 11
971243.935907
 21
7251447.9522
 31
0.0
210
0.0
220
0.0
230
1.0
  0
TEXT
  8
19
  6
CONTINUOUS
 62
     1
  5
A7
 10
973569.943
 20
7251373.13
 30
0.0
 40
24.0
  1
FARM RD 3020 (E 82ND ST)
 50
358.188
  7
ROMANC
 72
     4
 11
973869.216907
 21
7251375.6682
 31
0.0
210
0.0
220
0.0
230
1.0
  0
LINE
  8
58
  6
DIVIDE
 62
   216
  5
A9
 10
972346.9
 20
7249144.897
 30
0.0
 11
969002.415
 21
7251403.019
 31
0.0
  0
LINE
  8
58
  6
DIVIDE
 62
   216
  5
AA
 10
972346.9
 20
7249144.897
 30
0.0
 11
972634.64
 21
7249553.805
 31
0.0
  0
TEXT
  8
10
  6
CONTINUOUS
 62
   134
  5
AC
 10
970157.476
 20
7251300.756
 30
0.0
 40
13.999
  1
NOT SUBDIVIDED
 50
357.954667
  7
ROMANS
 72
     4
 11
970253.113022
 21
7251304.34498
 31
0.0
210
0.0
220
0.0
230
1.0
  0
TEXT
  8
10
  6
CONTINUOUS
 62
   134
  5
AD
 10
972895.831
 20
7250560.604
 30
0.0
 40
13.999
  1
NOT SUBDIVIDED
 50
357.954667
  7
ROMANS
 72
     4
 11
972991.468022
 21
7250564.19298
 31
0.0
210
0.0
220
0.0
230
1.0
  0
TEXT
  8
10
  6
CONTINUOUS
 62
   134
  5
AE
 10
970873.158
 20
7248263.62
 30
0.0
 40
13.999
  1
NOT SUBDIVIDED
 50
357.954667
  7
ROMANS
 72
     4
 11
970968.795022
 21
7248267.20898
 31
0.0
210
0.0
220
0.0
230
1.0
  0
LINE
  8
58
  6
DIVIDE
 62
   216
  5
AF
 10
972634.64
 20
7249553.805
 30
0.0
 11
972144.031
 21
7249899.038
 31
0.0
  0
ARC
  8
58
  6
DIVIDE
 62
   216
  5
B0
 10
975418.279161
 20
7254552.060802
 30
0.0
 40
5689.58
 50
218.133328
 51
234.866639
210
0.0
220
0.0
230
1.0
  0
LINE
  8
58
  6
DIVIDE
 62
   216
  5
B1
 10
970942.992
 20
7251038.782
 30
0.0
 11
970576.497
 21
7251505.63
 31
0.0
  0
LINE
  8
6
  6
CONTINUOUS
 62
     7
  5
B2
 10
968927.312
 20
7246307.534
 30
0.0
 11
969004.175
 21
7250033.013
 31
0.0
  0
LINE
  8
6
  6
CONTINUOUS
 62
     7
  5
B3
 10
968927.333
 20
7246308.554
 30
0.0
 11
974120.506
 21
7246201.61
 31
0.0
  0
TEXT
  8
19
  6
CONTINUOUS
 62
     1
  5
B4
 10
969047.399
 20
7246277.036
 30
0.0
 40
24.0
  1
E 98TH ST
 50
358.188
  7
ROMANC
 72
     4
 11
969161.290652
 21
7246285.438937
 31
0.0
210
0.0
220
0.0
230
1.0
  0
TEXT
  8
19
  6
CONTINUOUS
 62
     1
  5
B5
 10
973625.869
 20
7246133.959
 30
0.0
 40
24.0
  1
E 98TH ST
 50
358.188
  7
ROMANC
 72
     4
 11
973739.760652
 21
7246142.361937
 31
0.0
210
0.0
220
0.0
230
1.0
  0
TEXT
  8
19
  6
CONTINUOUS
 62
     1
  5
B6
 10
971363.41
 20
7246201.971
 30
0.0
 40
24.0
  1
E 98TH ST
 50
358.188
  7
ROMANC
 72
     4
 11
971477.301652
 21
7246210.373937
 31
0.0
210
0.0
220
0.0
230
1.0
  0
TEXT
  8
28
  6
CONTINUOUS
 62
    32
  5
B9
 10
970704.489
 20
7251437.709
 30
0.0
 40
24.0
  1
ATCHISON TOPIKA & SANTA FE RR
 50
308.2474
  7
txt
 72
     4
 11
970918.687725
 21
7251185.358131
 31
0.0
210
0.0
220
0.0
230
1.0
  0
TEXT
  8
28
  6
CONTINUOUS
 62
    32
  5
BA
 10
973246.558
 20
7249173.387
 30
0.0
 40
24.0
  1
ATCHISON TOPIKA & SANTA FE RR
 50
325.2474
  7
txt
 72
     4
 11
973525.178335
 21
7248994.687741
 31
0.0
210
0.0
220
0.0
230
1.0
  0
LINE
  8
6
  6
CONTINUOUS
 62
     7
  5
BB
 10
969013.33
 20
7251115.098
 30
0.0
 11
969016.206
 21
7251407.62
 31
0.0
  0
ARC
  8
6
  6
CONTINUOUS
 62
     7
  5
BC
 10
965492.156476
 20
7251197.758792
 30
0.0
 40
3522.143636
 50
354.612411
 51
358.655208
210
0.0
220
0.0
230
1.0
  0
ARC
  8
6
  6
CONTINUOUS
 62
     7
  5
BD
 10
976514.823717
 20
7249803.98486
 30
0.0
 40
7514.139861
 50
171.514467
 51
178.253375
210
0.0
220
0.0
230
1.0
  0
ARC
  8
6
  6
CONTINUOUS
 62
     7
  5
BE
 10
965492.174511
 20
7251198.849303
 30
0.0
 40
3602.143636
 50
355.444803
 51
358.655208
210
0.0
220
0.0
230
1.0
  0
ARC
  8
6
  6
CONTINUOUS
 62
     7
  5
BF
 10
970295.943892
 20
7251341.951228
 30
0.0
 40
186.736826
 50
250.635122
 51
26.040164
210
0.0
220
0.0
230
1.0
  0
LINE
  8
6
  6
CONTINUOUS
 62
     7
  5
C0
 10
970000.851
 20
7251265.654
 30
0.0
 11
970234.025
 21
7251165.779
 31
0.0
  0
LINE
  8
6
  6
CONTINUOUS
 62
     7
  5
C1
 10
969093.326
 20
7251114.311
 30
0.0
 11
969096.202
 21
7251406.833
 31
0.0
  0
ARC
  8
6
  6
CONTINUOUS
 62
     7
  5
C2
 10
968275.348283
 20
7247838.421059
 30
0.0
 40
3837.093689
 50
63.276203
 51
73.073294
210
0.0
220
0.0
230
1.0
  0
LINE
  8
6
  6
CONTINUOUS
 62
     7
  5
C3
 10
969075.359
 20
7251614.01
 30
0.0
 11
969391.091
 21
7251510.22
 31
0.0
  0
ARC
  8
6
  6
CONTINUOUS
 62
     7
  5
C4
 10
969126.572305
 20
7251407.72146
 30
0.0
 40
30.383298
 50
74.615208
 51
181.675667
210
0.0
220
0.0
230
1.0
  0
LINE
  8
6
  6
CONTINUOUS
 62
     7
  5
C5
 10
969013.33
 20
7251115.098
 30
0.0
 11
969016.206
 21
7251407.62
 31
0.0
  0
ENDSEC
  0
EOF
