  0
SECTION
  2
HEADER
  9
$ACADVER
  1
AC1009
  9
$INSBASE
 10
0.0
 20
0.0
 30
0.0
  9
$EXTMIN
 10
963753.006
 20
7251384.867
 30
0.0
  9
$EXTMAX
 10
974492.516
 20
7256951.479
 30
0.0
  9
$LIMMIN
 10
0.0
 20
0.0
  9
$LIMMAX
 10
12.0
 20
9.0
  9
$ORTHOMODE
 70
     0
  9
$REGENMODE
 70
     1
  9
$FILLMODE
 70
     1
  9
$QTEXTMODE
 70
     0
  9
$MIRRTEXT
 70
     1
  9
$DRAGMODE
 70
     2
  9
$LTSCALE
 40
1.0
  9
$OSMODE
 70
     0
  9
$ATTMODE
 70
     1
  9
$TEXTSIZE
 40
0.2
  9
$TRACEWID
 40
0.05
  9
$TEXTSTYLE
  7
STANDARD
  9
$CLAYER
  8
0
  9
$CELTYPE
  6
CONTINUOUS
  9
$CECOLOR
 62
   256
  9
$DIMSCALE
 40
1.0
  9
$DIMASZ
 40
0.18
  9
$DIMEXO
 40
0.0625
  9
$DIMDLI
 40
0.38
  9
$DIMRND
 40
0.0
  9
$DIMDLE
 40
0.0
  9
$DIMEXE
 40
0.18
  9
$DIMTP
 40
0.0
  9
$DIMTM
 40
0.0
  9
$DIMTXT
 40
0.18
  9
$DIMCEN
 40
0.09
  9
$DIMTSZ
 40
0.0
  9
$DIMTOL
 70
     0
  9
$DIMLIM
 70
     0
  9
$DIMTIH
 70
     1
  9
$DIMTOH
 70
     1
  9
$DIMSE1
 70
     0
  9
$DIMSE2
 70
     0
  9
$DIMTAD
 70
     0
  9
$DIMZIN
 70
     0
  9
$DIMBLK
  1

  9
$DIMASO
 70
     1
  9
$DIMSHO
 70
     1
  9
$DIMPOST
  1

  9
$DIMAPOST
  1

  9
$DIMALT
 70
     0
  9
$DIMALTD
 70
     2
  9
$DIMALTF
 40
25.4
  9
$DIMLFAC
 40
1.0
  9
$DIMTOFL
 70
     0
  9
$DIMTVP
 40
0.0
  9
$DIMTIX
 70
     0
  9
$DIMSOXD
 70
     0
  9
$DIMSAH
 70
     0
  9
$DIMBLK1
  1

  9
$DIMBLK2
  1

  9
$DIMSTYLE
  2
STANDARD
  9
$DIMCLRD
 70
     0
  9
$DIMCLRE
 70
     0
  9
$DIMCLRT
 70
     0
  9
$DIMTFAC
 40
1.0
  9
$DIMGAP
 40
0.09
  9
$LUNITS
 70
     2
  9
$LUPREC
 70
     4
  9
$AXISMODE
 70
     0
  9
$AXISUNIT
 10
0.0
 20
0.0
  9
$SKETCHINC
 40
0.1
  9
$FILLETRAD
 40
0.0
  9
$AUNITS
 70
     0
  9
$AUPREC
 70
     0
  9
$MENU
  1
acad
  9
$ELEVATION
 40
0.0
  9
$PELEVATION
 40
0.0
  9
$THICKNESS
 40
0.0
  9
$LIMCHECK
 70
     0
  9
$BLIPMODE
 70
     1
  9
$CHAMFERA
 40
0.0
  9
$CHAMFERB
 40
0.0
  9
$SKPOLY
 70
     0
  9
$TDCREATE
 40
2453013.903530092
  9
$TDUPDATE
 40
2453013.903530092
  9
$TDINDWG
 40
0.0000000000
  9
$TDUSRTIMER
 40
0.0000000000
  9
$USRTIMER
 70
     1
  9
$ANGBASE
 50
0.0
  9
$ANGDIR
 70
     0
  9
$PDMODE
 70
     0
  9
$PDSIZE
 40
0.0
  9
$PLINEWID
 40
0.0
  9
$COORDS
 70
     0
  9
$SPLFRAME
 70
     0
  9
$SPLINETYPE
 70
     6
  9
$SPLINESEGS
 70
    10
  9
$ATTDIA
 70
     0
  9
$ATTREQ
 70
     1
  9
$HANDLING
 70
     1
  9
$HANDSEED
  5
28A
  9
$SURFTAB1
 70
     6
  9
$SURFTAB2
 70
     6
  9
$SURFTYPE
 70
     6
  9
$SURFU
 70
     6
  9
$SURFV
 70
     6
  9
$UCSNAME
  2

  9
$UCSORG
 10
0.0
 20
0.0
 30
0.0
  9
$UCSXDIR
 10
1.0
 20
0.0
 30
0.0
  9
$UCSYDIR
 10
0.0
 20
1.0
 30
0.0
  9
$PUCSNAME
  2

  9
$PUCSORG
 10
0.0
 20
0.0
 30
0.0
  9
$PUCSXDIR
 10
1.0
 20
0.0
 30
0.0
  9
$PUCSYDIR
 10
0.0
 20
1.0
 30
0.0
  9
$USERI1
 70
     0
  9
$USERI2
 70
     0
  9
$USERI3
 70
     0
  9
$USERI4
 70
     0
  9
$USERI5
 70
     0
  9
$USERR1
 40
0.0
  9
$USERR2
 40
0.0
  9
$USERR3
 40
0.0
  9
$USERR4
 40
0.0
  9
$USERR5
 40
0.0
  9
$WORLDVIEW
 70
     1
  9
$SHADEDGE
 70
     3
  9
$SHADEDIF
 70
    70
  9
$TILEMODE
 70
     1
  9
$MAXACTVP
 70
    16
  9
$PINSBASE
 10
0.0
 20
0.0
 30
0.0
  9
$PLIMCHECK
 70
     0
  9
$PEXTMIN
 10
-1.000000E+20
 20
-1.000000E+20
 30
-1.000000E+20
  9
$PEXTMAX
 10
-1.000000E+20
 20
-1.000000E+20
 30
-1.000000E+20
  9
$PLIMMIN
 10
0.0
 20
0.0
  9
$PLIMMAX
 10
12.0
 20
9.0
  9
$UNITMODE
 70
     0
  9
$VISRETAIN
 70
     0
  9
$PLINEGEN
 70
     1
  9
$PSLTSCALE
 70
     0
  9
$TREEDEPTH
 70
  3020
  9
$DWGCODEPAGE
  3
ansi_1252
  0
ENDSEC
  0
SECTION
  2
TABLES
  0
TABLE
  2
VPORT
 70
     1
  0
VPORT
  2
*ACTIVE
 70
     0
 10
0.0
 20
0.0
 11
1.0
 21
1.0
 12
0.0
 22
0.0
 13
0.0
 23
0.0
 14
0.0
 24
0.0
 15
0.0
 25
0.0
 16
0.0
 26
0.0
 36
1.0
 17
970855.352159
 27
7253061.42914
 37
0.0
 40
3501.191286
 41
1.506289
 42
50.0
 43
0.004
 44
0.0
 50
1.793857
 51
0.0
 71
     0
 72
   100
 73
     1
 74
     0
 75
     0
 76
     0
 77
     0
 78
     0
  0
ENDTAB
  0
TABLE
  2
LTYPE
 70
     7
  0
LTYPE
  2
CONTINUOUS
 70
     0
  3
Solid line
 72
    65
 73
     0
 40
0.0
  0
LTYPE
  2
DOT
 70
    64
  3
. . . . . . . . . . . . . . . . . . . . . . . . . . . . . . . . .
 72
    65
 73
     2
 40
0.25
 49
0.0
 49
-0.25
  0
LTYPE
  2
HIDDEN
 70
    64
  3
__ __ __ __ __ __ __ __ __ __ __ __ __ __ __ __ __ __ __ __ __ 
 72
    65
 73
     2
 40
0.375
 49
0.25
 49
-0.125
  0
LTYPE
  2
DASHED
 70
    64
  3
__ __ __ __ __ __ __ __ __ __ __ __ __ __ __ __ __ __ __ __ __
 72
    65
 73
     2
 40
0.75
 49
0.5
 49
-0.25
  0
LTYPE
  2
DASHDOT
 70
    64
  3
__ . __ . __ . __ . __ . __ . __ . __ . __ . __ . __ . __ . _
 72
    65
 73
     4
 40
1.0
 49
0.5
 49
-0.25
 49
0.0
 49
-0.25
  0
LTYPE
  2
DIVIDE
 70
    64
  3
____ . . ____ . . ____ . . ____ . . ____ . . ____ . . ____ . .
 72
    65
 73
     6
 40
1.25
 49
0.5
 49
-0.25
 49
0.0
 49
-0.25
 49
0.0
 49
-0.25
  0
LTYPE
  2
CENTER
 70
    64
  3
____ _ ____ _ ____ _ ____ _ ____ _ ____ _ ____ _ ____ _ ____ _
 72
    65
 73
     4
 40
2.0
 49
1.25
 49
-0.25
 49
0.25
 49
-0.25
  0
ENDTAB
  0
TABLE
  2
LAYER
 70
    25
  0
LAYER
  2
0
 70
     0
 62
     7
  6
CONTINUOUS
  0
LAYER
  2
CONSTRUCTION_CLASS
 70
     1
 62
     7
  6
CONTINUOUS
  0
LAYER
  2
PATTERN_CLASS
 70
     0
 62
     7
  6
CONTINUOUS
  0
LAYER
  2
15
 70
    64
 62
     7
  6
CONTINUOUS
  0
LAYER
  2
11
 70
    64
 62
     7
  6
CONTINUOUS
  0
LAYER
  2
1
 70
    64
 62
     7
  6
CONTINUOUS
  0
LAYER
  2
19
 70
    64
 62
     7
  6
CONTINUOUS
  0
LAYER
  2
6
 70
    64
 62
     7
  6
CONTINUOUS
  0
LAYER
  2
27
 70
    64
 62
     7
  6
CONTINUOUS
  0
LAYER
  2
58
 70
    64
 62
     7
  6
CONTINUOUS
  0
LAYER
  2
10
 70
    64
 62
     7
  6
CONTINUOUS
  0
LAYER
  2
28
 70
    64
 62
     7
  6
CONTINUOUS
  0
LAYER
  2
-6
 70
    64
 62
     7
  6
CONTINUOUS
  0
LAYER
  2
-7
 70
    64
 62
     7
  6
CONTINUOUS
  0
LAYER
  2
-11
 70
    64
 62
     7
  6
CONTINUOUS
  0
LAYER
  2
-15
 70
    64
 62
     7
  6
CONTINUOUS
  0
LAYER
  2
-19
 70
    64
 62
     7
  6
CONTINUOUS
  0
LAYER
  2
-22
 70
    64
 62
     7
  6
CONTINUOUS
  0
LAYER
  2
-21
 70
    64
 62
     7
  6
CONTINUOUS
  0
LAYER
  2
-1
 70
    64
 62
     7
  6
CONTINUOUS
  0
LAYER
  2
-13
 70
    64
 62
     7
  6
CONTINUOUS
  0
LAYER
  2
-27
 70
    64
 62
     7
  6
CONTINUOUS
  0
LAYER
  2
-10
 70
    64
 62
     7
  6
CONTINUOUS
  0
LAYER
  2
-28
 70
    64
 62
     7
  6
CONTINUOUS
  0
LAYER
  2
-58
 70
    64
 62
     7
  6
CONTINUOUS
  0
ENDTAB
  0
TABLE
  2
STYLE
 70
     4
  0
STYLE
  2
STANDARD
 70
     0
 40
0.0
 41
1.0
 50
0.0
 71
     0
 42
0.0
  3
txt
  4

  0
STYLE
  2
ROMANC
 70
     0
 40
0.2
 41
1.0
 50
0.0
 71
     0
 42
0.2
  3
ROMANC
  4

  0
STYLE
  2
ROMANS
 70
     0
 40
0.2
 41
1.0
 50
0.0
 71
     0
 42
0.2
  3
ROMANS
  4

  0
STYLE
  2
txt
 70
     0
 40
0.2
 41
1.0
 50
0.0
 71
     0
 42
0.2
  3
TXT
  4

  0
ENDTAB
  0
TABLE
  2
VIEW
 70
     0
  0
ENDTAB
  0
TABLE
  2
UCS
 70
     0
  0
ENDTAB
  0
TABLE
  2
APPID
 70
     1
  0
APPID
  2
ACAD
 70
     0
  0
ENDTAB
  0
TABLE
  2
DIMSTYLE
 70
     1
  0
DIMSTYLE
  2
STANDARD
 70
     0
  3

  4

  5

  6

  7

 40
1.0
 41
0.18
 42
0.0625
 43
0.38
 44
0.18
 45
0.0
 46
0.0
 47
0.0
 48
0.0
140
0.18
141
0.09
142
0.0
143
25.4
144
1.0
145
0.0
146
1.0
147
0.09
 71
     0
 72
     0
 73
     1
 74
     1
 75
     0
 76
     0
 77
     0
 78
     0
170
     0
171
     2
172
     0
173
     0
174
     0
175
     0
176
     0
177
     0
178
     0
  0
ENDTAB
  0
ENDSEC
  0
SECTION
  2
BLOCKS
  0
ENDSEC
  0
SECTION
  2
ENTITIES
  0
TEXT
  8
15
  6
CONTINUOUS
 62
    30
  5
2A
 10
969274.432
 20
7252407.377
 30
0.0
 40
50.0
  1
LOOP
 50
28.1152
  7
ROMANC
 72
     4
 11
969351.193258
 21
7252476.734479
 31
0.0
210
0.0
220
0.0
230
1.0
  0
TEXT
  8
15
  6
CONTINUOUS
 62
    30
  5
2B
 10
969503.242
 20
7251719.78
 30
0.0
 40
50.0
  1
INDUSTRIAL
 50
28.1152
  7
ROMANC
 72
     4
 11
969712.29472
 21
7251859.819649
 31
0.0
210
0.0
220
0.0
230
1.0
  0
TEXT
  8
11
  6
CONTINUOUS
 62
     7
  5
2E
 10
969166.516
 20
7251637.29
 30
0.0
 40
8.0
  1
370.52'
 50
341.636514
  7
ROMANS
 72
     1
 11
969190.558967
 21
7251629.308984
 31
0.0
210
0.0
220
0.0
230
1.0
  0
TEXT
  8
11
  6
CONTINUOUS
 62
     7
  5
2F
 10
971747.189
 20
7251478.152
 30
0.0
 40
8.0
  1
1410'
 50
358.299075
  7
ROMANS
 72
     1
 11
971764.514363
 21
7251477.637515
 31
0.0
210
0.0
220
0.0
230
1.0
  0
TEXT
  8
11
  6
CONTINUOUS
 62
     7
  5
30
 10
970511.53
 20
7251770.0
 30
0.0
 40
8.0
  1
784.4'
 50
307.881911
  7
ROMANS
 72
     1
 11
970524.629231
 21
7251753.162333
 31
0.0
210
0.0
220
0.0
230
1.0
  0
TEXT
  8
11
  6
CONTINUOUS
 62
     7
  5
31
 10
974274.337
 20
7251412.749
 30
0.0
 40
8.0
  1
50'
 50
88.1152
  7
ROMANS
 72
     4
 11
974270.646127
 21
7251422.208511
 31
0.0
210
0.0
220
0.0
230
1.0
  0
TEXT
  8
11
  6
CONTINUOUS
 62
     7
  5
32
 10
973851.623
 20
7251432.894
 30
0.0
 40
8.0
  1
800.6'
 50
0.261178
  7
ROMANS
 72
     1
 11
973872.955778
 21
7251432.991244
 31
0.0
210
0.0
220
0.0
230
1.0
  0
TEXT
  8
11
  6
CONTINUOUS
 62
     7
  5
33
 10
972948.165
 20
7251442.488
 30
0.0
 40
8.0
  1
800.1'
 50
358.299075
  7
ROMANS
 72
     1
 11
972969.4886
 21
7251441.854786
 31
0.0
210
0.0
220
0.0
230
1.0
  0
TEXT
  8
11
  6
CONTINUOUS
 62
     7
  5
34
 10
969790.514
 20
7251546.984
 30
0.0
 40
8.0
  1
961.22'
 50
358.1152
  7
ROMANS
 72
     4
 11
969815.964854
 21
7251550.148633
 31
0.0
210
0.0
220
0.0
230
1.0
  0
TEXT
  8
11
  6
CONTINUOUS
 62
     7
  5
35
 10
970293.102
 20
7251632.776
 30
0.0
 40
8.0
  1
216.42'
 50
300.258789
  7
ROMANS
 72
     1
 11
970312.777529
 21
7251614.925665
 31
0.0
210
0.0
220
0.0
230
1.0
 73
     3
  0
TEXT
  8
11
  6
CONTINUOUS
 62
     7
  5
36
 10
969440.841
 20
7252729.171
 30
0.0
 40
8.0
  1
786.65'
 50
310.423528
  7
ROMANS
 72
     1
 11
969463.357919
 21
7252715.073154
 31
0.0
210
0.0
220
0.0
230
1.0
 73
     3
  0
TEXT
  8
11
  6
CONTINUOUS
 62
     7
  5
37
 10
969096.973
 20
7253010.883
 30
0.0
 40
8.0
  1
152.05'
 50
57.178408
  7
ROMANS
 72
     1
 11
969103.981218
 21
7253036.5081
 31
0.0
210
0.0
220
0.0
230
1.0
 73
     3
  0
TEXT
  8
11
  6
CONTINUOUS
 62
     7
  5
38
 10
969080.937
 20
7252335.381
 30
0.0
 40
8.0
  1
1119.39'
 50
88.1152
  7
ROMANS
 72
     4
 11
969077.903927
 21
7252364.82969
 31
0.0
210
0.0
220
0.0
230
1.0
  0
POLYLINE
  8
1
  6
HIDDEN
 62
   253
  5
3A
 66
     1
 10
0.0
 20
0.0
 30
0.0
  0
VERTEX
  8
1
  6
HIDDEN
 62
   253
  5
3B
 10
969215.104
 20
7256786.197
 30
0.0
  0
VERTEX
  8
1
  6
HIDDEN
 62
   253
  5
3C
 10
974492.516
 20
7256620.914
 30
0.0
  0
VERTEX
  8
1
  6
HIDDEN
 62
   253
  5
3D
 10
974328.341
 20
7251386.983
 30
0.0
  0
VERTEX
  8
1
  6
HIDDEN
 62
   253
  5
3E
 10
969050.809
 20
7251548.466
 30
0.0
  0
VERTEX
  8
1
  6
HIDDEN
 62
   253
  5
3F
 10
969215.104
 20
7256786.197
 30
0.0
  0
SEQEND
  8
1
  6
HIDDEN
 62
   253
  5
40
  0
TEXT
  8
19
  6
CONTINUOUS
 62
     1
  5
42
 10
969050.467
 20
7252036.702
 30
0.0
 40
24.0
  1
OLIVE AVE
 50
88.1152
  7
ROMANC
 72
     4
 11
969042.127937
 21
7252148.147567
 31
0.0
210
0.0
220
0.0
230
1.0
  0
TEXT
  8
19
  6
CONTINUOUS
 62
     1
  5
43
 10
969744.667
 20
7251503.38
 30
0.0
 40
24.0
  1
FARM RD 3020
 50
358.1152
  7
ROMANC
 72
     4
 11
969902.577415
 21
7251510.190006
 31
0.0
210
0.0
220
0.0
230
1.0
  0
TEXT
  8
19
  6
CONTINUOUS
 62
     1
  5
44
 10
972462.356
 20
7251407.227
 30
0.0
 40
24.0
  1
FARM RD 3020
 50
358.1152
  7
ROMANC
 72
     4
 11
972620.266415
 21
7251414.037006
 31
0.0
210
0.0
220
0.0
230
1.0
  0
TEXT
  8
19
  6
CONTINUOUS
 62
     1
  5
45
 10
969922.433
 20
7252246.014
 30
0.0
 40
24.0
  1
SOUTHEAST DR
 50
307.881875
  7
ROMANC
 72
     4
 11
970027.630026
 21
7252130.337086
 31
0.0
210
0.0
220
0.0
230
1.0
  0
LINE
  8
6
  6
CONTINUOUS
 62
     7
  5
47
 10
969047.273
 20
7251685.033
 30
0.0
 11
969072.64
 21
7252946.268
 31
0.0
  0
ARC
  8
6
  6
CONTINUOUS
 62
     7
  5
48
 10
969062.270699
 20
7251684.731101
 30
0.0
 40
15.0
 50
178.845317
 51
251.911556
210
0.0
220
0.0
230
1.0
  0
ARC
  8
6
  6
CONTINUOUS
 62
     7
  5
49
 10
969145.616996
 20
7253068.22354
 30
0.0
 40
15.0
 50
40.422811
 51
130.408419
210
0.0
220
0.0
230
1.0
  0
ARC
  8
6
  6
CONTINUOUS
 62
     7
  5
4A
 10
969252.513156
 20
7252942.650776
 30
0.0
 40
179.91
 50
130.406853
 51
178.847806
210
0.0
220
0.0
230
1.0
  0
TEXT
  8
11
  6
CONTINUOUS
 62
     7
  5
4B
 10
970005.578
 20
7252023.079
 30
0.0
 40
8.0
  1
968.27'
 50
307.881875
  7
ROMANS
 72
     1
 11
970027.44759
 21
7252007.996495
 31
0.0
210
0.0
220
0.0
230
1.0
 73
     3
  0
LINE
  8
6
  6
CONTINUOUS
 62
     7
  5
4C
 10
969667.376
 20
7252478.802
 30
0.0
 11
970261.577
 21
7251714.977
 31
0.0
  0
LINE
  8
6
  6
CONTINUOUS
 62
     7
  5
4D
 10
970261.577
 20
7251714.977
 30
0.0
 11
970370.858
 21
7251527.655
 31
0.0
  0
LINE
  8
6
  6
CONTINUOUS
 62
     7
  5
4E
 10
970370.858
 20
7251527.655
 30
0.0
 11
969410.031
 21
7251555.354
 31
0.0
  0
LINE
  8
6
  6
CONTINUOUS
 62
     7
  5
4F
 10
969410.031
 20
7251555.354
 30
0.0
 11
969057.614
 21
7251670.472
 31
0.0
  0
LINE
  8
6
  6
CONTINUOUS
 62
     7
  5
50
 10
969157.036
 20
7253077.95
 30
0.0
 11
969667.376
 21
7252478.802
 31
0.0
  0
LINE
  8
6
  6
CONTINUOUS
 62
     7
  5
51
 10
973485.169
 20
7251444.873
 30
0.0
 11
970682.507
 21
7251532.249
 31
0.0
  0
LINE
  8
6
  6
CONTINUOUS
 62
     7
  5
52
 10
973485.169
 20
7251444.873
 30
0.0
 11
974285.766
 21
7251446.803
 31
0.0
  0
LINE
  8
27
  6
CONTINUOUS
 62
    32
  5
54
 10
969047.233
 20
7253549.102
 30
0.0
 11
970641.462
 21
7251503.574
 31
0.0
  0
LINE
  8
6
  6
CONTINUOUS
 62
     7
  5
55
 10
969048.827
 20
7253628.394
 30
0.0
 11
970706.523
 21
7251501.434
 31
0.0
  0
LINE
  8
6
  6
CONTINUOUS
 62
     7
  5
56
 10
969045.639
 20
7253469.807
 30
0.0
 11
970576.401
 21
7251505.715
 31
0.0
  0
LINE
  8
58
  6
DIVIDE
 62
   216
  5
58
 10
969045.639
 20
7253469.807
 30
0.0
 11
970576.4
 21
7251505.715
 31
0.0
  0
TEXT
  8
10
  6
CONTINUOUS
 62
   134
  5
5A
 10
969489.586
 20
7252046.398
 30
0.0
 40
13.999
  1
1
 50
358.1152
  7
ROMANS
210
0.0
220
0.0
230
1.0
  0
TEXT
  8
10
  6
CONTINUOUS
 62
   134
  5
5B
 10
969868.426
 20
7255569.173
 30
0.0
 40
13.999
  1
UNSUBDIVIDED
 50
358.1152
  7
ROMANS
210
0.0
220
0.0
230
1.0
  0
TEXT
  8
10
  6
CONTINUOUS
 62
   134
  5
5C
 10
973055.778
 20
7253194.81
 30
0.0
 40
13.999
  1
UNSUBDIVIDED
 50
358.1152
  7
ROMANS
210
0.0
220
0.0
230
1.0
  0
LINE
  8
27
  6
CONTINUOUS
 62
    32
  5
5D
 10
969053.08
 20
7253584.792
 30
0.0
 11
969206.004
 21
7253389.785
 31
0.0
  0
ARC
  8
27
  6
CONTINUOUS
 62
    32
  5
5E
 10
969741.040001
 20
7253847.078304
 30
0.0
 40
703.832855
 50
220.520389
 51
227.962975
210
0.0
220
0.0
230
1.0
  0
ARC
  8
27
  6
CONTINUOUS
 62
    32
  5
5F
 10
968906.151209
 20
7252850.657437
 30
0.0
 40
597.134584
 50
41.245453
 51
52.490047
210
0.0
220
0.0
230
1.0
  0
LINE
  8
27
  6
CONTINUOUS
 62
    32
  5
60
 10
969355.132
 20
7253244.34
 30
0.0
 11
969979.659
 21
7252443.538
 31
0.0
  0
ARC
  8
27
  6
CONTINUOUS
 62
    32
  5
61
 10
969796.110019
 20
7253113.49582
 30
0.0
 40
268.269402
 50
215.817006
 51
269.569208
210
0.0
220
0.0
230
1.0
  0
ARC
  8
27
  6
CONTINUOUS
 62
    32
  5
62
 10
1039644.351668
 20
7307812.921116
 30
0.0
 40
89026.492535
 50
217.542344
 51
218.116164
210
0.0
220
0.0
230
1.0
  0
LINE
  8
27
  6
CONTINUOUS
 62
    32
  5
63
 10
969601.787
 20
7252860.619
 30
0.0
 11
970121.404
 21
7252199.442
 31
0.0
  0
LINE
  8
27
  6
CONTINUOUS
 62
    32
  5
64
 10
969794.093
 20
7252845.234
 30
0.0
 11
970090.564
 21
7252834.81
 31
0.0
  0
LINE
  8
27
  6
CONTINUOUS
 62
    32
  5
65
 10
969102.45
 20
7252781.698
 30
0.0
 11
969674.031
 21
7252110.914
 31
0.0
  0
TEXT
  8
28
  6
CONTINUOUS
 62
    32
  5
67
 10
970376.902
 20
7251879.899
 30
0.0
 40
24.0
  1
AT & SF RAILWAY
 50
307.881886
  7
ROMANC
 72
     1
 11
970494.209223
 21
7251729.112915
 31
0.0
210
0.0
220
0.0
230
1.0
  0
ARC
  8
27
  6
CONTINUOUS
 62
    32
  5
68
 10
969975.752566
 20
7251417.2245
 30
0.0
 40
570.787522
 50
41.488508
 51
91.352506
210
0.0
220
0.0
230
1.0
  0
LINE
  8
27
  6
CONTINUOUS
 62
    32
  5
69
 10
970403.323
 20
7251795.354
 30
0.0
 11
970448.724
 21
7251742.644
 31
0.0
  0
ARC
  8
27
  6
CONTINUOUS
 62
    32
  5
6A
 10
969969.20833
 20
7252403.198495
 30
0.0
 40
415.403276
 50
224.717861
 51
269.044344
210
0.0
220
0.0
230
1.0
  0
LINE
  8
27
  6
CONTINUOUS
 62
    32
  5
6B
 10
969415.851
 20
7252387.46
 30
0.0
 11
969652.678
 21
7252109.534
 31
0.0
  0
ARC
  8
27
  6
CONTINUOUS
 62
    32
  5
6C
 10
969861.867338
 20
7252303.830663
 30
0.0
 40
285.501966
 50
222.886172
 51
248.385094
210
0.0
220
0.0
230
1.0
  0
ARC
  8
27
  6
CONTINUOUS
 62
    32
  5
6D
 10
969967.086127
 20
7252494.928541
 30
0.0
 40
502.669779
 50
245.257464
 51
255.041814
210
0.0
220
0.0
230
1.0
  0
ARC
  8
27
  6
CONTINUOUS
 62
    32
  5
6E
 10
1095009.236156
 20
7334068.039047
 30
0.0
 40
149329.962845
 50
213.246325
 51
213.305714
210
0.0
220
0.0
230
1.0
  0
ARC
  8
27
  6
CONTINUOUS
 62
    32
  5
6F
 10
970712.34432
 20
7252360.740462
 30
0.0
 40
583.573958
 50
209.87735
 51
220.288772
210
0.0
220
0.0
230
1.0
  0
LINE
  8
27
  6
CONTINUOUS
 62
    32
  5
70
 10
969233.541
 20
7252564.679
 30
0.0
 11
969282.562
 21
7252504.717
 31
0.0
  0
ARC
  8
27
  6
CONTINUOUS
 62
    32
  5
71
 10
969554.458042
 20
7252748.307502
 30
0.0
 40
365.053133
 50
221.857025
 51
234.096322
210
0.0
220
0.0
230
1.0
  0
ARC
  8
27
  6
CONTINUOUS
 62
    32
  5
72
 10
969170.598428
 20
7252179.661055
 30
0.0
 40
321.448637
 50
40.274122
 51
58.117258
210
0.0
220
0.0
230
1.0
  0
ARC
  8
-6
  6
CONTINUOUS
 62
     7
  5
74
 10
962480.33425
 20
7259780.021594
 30
0.0
 40
3668.92429
 50
291.347903
 51
305.353964
210
0.0
220
0.0
230
1.0
  0
ARC
  8
-6
  6
CONTINUOUS
 62
     7
  5
75
 10
962481.22111
 20
7259781.226368
 30
0.0
 40
3968.924275
 50
289.485536
 51
302.218828
210
0.0
220
0.0
230
1.0
  0
LINE
  8
-6
  6
CONTINUOUS
 62
     7
  5
76
 10
964575.614
 20
7256892.807
 30
0.0
 11
964575.358
 21
7256878.523
 31
0.0
  0
ARC
  8
-6
  6
CONTINUOUS
 62
     7
  5
77
 10
964573.864904
 20
7256828.545412
 30
0.0
 40
50.0
 50
305.346483
 51
88.288647
210
0.0
220
0.0
230
1.0
  0
ARC
  8
-6
  6
CONTINUOUS
 62
     7
  5
78
 10
962486.312973
 20
7259785.065588
 30
0.0
 40
4246.83
 50
311.222033
 51
317.365375
210
0.0
220
0.0
230
1.0
  0
ARC
  8
-6
  6
CONTINUOUS
 62
     7
  5
79
 10
965140.570625
 20
7256755.489574
 30
0.0
 40
219.0
 50
276.065875
 51
311.220903
210
0.0
220
0.0
230
1.0
  0
LINE
  8
-6
  6
CONTINUOUS
 62
     7
  5
7A
 10
964816.759
 20
7256500.846
 30
0.0
 11
965163.713
 21
7256537.716
 31
0.0
  0
ARC
  8
-6
  6
CONTINUOUS
 62
     7
  5
7B
 10
964869.595933
 20
7256003.645685
 30
0.0
 40
500.0
 50
96.066036
 51
122.218911
210
0.0
220
0.0
230
1.0
  0
POLYLINE
  8
-7
  6
CONTINUOUS
 62
     7
  5
7D
 66
     1
 10
0.0
 20
0.0
 30
0.0
 70
     1
  0
VERTEX
  8
-7
  6
CONTINUOUS
 62
     7
  5
7E
 10
966358.29
 20
7251837.977
 30
0.0
  0
VERTEX
  8
-7
  6
CONTINUOUS
 62
     7
  5
7F
 10
966764.967
 20
7251819.416
 30
0.0
  0
VERTEX
  8
-7
  6
CONTINUOUS
 62
     7
  5
80
 10
966760.088
 20
7251712.527
 30
0.0
  0
VERTEX
  8
-7
  6
CONTINUOUS
 62
     7
  5
81
 10
966353.412
 20
7251731.087
 30
0.0
  0
SEQEND
  8
-7
  6
CONTINUOUS
 62
     7
  5
82
  0
TEXT
  8
-11
  6
CONTINUOUS
 62
     7
  5
84
 10
964763.522
 20
7252988.682
 30
0.0
 40
8.0
  1
60'
 50
71.7626
  7
ROMANS
210
0.0
220
0.0
230
1.0
  0
TEXT
  8
-11
  6
CONTINUOUS
 62
     7
  5
85
 10
964735.954
 20
7252917.911
 30
0.0
 40
8.0
  1
60'
 50
71.7626
  7
ROMANS
210
0.0
220
0.0
230
1.0
  0
TEXT
  8
-11
  6
CONTINUOUS
 62
     7
  5
86
 10
965956.815
 20
7252318.548
 30
0.0
 40
8.0
  1
96'
 50
358.806247
  7
ROMANS
210
0.0
220
0.0
230
1.0
  0
TEXT
  8
-11
  6
CONTINUOUS
 62
     7
  5
87
 10
966024.654
 20
7252257.427
 30
0.0
 40
8.0
  1
111'
 50
88.815142
  7
ROMANS
210
0.0
220
0.0
230
1.0
  0
TEXT
  8
-11
  6
CONTINUOUS
 62
     7
  5
88
 10
966017.178
 20
7252204.755
 30
0.0
 40
8.0
  1
45.25'
 50
313.814686
  7
ROMANS
210
0.0
220
0.0
230
1.0
  0
TEXT
  8
-11
  6
CONTINUOUS
 62
     7
  5
89
 10
966054.517
 20
7252117.324
 30
0.0
 40
8.0
  1
77.17'
 50
88.814578
  7
ROMANS
210
0.0
220
0.0
230
1.0
  0
TEXT
  8
-11
  6
CONTINUOUS
 62
     7
  5
8A
 10
966488.649
 20
7252171.126
 30
0.0
 40
8.0
  1
179.33'
 50
88.814808
  7
ROMANS
210
0.0
220
0.0
230
1.0
  0
TEXT
  8
-11
  6
CONTINUOUS
 62
     7
  5
8B
 10
965932.274
 20
7252368.276
 30
0.0
 40
8.0
  1
121'
 50
88.81495
  7
ROMANS
210
0.0
220
0.0
230
1.0
  0
TEXT
  8
-11
  6
CONTINUOUS
 62
     7
  5
8C
 10
966198.681
 20
7252350.966
 30
0.0
 40
8.0
  1
566.99'
 50
341.762697
  7
ROMANS
210
0.0
220
0.0
230
1.0
  0
TEXT
  8
-11
  6
CONTINUOUS
 62
     7
  5
8D
 10
965921.59
 20
7252428.061
 30
0.0
 40
8.0
  1
36.47'
 50
6.777753
  7
ROMANS
210
0.0
220
0.0
230
1.0
  0
TEXT
  8
-11
  6
CONTINUOUS
 62
     7
  5
8E
 10
968978.975
 20
7252543.703
 30
0.0
 40
8.0
  1
1303.72'
 50
88.0966
  7
ROMANS
210
0.0
220
0.0
230
1.0
  0
TEXT
  8
-15
  6
CONTINUOUS
 62
    30
  5
90
 10
965714.447
 20
7251847.131
 30
0.0
 40
50.0
  1
CITY OF LUBBOCK PROPERTY
 50
358.0966
  7
ROMANC
210
0.0
220
0.0
230
1.0
  0
TEXT
  8
-11
  6
CONTINUOUS
 62
     7
  5
91
 10
964802.32
 20
7252326.615
 30
0.0
 40
8.0
  1
179.63'
 50
358.0966
  7
ROMANS
210
0.0
220
0.0
230
1.0
  0
TEXT
  8
-11
  6
CONTINUOUS
 62
     7
  5
92
 10
965198.02
 20
7252166.231
 30
0.0
 40
8.0
  1
193.7'
 50
358.0966
  7
ROMANS
210
0.0
220
0.0
230
1.0
  0
TEXT
  8
-11
  6
CONTINUOUS
 62
     7
  5
93
 10
966550.593
 20
7251813.746
 30
0.0
 40
8.0
  1
407.1'
 50
358.0966
  7
ROMANS
210
0.0
220
0.0
230
1.0
  0
TEXT
  8
-11
  6
CONTINUOUS
 62
     7
  5
94
 10
966544.218
 20
7251725.809
 30
0.0
 40
8.0
  1
407.1'
 50
358.0966
  7
ROMANS
210
0.0
220
0.0
230
1.0
  0
TEXT
  8
-11
  6
CONTINUOUS
 62
     7
  5
95
 10
966370.652
 20
7251773.704
 30
0.0
 40
8.0
  1
107'
 50
88.0966
  7
ROMANS
210
0.0
220
0.0
230
1.0
  0
TEXT
  8
-11
  6
CONTINUOUS
 62
     7
  5
96
 10
966758.668
 20
7251752.352
 30
0.0
 40
8.0
  1
107'
 50
88.0966
  7
ROMANS
210
0.0
220
0.0
230
1.0
  0
TEXT
  8
-15
  6
CONTINUOUS
 62
    30
  5
97
 10
966471.284
 20
7251741.731
 30
0.0
 40
12.5
  1
WASTE DISPOSAL
 50
358.0966
  7
ROMANC
210
0.0
220
0.0
230
1.0
  0
TEXT
  8
-11
  6
CONTINUOUS
 62
     7
  5
98
 10
964743.274
 20
7252572.107
 30
0.0
 40
8.0
  1
554.34'
 50
88.0966
  7
ROMANS
210
0.0
220
0.0
230
1.0
  0
TEXT
  8
-11
  6
CONTINUOUS
 62
     7
  5
99
 10
964760.112
 20
7252567.624
 30
0.0
 40
8.0
  1
518.72'
 50
88.0966
  7
ROMANS
210
0.0
220
0.0
230
1.0
  0
TEXT
  8
-11
  6
CONTINUOUS
 62
     7
  5
9A
 10
964924.122
 20
7252517.571
 30
0.0
 40
8.0
  1
463.38'
 50
88.0966
  7
ROMANS
210
0.0
220
0.0
230
1.0
  0
TEXT
  8
-11
  6
CONTINUOUS
 62
     7
  5
9B
 10
964939.275
 20
7252530.481
 30
0.0
 40
8.0
  1
500'
 50
88.0966
  7
ROMANS
210
0.0
220
0.0
230
1.0
  0
TEXT
  8
-11
  6
CONTINUOUS
 62
     7
  5
9C
 10
964946.149
 20
7252770.62
 30
0.0
 40
8.0
  1
36.62'
 50
88.0966
  7
ROMANS
210
0.0
220
0.0
230
1.0
  0
TEXT
  8
-11
  6
CONTINUOUS
 62
     7
  5
9D
 10
964764.419
 20
7252843.325
 30
0.0
 40
8.0
  1
36.62'
 50
88.0966
  7
ROMANS
210
0.0
220
0.0
230
1.0
  0
TEXT
  8
-11
  6
CONTINUOUS
 62
     7
  5
9E
 10
965312.925
 20
7252662.992
 30
0.0
 40
8.0
  1
36.62'
 50
88.0966
  7
ROMANS
210
0.0
220
0.0
230
1.0
  0
TEXT
  8
-11
  6
CONTINUOUS
 62
     7
  5
9F
 10
965306.74
 20
7252394.581
 30
0.0
 40
8.0
  1
495.98'
 50
88.0966
  7
ROMANS
210
0.0
220
0.0
230
1.0
  0
TEXT
  8
-11
  6
CONTINUOUS
 62
     7
  5
A0
 10
965132.272
 20
7252410.626
 30
0.0
 40
8.0
  1
555.6'
 50
88.0966
  7
ROMANS
210
0.0
220
0.0
230
1.0
  0
TEXT
  8
-11
  6
CONTINUOUS
 62
     7
  5
A1
 10
965113.629
 20
7252404.503
 30
0.0
 40
8.0
  1
592.22'
 50
88.0966
  7
ROMANS
210
0.0
220
0.0
230
1.0
  0
TEXT
  8
-11
  6
CONTINUOUS
 62
     7
  5
A2
 10
965214.035
 20
7252675.616
 30
0.0
 40
8.0
  1
202.67'
 50
341.762914
  7
ROMANS
210
0.0
220
0.0
230
1.0
  0
TEXT
  8
-15
  6
CONTINUOUS
 62
    30
  5
A3
 10
965006.675
 20
7252195.944
 30
0.0
 40
50.0
  1
JOHN B STEELE
 50
43.0966
  7
ROMANC
210
0.0
220
0.0
230
1.0
  0
TEXT
  8
-11
  6
CONTINUOUS
 62
     7
  5
A4
 10
964686.004
 20
7256471.676
 30
0.0
 40
8.0
  1
R=500'
 50
23.588244
  7
ROMANS
210
0.0
220
0.0
230
1.0
  0
TEXT
  8
-11
  6
CONTINUOUS
 62
     7
  5
A5
 10
964724.935
 20
7256469.359
 30
0.0
 40
8.0
  1
228.4'
 50
14.178058
  7
ROMANS
210
0.0
220
0.0
230
1.0
  0
TEXT
  8
-11
  6
CONTINUOUS
 62
     7
  5
A6
 10
964957.998
 20
7256501.89
 30
0.0
 40
8.0
  1
S82%%d13'W 348.7'
 50
6.065925
  7
ROMANS
210
0.0
220
0.0
230
1.0
  0
TEXT
  8
-11
  6
CONTINUOUS
 62
     7
  5
A7
 10
965217.429
 20
7256555.282
 30
0.0
 40
8.0
  1
R=219'
 50
21.596869
  7
ROMANS
210
0.0
220
0.0
230
1.0
  0
TEXT
  8
-11
  6
CONTINUOUS
 62
     7
  5
A8
 10
965228.576
 20
7256540.644
 30
0.0
 40
8.0
  1
134.4'
 50
21.324492
  7
ROMANS
210
0.0
220
0.0
230
1.0
  0
TEXT
  8
-11
  6
CONTINUOUS
 62
     7
  5
A9
 10
965373.074
 20
7256655.938
 30
0.0
 40
8.0
  1
455.9'
 50
42.865103
  7
ROMANS
210
0.0
220
0.0
230
1.0
  0
TEXT
  8
-11
  6
CONTINUOUS
 62
     7
  5
AA
 10
965155.775
 20
7256761.181
 30
0.0
 40
8.0
  1
427'
 50
311.221042
  7
ROMANS
210
0.0
220
0.0
230
1.0
  0
TEXT
  8
-11
  6
CONTINUOUS
 62
     7
  5
AB
 10
964569.452
 20
7256515.671
 30
0.0
 40
8.0
  1
150'
 50
302.207925
  7
ROMANS
210
0.0
220
0.0
230
1.0
  0
TEXT
  8
-11
  6
CONTINUOUS
 62
     7
  5
AC
 10
964491.208
 20
7256650.453
 30
0.0
 40
8.0
  1
150'
 50
302.207925
  7
ROMANS
210
0.0
220
0.0
230
1.0
  0
TEXT
  8
-11
  6
CONTINUOUS
 62
     7
  5
AD
 10
963996.194
 20
7256626.983
 30
0.0
 40
8.0
  1
517'
 50
88.26
  7
ROMANS
210
0.0
220
0.0
230
1.0
  0
TEXT
  8
-11
  6
CONTINUOUS
 62
     7
  5
AE
 10
963888.742
 20
7256925.714
 30
0.0
 40
8.0
  1
150'
 50
358.26
  7
ROMANS
210
0.0
220
0.0
230
1.0
  0
TEXT
  8
-11
  6
CONTINUOUS
 62
     7
  5
AF
 10
963851.874
 20
7256383.227
 30
0.0
 40
8.0
  1
CH=354.38'
 50
21.526494
  7
ROMANS
210
0.0
220
0.0
230
1.0
  0
TEXT
  8
-11
  6
CONTINUOUS
 62
     7
  5
B0
 10
964303.765
 20
7256243.518
 30
0.0
 40
8.0
  1
2305.1'
 50
26.901458
  7
ROMANS
210
0.0
220
0.0
230
1.0
  0
TEXT
  8
-11
  6
CONTINUOUS
 62
     7
  5
B1
 10
964215.644
 20
7256553.346
 30
0.0
 40
8.0
  1
2322.0'
 50
27.693342
  7
ROMANS
210
0.0
220
0.0
230
1.0
  0
TEXT
  8
-15
  6
CONTINUOUS
 62
    30
  5
B2
 10
967306.067
 20
7255511.718
 30
0.0
 40
50.0
  1
BURRIS
 50
358.26
  7
ROMANC
210
0.0
220
0.0
230
1.0
  0
TEXT
  8
-15
  6
CONTINUOUS
 62
    30
  5
B3
 10
967418.465
 20
7255320.369
 30
0.0
 40
50.0
  1
INDUSTRIAL
 50
358.26
  7
ROMANC
210
0.0
220
0.0
230
1.0
  0
TEXT
  8
-15
  6
CONTINUOUS
 62
    30
  5
B4
 10
967593.679
 20
7255125.681
 30
0.0
 40
50.0
  1
ADDITION
 50
358.26
  7
ROMANC
210
0.0
220
0.0
230
1.0
  0
TEXT
  8
-11
  6
CONTINUOUS
 62
     7
  5
B5
 10
967322.065
 20
7255415.22
 30
0.0
 40
8.0
  1
800'
 50
308.034833
  7
ROMANS
210
0.0
220
0.0
230
1.0
  0
TEXT
  8
-11
  6
CONTINUOUS
 62
     7
  5
B6
 10
967804.765
 20
7255207.84
 30
0.0
 40
8.0
  1
100'
 50
38.034858
  7
ROMANS
210
0.0
220
0.0
230
1.0
  0
TEXT
  8
-11
  6
CONTINUOUS
 62
     7
  5
B7
 10
967323.786
 20
7255816.871
 30
0.0
 40
8.0
  1
100'
 50
38.034858
  7
ROMANS
210
0.0
220
0.0
230
1.0
  0
TEXT
  8
-19
  6
CONTINUOUS
 62
     1
  5
B9
 10
967088.873
 20
7255510.224
 30
0.0
 40
24.0
  1
SPUR 331
 50
306.056256
  7
ROMANC
210
0.0
220
0.0
230
1.0
  0
TEXT
  8
-22
  6
CONTINUOUS
 62
     3
  5
BB
 10
964899.32
 20
7252399.586
 30
0.0
 40
8.0
  1
20' UTIL ESMT
 50
87.3966
  7
ROMANS
210
0.0
220
0.0
230
1.0
  0
TEXT
  8
-22
  6
CONTINUOUS
 62
     3
  5
BC
 10
964742.988
 20
7252312.342
 30
0.0
 40
8.0
  1
10' UTIL ESMT
 50
357.3966
  7
ROMANS
210
0.0
220
0.0
230
1.0
  0
LINE
  8
-21
  6
DASHDOT
 62
     7
  5
BE
 10
967857.17
 20
7256809.624
 30
0.0
 11
967857.44
 21
7256824.621
 31
0.0
  0
POLYLINE
  8
-1
  6
HIDDEN
 62
   253
  5
C0
 66
     1
 10
0.0
 20
0.0
 30
0.0
  0
VERTEX
  8
-1
  6
HIDDEN
 62
   253
  5
C1
 10
969050.809
 20
7251548.466
 30
0.0
  0
VERTEX
  8
-1
  6
HIDDEN
 62
   253
  5
C2
 10
969215.104
 20
7256786.197
 30
0.0
  0
VERTEX
  8
-1
  6
HIDDEN
 62
   253
  5
C3
 10
963937.692
 20
7256951.479
 30
0.0
  0
VERTEX
  8
-1
  6
HIDDEN
 62
   253
  5
C4
 10
963773.278
 20
7251709.95
 30
0.0
  0
VERTEX
  8
-1
  6
HIDDEN
 62
   253
  5
C5
 10
969050.809
 20
7251548.466
 30
0.0
  0
SEQEND
  8
-1
  6
HIDDEN
 62
   253
  5
C6
  0
TEXT
  8
-11
  6
CONTINUOUS
 62
     7
  5
C7
 10
968829.814
 20
7252359.516
 30
0.0
 40
8.0
  1
300'
 50
358.0966
  7
ROMANS
 72
     4
 11
968843.273501
 21
7252363.070911
 31
0.0
210
0.0
220
0.0
230
1.0
  0
TEXT
  8
-11
  6
CONTINUOUS
 62
     7
  5
C8
 10
968684.758
 20
7252065.71
 30
0.0
 40
8.0
  1
584.41'
 50
88.0966
  7
ROMANS
 72
     4
 11
968681.601663
 21
7252091.16288
 31
0.0
210
0.0
220
0.0
230
1.0
  0
TEXT
  8
-11
  6
CONTINUOUS
 62
     7
  5
C9
 10
968968.368
 20
7252000.911
 30
0.0
 40
8.0
  1
609.08'
 50
88.0966
  7
ROMANS
 72
     4
 11
968965.211663
 21
7252026.36388
 31
0.0
210
0.0
220
0.0
230
1.0
  0
TEXT
  8
-15
  6
CONTINUOUS
 62
    30
  5
CA
 10
968724.209
 20
7251938.098
 30
0.0
 40
50.0
  1
GREEN
 50
28.0966
  7
ROMANC
 72
     4
 11
968831.205689
 21
7252023.560449
 31
0.0
210
0.0
220
0.0
230
1.0
  0
TEXT
  8
-11
  6
CONTINUOUS
 62
     7
  5
CB
 10
968577.991
 20
7251876.647
 30
0.0
 40
8.0
  1
150'
 50
88.0966
  7
ROMANS
 72
     4
 11
968574.436089
 21
7251890.106501
 31
0.0
210
0.0
220
0.0
230
1.0
  0
TEXT
  8
-11
  6
CONTINUOUS
 62
     7
  5
CC
 10
968667.879
 20
7251863.692
 30
0.0
 40
8.0
  1
150'
 50
88.0966
  7
ROMANS
 72
     4
 11
968664.324089
 21
7251877.151501
 31
0.0
210
0.0
220
0.0
230
1.0
  0
TEXT
  8
-11
  6
CONTINUOUS
 62
     7
  5
CD
 10
968589.404
 20
7251819.919
 30
0.0
 40
8.0
  1
108.74'
 50
341.052642
  7
ROMANS
 72
     1
 11
968613.365335
 21
7251811.693068
 31
0.0
210
0.0
220
0.0
230
1.0
  0
TEXT
  8
-15
  6
CONTINUOUS
 62
    30
  5
CE
 10
968450.761
 20
7252197.812
 30
0.0
 40
50.0
  1
SCOTT
 50
31.380344
  7
ROMANC
 72
     4
 11
968541.595857
 21
7252282.498351
 31
0.0
210
0.0
220
0.0
230
1.0
  0
TEXT
  8
-15
  6
CONTINUOUS
 62
    30
  5
CF
 10
968308.405
 20
7251885.735
 30
0.0
 40
50.0
  1
TOWNSEND
 50
32.224383
  7
ROMANC
 72
     4
 11
968482.240754
 21
7252024.860566
 31
0.0
210
0.0
220
0.0
230
1.0
  0
TEXT
  8
-11
  6
CONTINUOUS
 62
     7
  5
D0
 10
968565.893
 20
7252022.638
 30
0.0
 40
8.0
  1
419.15'
 50
88.0966
  7
ROMANS
 72
     4
 11
968562.736663
 21
7252048.09088
 31
0.0
210
0.0
220
0.0
230
1.0
  0
TEXT
  8
-11
  6
CONTINUOUS
 62
     7
  5
D1
 10
968470.777
 20
7251819.018
 30
0.0
 40
7.0
  1
36.62'
 50
88.0966
  7
ROMANS
 72
     4
 11
968467.898913
 21
7251837.789952
 31
0.0
210
0.0
220
0.0
230
1.0
  0
POLYLINE
  8
-21
  6
DASHDOT
 62
     7
  5
D2
 66
     1
 10
0.0
 20
0.0
 30
0.0
  0
VERTEX
  8
-21
  6
DASHDOT
 62
     7
  5
D3
 10
969031.367987
 20
7253072.628853
 30
0.0
 42
0.138199
  0
VERTEX
  8
-21
  6
DASHDOT
 62
     7
  5
D4
 10
968991.157644
 20
7252940.332422
 30
0.0
  0
VERTEX
  8
-21
  6
DASHDOT
 62
     7
  5
D5
 10
968991.158
 20
7252940.332
 30
0.0
  0
VERTEX
  8
-21
  6
DASHDOT
 62
     7
  5
D6
 10
968979.454
 20
7252367.272
 30
0.0
  0
VERTEX
  8
-21
  6
DASHDOT
 62
     7
  5
D7
 10
969016.946
 20
7252366.507
 30
0.0
  0
VERTEX
  8
-21
  6
DASHDOT
 62
     7
  5
D8
 10
969031.368
 20
7253072.629
 30
0.0
  0
SEQEND
  8
-21
  6
DASHDOT
 62
     7
  5
D9
  0
TEXT
  8
-19
  6
CONTINUOUS
 62
     1
  5
DA
 10
965674.884
 20
7252589.788
 30
0.0
 40
50.0
  1
SLATON HIGHWAY (U.S. 84)
 50
341.762639
  7
ROMANC
210
0.0
220
0.0
230
1.0
  0
TEXT
  8
-19
  6
CONTINUOUS
 62
     1
  5
DB
 10
969010.897
 20
7252455.522
 30
0.0
 40
24.0
  1
OLIVE AVE
 50
88.0966
  7
ROMANC
 72
     4
 11
969002.594116
 21
7252566.970268
 31
0.0
210
0.0
220
0.0
230
1.0
  0
TEXT
  8
-19
  6
CONTINUOUS
 62
     1
  5
DC
 10
966397.791
 20
7256580.906
 30
0.0
 40
24.0
  1
SOUTHEAST DR
 50
303.968219
  7
ROMANC
210
0.0
220
0.0
230
1.0
  0
TEXT
  8
-19
  6
CONTINUOUS
 62
     1
  5
DD
 10
964667.555
 20
7256685.501
 30
0.0
 40
24.0
  1
LOOP 289
 50
38.26
  7
ROMANC
 72
     4
 11
964736.911373
 21
7256755.479345
 31
0.0
210
0.0
220
0.0
230
1.0
  0
TEXT
  8
-15
  6
CONTINUOUS
 62
    30
  5
DE
 10
964830.541
 20
7252543.273
 30
0.0
 40
50.0
  1
J&L 
 50
43.0966
  7
ROMANC
210
0.0
220
0.0
230
1.0
  0
TEXT
  8
-15
  6
CONTINUOUS
 62
    30
  5
DF
 10
966008.979
 20
7252089.722
 30
0.0
 40
50.0
  1
HOLLY AVE
 50
28.0966
  7
ROMANC
210
0.0
220
0.0
230
1.0
  0
ARC
  8
-6
  6
CONTINUOUS
 62
     7
  5
E0
 10
968917.024985
 20
7251759.346197
 30
0.0
 40
50.0
 50
251.714492
 51
358.829886
210
0.0
220
0.0
230
1.0
  0
LINE
  8
-6
  6
CONTINUOUS
 62
     7
  5
E1
 10
968667.587
 20
7251789.109
 30
0.0
 11
968679.522
 21
7252373.398
 31
0.0
  0
LINE
  8
-6
  6
CONTINUOUS
 62
     7
  5
E2
 10
968471.451
 20
7252377.646
 30
0.0
 11
968979.454
 21
7252367.272
 31
0.0
  0
LINE
  8
-6
  6
CONTINUOUS
 62
     7
  5
E3
 10
968979.454
 20
7252367.272
 30
0.0
 11
968967.015
 21
7251758.325
 31
0.0
  0
LINE
  8
-6
  6
CONTINUOUS
 62
     7
  5
E4
 10
967117.442
 20
7255670.377
 30
0.0
 11
967235.6
 21
7255762.781
 31
0.0
  0
LINE
  8
-6
  6
CONTINUOUS
 62
     7
  5
E5
 10
967728.423
 20
7255132.601
 30
0.0
 11
967610.264
 21
7255040.197
 31
0.0
  0
LINE
  8
-6
  6
CONTINUOUS
 62
     7
  5
E6
 10
967610.264
 20
7255040.197
 30
0.0
 11
967117.442
 21
7255670.377
 31
0.0
  0
LINE
  8
-6
  6
CONTINUOUS
 62
     7
  5
E7
 10
967235.6
 20
7255762.781
 30
0.0
 11
967728.423
 21
7255132.601
 31
0.0
  0
LINE
  8
-6
  6
CONTINUOUS
 62
     7
  5
E8
 10
968901.337
 20
7251711.871
 30
0.0
 11
968460.825
 21
7251857.427
 31
0.0
  0
LINE
  8
-6
  6
CONTINUOUS
 62
     7
  5
E9
 10
968460.078
 20
7251820.815
 30
0.0
 11
963831.689
 21
7253350.167
 31
0.0
  0
LINE
  8
-6
  6
CONTINUOUS
 62
     7
  5
EA
 10
968564.338
 20
7251823.225
 30
0.0
 11
968572.894
 21
7252242.291
 31
0.0
  0
LINE
  8
-6
  6
CONTINUOUS
 62
     7
  5
EB
 10
968670.65
 20
7251939.076
 30
0.0
 11
968567.4
 21
7251973.194
 31
0.0
  0
TEXT
  8
-13
  6
CONTINUOUS
 62
    14
  5
ED
 10
969009.412
 20
7252717.107
 30
0.0
 40
8.0
  1
V5927 P195
 50
88.0966
  7
ROMANS
 72
     4
 11
969006.687783
 21
7252755.562702
 31
0.0
210
0.0
220
0.0
230
1.0
  0
TEXT
  8
-11
  6
CONTINUOUS
 62
     7
  5
EE
 10
968741.601
 20
7251769.341
 30
0.0
 40
8.0
  1
246.18'
 50
341.714642
  7
ROMANS
 72
     1
 11
968765.654828
 21
7251761.392776
 31
0.0
210
0.0
220
0.0
230
1.0
  0
TEXT
  8
-11
  6
CONTINUOUS
 62
     7
  5
EF
 10
968617.585
 20
7251687.235
 30
0.0
 40
8.0
  1
N73%%d37'05"W
 50
341.714642
  7
ROMANS
 72
     1
 11
968660.79461
 21
7251681.382473
 31
0.0
210
0.0
220
0.0
230
1.0
 73
     3
  0
TEXT
  8
-11
  6
CONTINUOUS
 62
     7
  5
F0
 10
968593.752
 20
7251950.742
 30
0.0
 40
8.0
  1
108.74'
 50
341.052642
  7
ROMANS
 72
     1
 11
968617.713335
 21
7251942.516068
 31
0.0
210
0.0
220
0.0
230
1.0
  0
LINE
  8
-21
  6
DASHDOT
 62
     7
  5
F1
 10
968567.4
 20
7251973.194
 30
0.0
 11
968567.293
 21
7251967.963
 31
0.0
  0
LINE
  8
-21
  6
DASHDOT
 62
     7
  5
F2
 10
968567.293
 20
7251967.963
 30
0.0
 11
968670.544
 21
7251933.846
 31
0.0
  0
LINE
  8
-21
  6
DASHDOT
 62
     7
  5
F3
 10
968670.544
 20
7251933.846
 30
0.0
 11
968670.65
 21
7251939.076
 31
0.0
  0
LINE
  8
-21
  6
DASHDOT
 62
     7
  5
F4
 10
968670.65
 20
7251939.076
 30
0.0
 11
968567.4
 21
7251973.194
 31
0.0
  0
TEXT
  8
-22
  6
CONTINUOUS
 62
     3
  5
F6
 10
968570.451
 20
7251973.082
 30
0.0
 40
8.0
  1
5'UUE-SPS
 50
343.0966
  7
txt
 72
     4
 11
968601.657441
 21
7251967.779354
 31
0.0
210
0.0
220
0.0
230
1.0
  0
LINE
  8
-6
  6
CONTINUOUS
 62
     7
  5
F7
 10
968979.454
 20
7252367.272
 30
0.0
 11
968991.158
 21
7252940.332
 31
0.0
  0
ARC
  8
-6
  6
CONTINUOUS
 62
     7
  5
F8
 10
969246.014861
 20
7252934.440555
 30
0.0
 40
254.91
 50
147.363975
 51
178.829206
210
0.0
220
0.0
230
1.0
  0
LINE
  8
-6
  6
CONTINUOUS
 62
     7
  5
F9
 10
965317.636
 20
7252690.661
 30
0.0
 11
965967.774
 21
7252475.836
 31
0.0
  0
LINE
  8
-6
  6
CONTINUOUS
 62
     7
  5
FA
 10
966506.134
 20
7252297.946
 30
0.0
 11
968760.302
 21
7251554.124
 31
0.0
  0
LINE
  8
-6
  6
CONTINUOUS
 62
     7
  5
FB
 10
965125.217
 20
7252754.242
 30
0.0
 11
965112.896
 21
7252162.899
 31
0.0
  0
LINE
  8
-6
  6
CONTINUOUS
 62
     7
  5
FC
 10
964919.678
 20
7252166.925
 30
0.0
 11
965306.553
 21
7252158.863
 31
0.0
  0
LINE
  8
-6
  6
CONTINUOUS
 62
     7
  5
FD
 10
965295.443
 20
7251625.693
 30
0.0
 11
965317.636
 21
7252690.661
 31
0.0
  0
LINE
  8
-6
  6
CONTINUOUS
 62
     7
  5
FE
 10
965316.887
 20
7252654.737
 30
0.0
 11
965124.47
 21
7252718.379
 31
0.0
  0
LINE
  8
-6
  6
CONTINUOUS
 62
     7
  5
FF
 10
965957.114
 20
7252443.581
 30
0.0
 11
966495.471
 21
7252265.675
 31
0.0
  0
LINE
  8
-6
  6
CONTINUOUS
 62
     7
  5
100
 10
966495.471
 20
7252265.675
 30
0.0
 11
966491.808
 21
7252086.383
 31
0.0
  0
LINE
  8
-6
  6
CONTINUOUS
 62
     7
  5
101
 10
966491.808
 20
7252086.383
 30
0.0
 11
966041.901
 21
7252095.578
 31
0.0
  0
LINE
  8
-6
  6
CONTINUOUS
 62
     7
  5
102
 10
966041.901
 20
7252095.578
 30
0.0
 11
966043.477
 21
7252172.732
 31
0.0
  0
LINE
  8
-6
  6
CONTINUOUS
 62
     7
  5
103
 10
966043.477
 20
7252172.732
 30
0.0
 11
966012.141
 21
7252205.374
 31
0.0
  0
LINE
  8
-6
  6
CONTINUOUS
 62
     7
  5
104
 10
966012.141
 20
7252205.374
 30
0.0
 11
966014.407
 21
7252316.351
 31
0.0
  0
LINE
  8
-6
  6
CONTINUOUS
 62
     7
  5
105
 10
966014.407
 20
7252316.351
 30
0.0
 11
965918.428
 21
7252318.311
 31
0.0
  0
LINE
  8
-6
  6
CONTINUOUS
 62
     7
  5
106
 10
965918.428
 20
7252318.311
 30
0.0
 11
965920.898
 21
7252439.286
 31
0.0
  0
LINE
  8
-6
  6
CONTINUOUS
 62
     7
  5
107
 10
965920.898
 20
7252439.286
 30
0.0
 11
965957.114
 21
7252443.581
 31
0.0
  0
LINE
  8
-6
  6
CONTINUOUS
 62
     7
  5
108
 10
965967.774
 20
7252475.836
 30
0.0
 11
965957.114
 21
7252443.581
 31
0.0
  0
LINE
  8
-6
  6
CONTINUOUS
 62
     7
  5
109
 10
966506.134
 20
7252297.946
 30
0.0
 11
966495.471
 21
7252265.675
 31
0.0
  0
TEXT
  8
-11
  6
CONTINUOUS
 62
     7
  5
10A
 10
966205.278
 20
7252095.593
 30
0.0
 40
8.0
  1
450'
 50
358.806322
  7
ROMANS
210
0.0
220
0.0
230
1.0
  0
LINE
  8
-6
  6
CONTINUOUS
 62
     7
  5
10B
 10
964754.288
 20
7252876.807
 30
0.0
 11
964742.721
 21
7252321.707
 31
0.0
  0
LINE
  8
-6
  6
CONTINUOUS
 62
     7
  5
10C
 10
964753.527
 20
7252840.314
 30
0.0
 11
964932.037
 21
7252781.272
 31
0.0
  0
LINE
  8
-6
  6
CONTINUOUS
 62
     7
  5
10D
 10
964932.798
 20
7252817.823
 30
0.0
 11
964922.383
 21
7252317.992
 31
0.0
  0
LINE
  8
-6
  6
CONTINUOUS
 62
     7
  5
10E
 10
964922.383
 20
7252317.992
 30
0.0
 11
964742.721
 21
7252321.707
 31
0.0
  0
LINE
  8
-6
  6
CONTINUOUS
 62
     7
  5
10F
 10
963753.006
 20
7253207.66
 30
0.0
 11
964754.288
 21
7252876.807
 31
0.0
  0
LINE
  8
-6
  6
CONTINUOUS
 62
     7
  5
110
 10
964932.798
 20
7252817.823
 30
0.0
 11
965125.217
 21
7252754.242
 31
0.0
  0
LINE
  8
-21
  6
DASHDOT
 62
     7
  5
111
 10
964912.17
 20
7252787.843
 30
0.0
 11
964902.804
 21
7252338.4
 31
0.0
  0
LINE
  8
-21
  6
DASHDOT
 62
     7
  5
112
 10
964902.804
 20
7252338.4
 30
0.0
 11
964892.599
 21
7252328.61
 31
0.0
  0
LINE
  8
-21
  6
DASHDOT
 62
     7
  5
113
 10
964892.599
 20
7252328.61
 30
0.0
 11
964742.928
 21
7252331.704
 31
0.0
  0
LINE
  8
-21
  6
DASHDOT
 62
     7
  5
114
 10
964742.928
 20
7252331.704
 30
0.0
 11
964742.721
 21
7252321.707
 31
0.0
  0
LINE
  8
-21
  6
DASHDOT
 62
     7
  5
115
 10
964742.721
 20
7252321.707
 30
0.0
 11
964922.383
 21
7252317.992
 31
0.0
  0
LINE
  8
-21
  6
DASHDOT
 62
     7
  5
116
 10
964922.383
 20
7252317.992
 30
0.0
 11
964932.037
 21
7252781.272
 31
0.0
  0
POLYLINE
  8
-6
  6
CONTINUOUS
 62
     7
  5
117
 66
     1
 10
0.0
 20
0.0
 30
0.0
  0
VERTEX
  8
-6
  6
CONTINUOUS
 62
     7
  5
118
 10
963976.102
 20
7256429.845
 30
0.0
  0
VERTEX
  8
-6
  6
CONTINUOUS
 62
     7
  5
119
 10
963985.261
 20
7256939.108
 30
0.0
  0
VERTEX
  8
-6
  6
CONTINUOUS
 62
     7
  5
11A
 10
963835.285
 20
7256941.805
 30
0.0
  0
SEQEND
  8
-6
  6
CONTINUOUS
 62
     7
  5
11B
  0
TEXT
  8
-22
  6
CONTINUOUS
 62
     3
  5
11C
 10
963773.785
 20
7256597.087
 30
0.0
 40
6.0
  1
CITY OF LUBBOCK VIA WARRANTY DEED
 50
358.26
  7
txt
 72
     4
 11
963870.747405
 21
7256597.142853
 31
0.0
210
0.0
220
0.0
230
1.0
  0
TEXT
  8
-13
  6
CONTINUOUS
 62
    14
  5
11D
 10
963847.301
 20
7256640.405
 30
0.0
 40
8.0
  1
V1138 P249
 50
358.26
  7
txt
 72
     4
 11
963883.625755
 21
7256643.303369
 31
0.0
210
0.0
220
0.0
230
1.0
  0
POLYLINE
  8
-21
  6
DASHDOT
 62
     7
  5
11E
 66
     1
 10
0.0
 20
0.0
 30
0.0
  0
VERTEX
  8
-21
  6
DASHDOT
 62
     7
  5
11F
 10
964575.239
 20
7256892.814
 30
0.0
  0
VERTEX
  8
-21
  6
DASHDOT
 62
     7
  5
120
 10
964575.059
 20
7256882.816
 30
0.0
  0
VERTEX
  8
-21
  6
DASHDOT
 62
     7
  5
121
 10
963984.055
 20
7256893.444
 30
0.0
  0
VERTEX
  8
-21
  6
DASHDOT
 62
     7
  5
122
 10
963984.234
 20
7256903.443
 30
0.0
  0
VERTEX
  8
-21
  6
DASHDOT
 62
     7
  5
123
 10
964575.239
 20
7256892.814
 30
0.0
  0
SEQEND
  8
-21
  6
DASHDOT
 62
     7
  5
124
  0
TEXT
  8
-22
  6
CONTINUOUS
 62
     3
  5
125
 10
964573.666
 20
7256899.938
 30
0.0
 40
6.0
  1
26.5'
 50
88.26
  7
txt
 72
     4
 11
964571.019546
 21
7256911.621744
 31
0.0
210
0.0
220
0.0
230
1.0
  0
TEXT
  8
-13
  6
CONTINUOUS
 62
    14
  5
126
 10
964229.285
 20
7256890.699
 30
0.0
 40
8.0
  1
V1138 P363
 50
358.26
  7
txt
 72
     4
 11
964265.419843
 21
7256893.603138
 31
0.0
210
0.0
220
0.0
230
1.0
  0
TEXT
  8
-22
  6
CONTINUOUS
 62
     3
  5
127
 10
964198.479
 20
7256901.258
 30
0.0
 40
6.0
  1
591.1
 50
358.26
  7
txt
 72
     4
 11
964208.816366
 21
7256903.945355
 31
0.0
210
0.0
220
0.0
230
1.0
  0
TEXT
  8
-22
  6
CONTINUOUS
 62
     3
  5
128
 10
964023.412
 20
7256885.673
 30
0.0
 40
6.0
  1
10'UNDERGROUND WATER LINE EASEMENT
 50
358.26
  7
txt
 72
     4
 11
964120.209481
 21
7256885.733863
 31
0.0
210
0.0
220
0.0
230
1.0
  0
TEXT
  8
-22
  6
CONTINUOUS
 62
     3
  5
129
 10
965982.924
 20
7256903.647
 30
0.0
 40
6.0
  1
221.76
 50
358.26
  7
txt
 72
     4
 11
965997.346481
 21
7256906.210257
 31
0.0
210
0.0
220
0.0
230
1.0
  0
TEXT
  8
-22
  6
CONTINUOUS
 62
     3
  5
12A
 10
966160.202
 20
7256890.88
 30
0.0
 40
6.0
  1
50.22'
 50
358.26
  7
txt
 72
     4
 11
966175.002307
 21
7256893.431779
 31
0.0
210
0.0
220
0.0
230
1.0
  0
POLYLINE
  8
-21
  6
DASHDOT
 62
     7
  5
12B
 66
     1
 10
0.0
 20
0.0
 30
0.0
  0
VERTEX
  8
-21
  6
DASHDOT
 62
     7
  5
12C
 10
965575.804
 20
7256871.201
 30
0.0
  0
VERTEX
  8
-21
  6
DASHDOT
 62
     7
  5
12D
 10
965589.65
 20
7256885.953
 30
0.0
  0
VERTEX
  8
-21
  6
DASHDOT
 62
     7
  5
12E
 10
966212.779
 20
7256874.641
 30
0.0
  0
VERTEX
  8
-21
  6
DASHDOT
 62
     7
  5
12F
 10
966223.081
 20
7256859.452
 30
0.0
  0
VERTEX
  8
-21
  6
DASHDOT
 62
     7
  5
130
 10
965575.804
 20
7256871.201
 30
0.0
  0
SEQEND
  8
-21
  6
DASHDOT
 62
     7
  5
131
  0
TEXT
  8
-13
  6
CONTINUOUS
 62
    14
  5
132
 10
965714.97
 20
7256872.554
 30
0.0
 40
8.0
  1
V1165 P55
 50
358.26
  7
txt
 72
     4
 11
965747.106687
 21
7256875.579595
 31
0.0
210
0.0
220
0.0
230
1.0
  0
TEXT
  8
-22
  6
CONTINUOUS
 62
     3
  5
133
 10
965594.679
 20
7256864.107
 30
0.0
 40
6.0
  1
15'UNDERGROUND WATER LINE EASEMENT
 50
358.26
  7
txt
 72
     4
 11
965691.50047
 21
7256864.167135
 31
0.0
210
0.0
220
0.0
230
1.0
  0
LINE
  8
-21
  6
DASHDOT
 62
     7
  5
134
 10
966137.941
 20
7256907.973
 30
0.0
 11
965475.744
 21
7256700.961
 31
0.0
  0
LINE
  8
-21
  6
DASHDOT
 62
     7
  5
135
 10
965475.744
 20
7256700.961
 30
0.0
 11
965418.017
 21
7253243.943
 31
0.0
  0
LINE
  8
-21
  6
DASHDOT
 62
     7
  5
136
 10
965418.114
 20
7253239.194
 30
0.0
 11
965348.128
 21
7253240.623
 31
0.0
  0
LINE
  8
-21
  6
DASHDOT
 62
     7
  5
137
 10
965348.028
 20
7253245.172
 30
0.0
 11
965405.804
 21
7256705.09
 31
0.0
  0
LINE
  8
-21
  6
DASHDOT
 62
     7
  5
138
 10
965405.804
 20
7256705.09
 30
0.0
 11
965478.461
 21
7256775.29
 31
0.0
  0
LINE
  8
-21
  6
DASHDOT
 62
     7
  5
139
 10
965478.461
 20
7256775.29
 30
0.0
 11
965916.219
 21
7256912.139
 31
0.0
  0
LINE
  8
-21
  6
DASHDOT
 62
     7
  5
13A
 10
965916.219
 20
7256912.139
 30
0.0
 11
966137.941
 21
7256907.973
 31
0.0
  0
TEXT
  8
-22
  6
CONTINUOUS
 62
     3
  5
13B
 10
965759.376
 20
7256792.42
 30
0.0
 40
6.0
  1
693.8'
 50
18.26
  7
txt
 72
     4
 11
965772.164072
 21
7256799.798425
 31
0.0
210
0.0
220
0.0
230
1.0
  0
TEXT
  8
-22
  6
CONTINUOUS
 62
     3
  5
13C
 10
965619.733
 20
7256820.603
 30
0.0
 40
6.0
  1
458.65'
 50
18.26
  7
txt
 72
     4
 11
965635.639704
 21
7256829.0104
 31
0.0
210
0.0
220
0.0
230
1.0
  0
TEXT
  8
-22
  6
CONTINUOUS
 62
     3
  5
13D
 10
965420.37
 20
7256722.723
 30
0.0
 40
6.0
  1
R=4246.8'
 50
43.26
  7
txt
 72
     4
 11
965435.31
 21
7256740.901521
 31
0.0
210
0.0
220
0.0
230
1.0
  0
TEXT
  8
-22
  6
CONTINUOUS
 62
     3
  5
13E
 10
965431.97
 20
7256719.218
 30
0.0
 40
6.0
  1
101.03'
 50
43.26
  7
txt
 72
     4
 11
965441.250031
 21
7256732.070291
 31
0.0
210
0.0
220
0.0
230
1.0
  0
TEXT
  8
-22
  6
CONTINUOUS
 62
     3
  5
13F
 10
965379.863
 20
7255323.416
 30
0.0
 40
6.0
  1
3460.4'
 50
88.26
  7
txt
 72
     4
 11
965377.406625
 21
7255341.356858
 31
0.0
210
0.0
220
0.0
230
1.0
  0
TEXT
  8
-22
  6
CONTINUOUS
 62
     3
  5
140
 10
965460.752
 20
7255328.393
 30
0.0
 40
6.0
  1
3457.5'
 50
88.26
  7
txt
 72
     4
 11
965458.297052
 21
7255346.380836
 31
0.0
210
0.0
220
0.0
230
1.0
  0
TEXT
  8
-22
  6
CONTINUOUS
 62
     3
  5
141
 10
965418.784
 20
7255248.15
 30
0.0
 40
6.0
  1
JUDGMENT 28796 DATED NOV. 16, 1988
 50
88.26
  7
txt
 72
     4
 11
965418.576083
 21
7255340.106714
 31
0.0
210
0.0
220
0.0
230
1.0
  0
TEXT
  8
-22
  6
CONTINUOUS
 62
     3
  5
142
 10
965374.097
 20
7253243.504
 30
0.0
 40
6.0
  1
70'
 50
358.0966
  7
txt
 72
     4
 11
965381.420655
 21
7253246.26227
 31
0.0
210
0.0
220
0.0
230
1.0
  0
POLYLINE
  8
-21
  6
DASHDOT
 62
     7
  5
143
 66
     1
 10
0.0
 20
0.0
 30
0.0
  0
VERTEX
  8
-21
  6
DASHDOT
 62
     7
  5
144
 10
967031.923
 20
7256880.882
 30
0.0
  0
VERTEX
  8
-21
  6
DASHDOT
 62
     7
  5
145
 10
967031.549
 20
7256860.885
 30
0.0
  0
VERTEX
  8
-21
  6
DASHDOT
 62
     7
  5
146
 10
966577.224
 20
7256869.133
 30
0.0
  0
VERTEX
  8
-21
  6
DASHDOT
 62
     7
  5
147
 10
966569.274
 20
7256879.28
 30
0.0
  0
VERTEX
  8
-21
  6
DASHDOT
 62
     7
  5
148
 10
967021.5
 20
7256871.07
 30
0.0
  0
VERTEX
  8
-21
  6
DASHDOT
 62
     7
  5
149
 10
967021.687
 20
7256881.069
 30
0.0
  0
VERTEX
  8
-21
  6
DASHDOT
 62
     7
  5
14A
 10
967031.923
 20
7256880.882
 30
0.0
  0
SEQEND
  8
-21
  6
DASHDOT
 62
     7
  5
14B
  0
TEXT
  8
-13
  6
CONTINUOUS
 62
    14
  5
14C
 10
966768.897
 20
7256866.424
 30
0.0
 40
8.0
  1
V1791 P834
 50
358.86
  7
txt
 72
     4
 11
966803.802687
 21
7256869.73019
 31
0.0
210
0.0
220
0.0
230
1.0
  0
TEXT
  8
-13
  6
CONTINUOUS
 62
    14
  5
14D
 10
966922.791
 20
7256863.744
 30
0.0
 40
8.0
  1
V1828 P875
 50
358.26
  7
txt
 72
     4
 11
966960.563088
 21
7256866.598402
 31
0.0
210
0.0
220
0.0
230
1.0
  0
TEXT
  8
-22
  6
CONTINUOUS
 62
     3
  5
14E
 10
967038.593
 20
7256864.791
 30
0.0
 40
6.0
  1
20'
 50
88.26
  7
txt
 72
     4
 11
967035.813126
 21
7256872.08277
 31
0.0
210
0.0
220
0.0
230
1.0
  0
TEXT
  8
-22
  6
CONTINUOUS
 62
     3
  5
14F
 10
966878.79
 20
7256875.509
 30
0.0
 40
6.0
  1
10'UUE
 50
358.86
  7
txt
 72
     4
 11
966892.854914
 21
7256878.229711
 31
0.0
210
0.0
220
0.0
230
1.0
  0
TEXT
  8
-22
  6
CONTINUOUS
 62
     3
  5
150
 10
966792.773
 20
7256876.911
 30
0.0
 40
6.0
  1
452.3'
 50
358.86
  7
txt
 72
     4
 11
966807.711741
 21
7256879.614322
 31
0.0
210
0.0
220
0.0
230
1.0
  0
TEXT
  8
-22
  6
CONTINUOUS
 62
     3
  5
151
 10
966793.13
 20
7256858.421
 30
0.0
 40
6.0
  1
454.4'
 50
358.86
  7
txt
 72
     4
 11
966808.351685
 21
7256861.118692
 31
0.0
210
0.0
220
0.0
230
1.0
  0
POLYLINE
  8
-21
  6
DASHDOT
 62
     7
  5
152
 66
     1
 10
0.0
 20
0.0
 30
0.0
  0
VERTEX
  8
-21
  6
DASHDOT
 62
     7
  5
153
 10
966599.672
 20
7256832.86
 30
0.0
  0
VERTEX
  8
-21
  6
DASHDOT
 62
     7
  5
154
 10
966599.968
 20
7256847.858
 30
0.0
  0
VERTEX
  8
-21
  6
DASHDOT
 62
     7
  5
155
 10
967842.282
 20
7256823.339
 30
0.0
  0
VERTEX
  8
-21
  6
DASHDOT
 62
     7
  5
156
 10
967841.986
 20
7256808.341
 30
0.0
  0
VERTEX
  8
-21
  6
DASHDOT
 62
     7
  5
157
 10
966599.672
 20
7256832.86
 30
0.0
  0
SEQEND
  8
-21
  6
DASHDOT
 62
     7
  5
158
  0
POLYLINE
  8
-21
  6
DASHDOT
 62
     7
  5
159
 66
     1
 10
0.0
 20
0.0
 30
0.0
  0
VERTEX
  8
-21
  6
DASHDOT
 62
     7
  5
15A
 10
966540.209
 20
7256918.499
 30
0.0
  0
VERTEX
  8
-21
  6
DASHDOT
 62
     7
  5
15B
 10
966566.197
 20
7256917.709
 30
0.0
  0
VERTEX
  8
-21
  6
DASHDOT
 62
     7
  5
15C
 10
969068.734
 20
7253713.839
 30
0.0
  0
VERTEX
  8
-21
  6
DASHDOT
 62
     7
  5
15D
 10
969042.746
 20
7253714.628
 30
0.0
  0
VERTEX
  8
-21
  6
DASHDOT
 62
     7
  5
15E
 10
966540.209
 20
7256918.499
 30
0.0
  0
SEQEND
  8
-21
  6
DASHDOT
 62
     7
  5
15F
  0
TEXT
  8
-22
  6
CONTINUOUS
 62
     3
  5
160
 10
967102.629
 20
7256839.424
 30
0.0
 40
6.0
  1
15'UNDERGROUND WATER LINE EASEMENT
 50
358.26
  7
txt
 72
     4
 11
967199.45047
 21
7256839.484135
 31
0.0
210
0.0
220
0.0
230
1.0
  0
TEXT
  8
-13
  6
CONTINUOUS
 62
    14
  5
161
 10
967174.37
 20
7256825.366
 30
0.0
 40
8.0
  1
V1165 P392
 50
358.26
  7
txt
 72
     4
 11
967210.31593
 21
7256828.275877
 31
0.0
210
0.0
220
0.0
230
1.0
  0
TEXT
  8
-22
  6
CONTINUOUS
 62
     3
  5
162
 10
967188.745
 20
7256814.253
 30
0.0
 40
6.0
  1
1233.1'
 50
358.26
  7
txt
 72
     4
 11
967204.442893
 21
7256816.777512
 31
0.0
210
0.0
220
0.0
230
1.0
  0
POLYLINE
  8
-21
  6
DASHDOT
 62
     7
  5
163
 66
     1
 10
0.0
 20
0.0
 30
0.0
  0
VERTEX
  8
-21
  6
DASHDOT
 62
     7
  5
164
 10
967817.456
 20
7256460.618
 30
0.0
  0
VERTEX
  8
-21
  6
DASHDOT
 62
     7
  5
165
 10
967817.698
 20
7256475.637
 30
0.0
  0
VERTEX
  8
-21
  6
DASHDOT
 62
     7
  5
166
 10
968722.538
 20
7256457.543
 30
0.0
  0
VERTEX
  8
-21
  6
DASHDOT
 62
     7
  5
167
 10
968722.137
 20
7256437.547
 30
0.0
  0
VERTEX
  8
-21
  6
DASHDOT
 62
     7
  5
168
 10
967837.376
 20
7256455.239
 30
0.0
  0
SEQEND
  8
-21
  6
DASHDOT
 62
     7
  5
169
  0
TEXT
  8
-22
  6
CONTINUOUS
 62
     3
  5
16A
 10
968256.797
 20
7256469.211
 30
0.0
 40
6.0
  1
20'WASTE WATER PIPELINE EASEMENT
 50
358.86
  7
txt
 72
     4
 11
968347.919658
 21
7256470.39831
 31
0.0
210
0.0
220
0.0
230
1.0
  0
TEXT
  8
-22
  6
CONTINUOUS
 62
     3
  5
16B
 10
968184.999
 20
7256470.45
 30
0.0
 40
6.0
  1
905'
 50
358.86
  7
txt
 72
     4
 11
968195.118695
 21
7256473.249218
 31
0.0
210
0.0
220
0.0
230
1.0
  0
TEXT
  8
-22
  6
CONTINUOUS
 62
     3
  5
16C
 10
968185.948
 20
7256440.439
 30
0.0
 40
6.0
  1
885'
 50
358.86
  7
txt
 72
     4
 11
968196.233662
 21
7256443.234916
 31
0.0
210
0.0
220
0.0
230
1.0
  0
TEXT
  8
-13
  6
CONTINUOUS
 62
    14
  5
16D
 10
968147.051
 20
7256457.411
 30
0.0
 40
8.0
  1
V1507 P658
 50
358.86
  7
txt
 72
     4
 11
968184.601164
 21
7256460.664567
 31
0.0
210
0.0
220
0.0
230
1.0
  0
POLYLINE
  8
-21
  6
DASHDOT
 62
     7
  5
16E
 66
     1
 10
0.0
 20
0.0
 30
0.0
  0
VERTEX
  8
-21
  6
DASHDOT
 62
     7
  5
16F
 10
967819.123
 20
7255309.146
 30
0.0
  0
VERTEX
  8
-21
  6
DASHDOT
 62
     7
  5
170
 10
967837.452
 20
7256460.3
 30
0.0
  0
VERTEX
  8
-21
  6
DASHDOT
 62
     7
  5
171
 10
967817.456
 20
7256460.618
 30
0.0
  0
VERTEX
  8
-21
  6
DASHDOT
 62
     7
  5
172
 10
967799.127
 20
7255309.464
 30
0.0
  0
VERTEX
  8
-21
  6
DASHDOT
 62
     7
  5
173
 10
967819.123
 20
7255309.146
 30
0.0
  0
SEQEND
  8
-21
  6
DASHDOT
 62
     7
  5
174
  0
TEXT
  8
-22
  6
CONTINUOUS
 62
     3
  5
175
 10
967807.778
 20
7255947.686
 30
0.0
 40
6.0
  1
1151.3'
 50
89.093333
  7
txt
 72
     4
 11
967805.00861
 21
7255962.281649
 31
0.0
210
0.0
220
0.0
230
1.0
  0
TEXT
  8
-13
  6
CONTINUOUS
 62
    14
  5
176
 10
967822.16
 20
7255924.768
 30
0.0
 40
8.0
  1
V1506 P970
 50
89.093333
  7
txt
 72
     4
 11
967818.746546
 21
7255961.862658
 31
0.0
210
0.0
220
0.0
230
1.0
  0
TEXT
  8
-22
  6
CONTINUOUS
 62
     3
  5
177
 10
967836.606
 20
7255862.531
 30
0.0
 40
6.0
  1
20'WASTE WATER LINE EASEMENT
 50
89.093333
  7
txt
 72
     4
 11
967834.876794
 21
7255942.854419
 31
0.0
210
0.0
220
0.0
230
1.0
  0
TEXT
  8
-22
  6
CONTINUOUS
 62
     3
  5
178
 10
967666.597
 20
7255514.552
 30
0.0
 40
6.0
  1
20'SANITARY SEWER LINE EASEMENT
 50
308.26
  7
txt
 72
     4
 11
967723.495732
 21
7255447.246926
 31
0.0
210
0.0
220
0.0
230
1.0
  0
TEXT
  8
-22
  6
CONTINUOUS
 62
     3
  5
179
 10
967880.019
 20
7255235.797
 30
0.0
 40
6.0
  1
4065.4'
 50
308.26
  7
txt
 72
     4
 11
967893.432854
 21
7255223.632433
 31
0.0
210
0.0
220
0.0
230
1.0
  0
TEXT
  8
-13
  6
CONTINUOUS
 62
    14
  5
17A
 10
967821.583
 20
7255284.736
 30
0.0
 40
8.0
  1
V700 P39
 50
308.26
  7
txt
 72
     4
 11
967843.797389
 21
7255263.026921
 31
0.0
210
0.0
220
0.0
230
1.0
  0
POLYLINE
  8
-21
  6
DASHDOT
 62
     7
  5
17B
 66
     1
 10
0.0
 20
0.0
 30
0.0
  0
VERTEX
  8
-21
  6
DASHDOT
 62
     7
  5
17C
 10
968544.155
 20
7251625.554
 30
0.0
  0
VERTEX
  8
-21
  6
DASHDOT
 62
     7
  5
17D
 10
968697.394
 20
7251574.915
 30
0.0
  0
VERTEX
  8
-21
  6
DASHDOT
 62
     7
  5
17E
 10
967734.095
 20
7251594.589
 30
0.0
  0
VERTEX
  8
-21
  6
DASHDOT
 62
     7
  5
17F
 10
967735.842
 20
7251689.573
 30
0.0
  0
VERTEX
  8
-21
  6
DASHDOT
 62
     7
  5
180
 10
968390.924
 20
7251676.193
 30
0.0
  0
VERTEX
  8
-21
  6
DASHDOT
 62
     7
  5
181
 10
968544.155
 20
7251625.554
 30
0.0
  0
SEQEND
  8
-21
  6
DASHDOT
 62
     7
  5
182
  0
POLYLINE
  8
-21
  6
DASHDOT
 62
     7
  5
183
 66
     1
 10
0.0
 20
0.0
 30
0.0
  0
VERTEX
  8
-21
  6
DASHDOT
 62
     7
  5
184
 10
968760.302
 20
7251554.124
 30
0.0
  0
VERTEX
  8
-21
  6
DASHDOT
 62
     7
  5
185
 10
967735.616
 20
7251575.053
 30
0.0
  0
VERTEX
  8
-21
  6
DASHDOT
 62
     7
  5
186
 10
967735.922
 20
7251590.051
 30
0.0
  0
VERTEX
  8
-21
  6
DASHDOT
 62
     7
  5
187
 10
968708.61
 20
7251570.183
 30
0.0
  0
VERTEX
  8
-21
  6
DASHDOT
 62
     7
  5
188
 10
968760.302
 20
7251554.124
 30
0.0
  0
SEQEND
  8
-21
  6
DASHDOT
 62
     7
  5
189
  0
TEXT
  8
-11
  6
CONTINUOUS
 62
     7
  5
18A
 10
967729.467
 20
7251759.763
 30
0.0
 40
8.0
  1
315.82'
 50
88.0966
  7
txt
 72
     4
 11
967726.207764
 21
7251782.119589
 31
0.0
210
0.0
220
0.0
230
1.0
  0
TEXT
  8
-22
  6
CONTINUOUS
 62
     3
  5
18B
 10
968004.588
 20
7251674.545
 30
0.0
 40
6.0
  1
536.3'
 50
358.0966
  7
txt
 72
     4
 11
968019.277589
 21
7251677.05848
 31
0.0
210
0.0
220
0.0
230
1.0
  0
TEXT
  8
-13
  6
CONTINUOUS
 62
    14
  5
18C
 10
967979.919
 20
7251625.874
 30
0.0
 40
8.0
  1
V1770 P648
 50
358.0966
  7
txt
 72
     4
 11
968017.667092
 21
7251628.621733
 31
0.0
210
0.0
220
0.0
230
1.0
  0
TEXT
  8
-22
  6
CONTINUOUS
 62
     3
  5
18D
 10
967939.389
 20
7251616.802
 30
0.0
 40
6.0
  1
95'OVERHEAD POWER LINE EASEMENT
 50
358.0966
  7
txt
 72
     4
 11
968028.087732
 21
7251616.855947
 31
0.0
210
0.0
220
0.0
230
1.0
  0
TEXT
  8
-22
  6
CONTINUOUS
 62
     3
  5
18E
 10
968005.397
 20
7251592.26
 30
0.0
 40
6.0
  1
963.5'
 50
358.0966
  7
txt
 72
     4
 11
968019.944667
 21
7251594.778196
 31
0.0
210
0.0
220
0.0
230
1.0
  0
TEXT
  8
-22
  6
CONTINUOUS
 62
     3
  5
18F
 10
968250.208
 20
7251557.738
 30
0.0
 40
6.0
  1
1024.9'
 50
358.0966
  7
txt
 72
     4
 11
968266.950456
 21
7251560.183257
 31
0.0
210
0.0
220
0.0
230
1.0
  0
TEXT
  8
-13
  6
CONTINUOUS
 62
    14
  5
190
 10
968237.934
 20
7251569.423
 30
0.0
 40
8.0
  1
V979 P573
 50
358.0966
  7
txt
 72
     4
 11
968272.596795
 21
7251572.273266
 31
0.0
210
0.0
220
0.0
230
1.0
  0
TEXT
  8
-22
  6
CONTINUOUS
 62
     3
  5
191
 10
968308.492
 20
7251556.039
 30
0.0
 40
6.0
  1
15'EXCESS WATER SEWER LINE
 50
358.0966
  7
txt
 72
     4
 11
968382.224994
 21
7251556.590301
 31
0.0
210
0.0
220
0.0
230
1.0
  0
POLYLINE
  8
-21
  6
DASHDOT
 62
     7
  5
192
 66
     1
 10
0.0
 20
0.0
 30
0.0
  0
VERTEX
  8
-21
  6
DASHDOT
 62
     7
  5
193
 10
968649.97
 20
7251590.514
 30
0.0
  0
VERTEX
  8
-21
  6
DASHDOT
 62
     7
  5
194
 10
968654.717
 20
7251588.945
 30
0.0
  0
VERTEX
  8
-21
  6
DASHDOT
 62
     7
  5
195
 10
968645.773
 20
7251561.885
 30
0.0
  0
VERTEX
  8
-21
  6
DASHDOT
 62
     7
  5
196
 10
965337.913
 20
7252655.007
 30
0.0
  0
VERTEX
  8
-21
  6
DASHDOT
 62
     7
  5
197
 10
965339.482
 20
7252659.753
 30
0.0
  0
VERTEX
  8
-21
  6
DASHDOT
 62
     7
  5
198
 10
968642.595
 20
7251568.202
 30
0.0
  0
VERTEX
  8
-21
  6
DASHDOT
 62
     7
  5
199
 10
968649.97
 20
7251590.514
 30
0.0
  0
SEQEND
  8
-21
  6
DASHDOT
 62
     7
  5
19A
  0
TEXT
  8
-22
  6
CONTINUOUS
 62
     3
  5
19B
 10
967187.52
 20
7252050.374
 30
0.0
 40
6.0
  1
5'WATER LINE EASEMENT
 50
341.0966
  7
txt
 72
     4
 11
967244.201971
 21
7252034.134691
 31
0.0
210
0.0
220
0.0
230
1.0
  0
TEXT
  8
-13
  6
CONTINUOUS
 62
    14
  5
19C
 10
967175.919
 20
7252038.581
 30
0.0
 40
8.0
  1
V898 P647
 50
341.0966
  7
txt
 72
     4
 11
967210.228818
 21
7252031.059883
 31
0.0
210
0.0
220
0.0
230
1.0
  0
TEXT
  8
-13
  6
CONTINUOUS
 62
    14
  5
19D
 10
966265.94
 20
7251953.331
 30
0.0
 40
8.0
  1
V979 P647
 50
358.0966
  7
txt
 72
     4
 11
966300.601796
 21
7251956.181299
 31
0.0
210
0.0
220
0.0
230
1.0
  0
TEXT
  8
-13
  6
CONTINUOUS
 62
    14
  5
19E
 10
966532.015
 20
7251769.089
 30
0.0
 40
8.0
  1
V2591 P58
 50
358.0966
  7
txt
 72
     4
 11
966564.160185
 21
7251772.022933
 31
0.0
210
0.0
220
0.0
230
1.0
  0
TEXT
  8
-22
  6
CONTINUOUS
 62
     3
  5
19F
 10
966513.32
 20
7251757.106
 30
0.0
 40
8.0
  1
RESOLUTION 2617
 50
357.3966
  7
ROMANS
210
0.0
220
0.0
230
1.0
  0
POLYLINE
  8
-21
  6
DASHDOT
 62
     7
  5
1A0
 66
     1
 10
0.0
 20
0.0
 30
0.0
  0
VERTEX
  8
-21
  6
DASHDOT
 62
     7
  5
1A1
 10
965303.664
 20
7251699.741
 30
0.0
  0
VERTEX
  8
-21
  6
DASHDOT
 62
     7
  5
1A2
 10
965841.053
 20
7251688.764
 30
0.0
  0
VERTEX
  8
-21
  6
DASHDOT
 62
     7
  5
1A3
 10
965840.951
 20
7251683.765
 30
0.0
  0
SEQEND
  8
-21
  6
DASHDOT
 62
     7
  5
1A4
  0
LINE
  8
-21
  6
DASHDOT
 62
     7
  5
1A5
 10
965840.951
 20
7251683.765
 30
0.0
 11
965860.945
 21
7251683.357
 31
0.0
  0
POLYLINE
  8
-21
  6
DASHDOT
 62
     7
  5
1A6
 66
     1
 10
0.0
 20
0.0
 30
0.0
  0
VERTEX
  8
-21
  6
DASHDOT
 62
     7
  5
1A7
 10
965303.256
 20
7251679.745
 30
0.0
  0
VERTEX
  8
-21
  6
DASHDOT
 62
     7
  5
1A8
 10
965860.64
 20
7251668.36
 30
0.0
  0
VERTEX
  8
-21
  6
DASHDOT
 62
     7
  5
1A9
 10
965860.945
 20
7251683.357
 30
0.0
  0
SEQEND
  8
-21
  6
DASHDOT
 62
     7
  5
1AA
  0
POLYLINE
  8
-21
  6
DASHDOT
 62
     7
  5
1AB
 66
     1
 10
0.0
 20
0.0
 30
0.0
  0
VERTEX
  8
-21
  6
DASHDOT
 62
     7
  5
1AC
 10
965859.517
 20
7251613.371
 30
0.0
  0
VERTEX
  8
-21
  6
DASHDOT
 62
     7
  5
1AD
 10
965839.521
 20
7251613.779
 30
0.0
  0
VERTEX
  8
-21
  6
DASHDOT
 62
     7
  5
1AE
 10
965840.848
 20
7251678.767
 30
0.0
  0
VERTEX
  8
-21
  6
DASHDOT
 62
     7
  5
1AF
 10
965860.843
 20
7251678.358
 30
0.0
  0
VERTEX
  8
-21
  6
DASHDOT
 62
     7
  5
1B0
 10
965859.517
 20
7251613.371
 30
0.0
  0
SEQEND
  8
-21
  6
DASHDOT
 62
     7
  5
1B1
  0
POLYLINE
  8
-21
  6
DASHDOT
 62
     7
  5
1B2
 66
     1
 10
0.0
 20
0.0
 30
0.0
  0
VERTEX
  8
-21
  6
DASHDOT
 62
     7
  5
1B3
 10
965200.53
 20
7251678.837
 30
0.0
  0
VERTEX
  8
-21
  6
DASHDOT
 62
     7
  5
1B4
 10
965201.5
 20
7251726.327
 30
0.0
  0
VERTEX
  8
-21
  6
DASHDOT
 62
     7
  5
1B5
 10
965901.66
 20
7251727.032
 30
0.0
  0
VERTEX
  8
-21
  6
DASHDOT
 62
     7
  5
1B6
 10
965899.72
 20
7251632.052
 30
0.0
  0
VERTEX
  8
-21
  6
DASHDOT
 62
     7
  5
1B7
 10
965199.56
 20
7251631.347
 30
0.0
  0
VERTEX
  8
-21
  6
DASHDOT
 62
     7
  5
1B8
 10
965200.95
 20
7251673.142
 30
0.0
  0
SEQEND
  8
-21
  6
DASHDOT
 62
     7
  5
1B9
  0
TEXT
  8
-22
  6
CONTINUOUS
 62
     3
  5
1BA
 10
965847.917
 20
7251642.251
 30
0.0
 40
6.0
  1
20' X 65' PNG EASEMENT BY RESOLUTION DATED 08/27/1970
 50
358.0966
  7
txt
 72
     4
 11
965995.755083
 21
7251640.339579
 31
0.0
210
0.0
220
0.0
230
1.0
  0
LINE
  8
-21
  6
DASHDOT
 62
     7
  5
1BB
 10
965303.664
 20
7251699.741
 30
0.0
 11
965303.256
 21
7251679.745
 31
0.0
  0
TEXT
  8
-22
  6
CONTINUOUS
 62
     3
  5
1BC
 10
965212.777
 20
7251653.364
 30
0.0
 40
6.0
  1
GASLINE USE PERMIT
 50
358.0966
  7
txt
 72
     4
 11
965263.018962
 21
7251654.695974
 31
0.0
210
0.0
220
0.0
230
1.0
  0
TEXT
  8
-22
  6
CONTINUOUS
 62
     3
  5
1BD
 10
965213.325
 20
7251644.734
 30
0.0
 40
6.0
  1
RESOLUTION 1109 DATED 5/27/1982
 50
358.0966
  7
txt
 72
     4
 11
965299.475139
 21
7251644.872644
 31
0.0
210
0.0
220
0.0
230
1.0
  0
TEXT
  8
-22
  6
CONTINUOUS
 62
     3
  5
1BE
 10
965535.08
 20
7251698.169
 30
0.0
 40
6.0
  1
20'NATURAL GAS PIPELINE
 50
358.0966
  7
txt
 72
     4
 11
965597.811067
 21
7251699.085926
 31
0.0
210
0.0
220
0.0
230
1.0
  0
TEXT
  8
-13
  6
CONTINUOUS
 62
    14
  5
1BF
 10
965522.643
 20
7251678.995
 30
0.0
 40
8.0
  1
V991 P21
 50
358.0966
  7
txt
 72
     4
 11
965549.185278
 21
7251682.115133
 31
0.0
210
0.0
220
0.0
230
1.0
  0
POLYLINE
  8
-21
  6
DASHDOT
 62
     7
  5
1C0
 66
     1
 10
0.0
 20
0.0
 30
0.0
  0
VERTEX
  8
-21
  6
DASHDOT
 62
     7
  5
1C1
 10
967729.367
 20
7251575.98
 30
0.0
  0
VERTEX
  8
-21
  6
DASHDOT
 62
     7
  5
1C2
 10
965295.885
 20
7251625.682
 30
0.0
  0
VERTEX
  8
-21
  6
DASHDOT
 62
     7
  5
1C3
 10
965317.636
 20
7252690.661
 30
0.0
  0
VERTEX
  8
-21
  6
DASHDOT
 62
     7
  5
1C4
 10
967735.191
 20
7251891.751
 30
0.0
  0
VERTEX
  8
-21
  6
DASHDOT
 62
     7
  5
1C5
 10
967729.367
 20
7251575.98
 30
0.0
  0
SEQEND
  8
-21
  6
DASHDOT
 62
     7
  5
1C6
  0
LINE
  8
-6
  6
CONTINUOUS
 62
     7
  5
1C7
 10
967735.191
 20
7251891.751
 30
0.0
 11
967729.367
 21
7251575.98
 31
0.0
  0
LINE
  8
-6
  6
CONTINUOUS
 62
     7
  5
1C8
 10
967729.367
 20
7251575.98
 30
0.0
 11
965295.885
 21
7251625.682
 31
0.0
  0
POLYLINE
  8
-21
  6
DASHDOT
 62
     7
  5
1C9
 66
     1
 10
0.0
 20
0.0
 30
0.0
  0
VERTEX
  8
-21
  6
DASHDOT
 62
     7
  5
1CA
 10
965295.885
 20
7251625.682
 30
0.0
  0
VERTEX
  8
-21
  6
DASHDOT
 62
     7
  5
1CB
 10
964908.569
 20
7251633.753
 30
0.0
  0
VERTEX
  8
-21
  6
DASHDOT
 62
     7
  5
1CC
 10
964919.664
 20
7252166.238
 30
0.0
  0
VERTEX
  8
-21
  6
DASHDOT
 62
     7
  5
1CD
 10
965306.979
 20
7252158.167
 30
0.0
  0
VERTEX
  8
-21
  6
DASHDOT
 62
     7
  5
1CE
 10
965295.885
 20
7251625.682
 30
0.0
  0
SEQEND
  8
-21
  6
DASHDOT
 62
     7
  5
1CF
  0
POLYLINE
  8
-6
  6
CONTINUOUS
 62
     7
  5
1D0
 66
     1
 10
0.0
 20
0.0
 30
0.0
  0
VERTEX
  8
-6
  6
CONTINUOUS
 62
     7
  5
1D1
 10
964919.664
 20
7252166.238
 30
0.0
  0
VERTEX
  8
-6
  6
CONTINUOUS
 62
     7
  5
1D2
 10
964908.569
 20
7251633.753
 30
0.0
  0
VERTEX
  8
-6
  6
CONTINUOUS
 62
     7
  5
1D3
 10
965295.885
 20
7251625.682
 30
0.0
  0
SEQEND
  8
-6
  6
CONTINUOUS
 62
     7
  5
1D4
  0
TEXT
  8
-13
  6
CONTINUOUS
 62
    14
  5
1D5
 10
965074.28
 20
7251876.037
 30
0.0
 40
8.0
  1
V1749 P428
 50
358.0966
  7
txt
 72
     4
 11
965112.060075
 21
7251878.78367
 31
0.0
210
0.0
220
0.0
230
1.0
  0
TEXT
  8
-22
  6
CONTINUOUS
 62
     3
  5
1D6
 10
965023.236
 20
7251864.828
 30
0.0
 40
8.0
  1
CITY OF LUBBOCK PROPERTY
 50
358.0966
  7
txt
 72
     4
 11
965116.951195
 21
7251865.715788
 31
0.0
210
0.0
220
0.0
230
1.0
  0
TEXT
  8
-11
  6
CONTINUOUS
 62
     7
  5
1D7
 10
965050.243
 20
7252153.984
 30
0.0
 40
8.0
  1
387.4'
 50
358.0966
  7
txt
 72
     4
 11
965070.238892
 21
7252157.321688
 31
0.0
210
0.0
220
0.0
230
1.0
  0
TEXT
  8
-11
  6
CONTINUOUS
 62
     7
  5
1D8
 10
965058.072
 20
7251633.934
 30
0.0
 40
8.0
  1
387.4'
 50
358.0966
  7
txt
 72
     4
 11
965078.067892
 21
7251637.271688
 31
0.0
210
0.0
220
0.0
230
1.0
  0
TEXT
  8
-11
  6
CONTINUOUS
 62
     7
  5
1D9
 10
964924.004
 20
7251849.706
 30
0.0
 40
8.0
  1
532.6'
 50
88.0966
  7
txt
 72
     4
 11
964920.652694
 21
7251869.292119
 31
0.0
210
0.0
220
0.0
230
1.0
  0
TEXT
  8
-11
  6
CONTINUOUS
 62
     7
  5
1DA
 10
965298.199
 20
7251912.614
 30
0.0
 40
8.0
  1
532.6'
 50
88.0966
  7
txt
 72
     4
 11
965294.847694
 21
7251932.200119
 31
0.0
210
0.0
220
0.0
230
1.0
  0
TEXT
  8
-13
  6
CONTINUOUS
 62
    14
  5
1DB
 10
965181.486
 20
7252707.318
 30
0.0
 40
8.0
  1
V1216 P91
 50
358.0966
  7
txt
 72
     4
 11
965211.836176
 21
7252710.311586
 31
0.0
210
0.0
220
0.0
230
1.0
  0
POLYLINE
  8
-21
  6
DASHDOT
 62
     7
  5
1DC
 66
     1
 10
0.0
 20
0.0
 30
0.0
  0
VERTEX
  8
-21
  6
DASHDOT
 62
     7
  5
1DD
 10
965348.128
 20
7253240.623
 30
0.0
  0
VERTEX
  8
-21
  6
DASHDOT
 62
     7
  5
1DE
 10
965340.542
 20
7252852.547
 30
0.0
  0
VERTEX
  8
-21
  6
DASHDOT
 62
     7
  5
1DF
 10
965410.101
 20
7252829.561
 30
0.0
  0
VERTEX
  8
-21
  6
DASHDOT
 62
     7
  5
1E0
 10
965418.111
 20
7253239.192
 30
0.0
  0
VERTEX
  8
-21
  6
DASHDOT
 62
     7
  5
1E1
 10
965348.128
 20
7253240.623
 30
0.0
  0
SEQEND
  8
-21
  6
DASHDOT
 62
     7
  5
1E2
  0
TEXT
  8
-22
  6
CONTINUOUS
 62
     3
  5
1E3
 10
965360.232
 20
7253055.757
 30
0.0
 40
6.0
  1
388.15'
 50
88.0966
  7
txt
 72
     4
 11
965357.787573
 21
7253072.524442
 31
0.0
210
0.0
220
0.0
230
1.0
  0
TEXT
  8
-13
  6
CONTINUOUS
 62
    14
  5
1E4
 10
965385.622
 20
7253027.912
 30
0.0
 40
8.0
  1
V1661 P724
 50
88.0966
  7
txt
 72
     4
 11
965382.77489
 21
7253062.669743
 31
0.0
210
0.0
220
0.0
230
1.0
  0
TEXT
  8
-22
  6
CONTINUOUS
 62
     3
  5
1E5
 10
965411.322
 20
7253059.563
 30
0.0
 40
6.0
  1
409.71'
 50
88.0966
  7
txt
 72
     4
 11
965408.87754
 21
7253076.329442
 31
0.0
210
0.0
220
0.0
230
1.0
  0
TEXT
  8
-22
  6
CONTINUOUS
 62
     3
  5
1E6
 10
965367.262
 20
7252846.294
 30
0.0
 40
6.0
  1
73.26'
 50
341.0966
  7
txt
 72
     4
 11
965382.0673
 21
7252844.395057
 31
0.0
210
0.0
220
0.0
230
1.0
  0
TEXT
  8
-13
  6
CONTINUOUS
 62
    14
  5
1E7
 10
965315.518
 20
7252874.11
 30
0.0
 40
8.0
  1
V1295 P189
 50
88.0966
  7
txt
 72
     4
 11
965312.710681
 21
7252910.065082
 31
0.0
210
0.0
220
0.0
230
1.0
  0
TEXT
  8
-22
  6
CONTINUOUS
 62
     3
  5
1E8
 10
965317.277
 20
7252957.139
 30
0.0
 40
6.0
  1
10.4'GWE
 50
88.0966
  7
txt
 72
     4
 11
965314.931386
 21
7252976.8798
 31
0.0
210
0.0
220
0.0
230
1.0
  0
TEXT
  8
-22
  6
CONTINUOUS
 62
     3
  5
1E9
 10
965329.735
 20
7252971.766
 30
0.0
 40
6.0
  1
15'ELECTRICAL POWER TRANSMISSION LINE EASEMENT
 50
88.0966
  7
txt
 72
     4
 11
965331.015578
 21
7253100.621563
 31
0.0
210
0.0
220
0.0
230
1.0
  0
TEXT
  8
-13
  6
CONTINUOUS
 62
    14
  5
1EA
 10
965346.597
 20
7252995.746
 30
0.0
 40
8.0
  1
V1049 P511
 50
88.0966
  7
txt
 72
     4
 11
965343.747764
 21
7253030.439778
 31
0.0
210
0.0
220
0.0
230
1.0
  0
POLYLINE
  8
-21
  6
DASHDOT
 62
     7
  5
1EB
 66
     1
 10
0.0
 20
0.0
 30
0.0
  0
VERTEX
  8
-21
  6
DASHDOT
 62
     7
  5
1EC
 10
965323.464
 20
7252858.609
 30
0.0
  0
VERTEX
  8
-21
  6
DASHDOT
 62
     7
  5
1ED
 10
965328.4
 20
7252856.976
 30
0.0
  0
VERTEX
  8
-21
  6
DASHDOT
 62
     7
  5
1EE
 10
965330.483
 20
7252956.954
 30
0.0
  0
VERTEX
  8
-21
  6
DASHDOT
 62
     7
  5
1EF
 10
965320.61
 20
7252960.219
 30
0.0
  0
VERTEX
  8
-21
  6
DASHDOT
 62
     7
  5
1F0
 10
965318.527
 20
7252860.242
 30
0.0
  0
VERTEX
  8
-21
  6
DASHDOT
 62
     7
  5
1F1
 10
965323.464
 20
7252858.609
 30
0.0
  0
SEQEND
  8
-21
  6
DASHDOT
 62
     7
  5
1F2
  0
POLYLINE
  8
-21
  6
DASHDOT
 62
     7
  5
1F3
 66
     1
 10
0.0
 20
0.0
 30
0.0
  0
VERTEX
  8
-21
  6
DASHDOT
 62
     7
  5
1F4
 10
965339.224
 20
7253243.007
 30
0.0
  0
VERTEX
  8
-21
  6
DASHDOT
 62
     7
  5
1F5
 10
965354.223
 20
7253242.882
 30
0.0
  0
VERTEX
  8
-21
  6
DASHDOT
 62
     7
  5
1F6
 10
965350.853
 20
7252843.895
 30
0.0
  0
VERTEX
  8
-21
  6
DASHDOT
 62
     7
  5
1F7
 10
965335.854
 20
7252844.021
 30
0.0
  0
VERTEX
  8
-21
  6
DASHDOT
 62
     7
  5
1F8
 10
965339.224
 20
7253243.007
 30
0.0
  0
SEQEND
  8
-21
  6
DASHDOT
 62
     7
  5
1F9
  0
TEXT
  8
-22
  6
CONTINUOUS
 62
     3
  5
1FA
 10
965346.343
 20
7254268.268
 30
0.0
 40
6.0
  1
15'X60' GWE
 50
88.0966
  7
txt
 72
     4
 11
965344.218661
 21
7254294.667125
 31
0.0
210
0.0
220
0.0
230
1.0
  0
TEXT
  8
-22
  6
CONTINUOUS
 62
     3
  5
1FB
 10
965382.077
 20
7254240.104
 30
0.0
 40
6.0
  1
15'X60' GWE
 50
358.0966
  7
txt
 72
     4
 11
965408.476125
 21
7254242.228339
 31
0.0
210
0.0
220
0.0
230
1.0
  0
POLYLINE
  8
-21
  6
DASHDOT
 62
     7
  5
1FC
 66
     1
 10
0.0
 20
0.0
 30
0.0
  0
VERTEX
  8
-21
  6
DASHDOT
 62
     7
  5
1FD
 10
965348.208
 20
7254256.51
 30
0.0
  0
VERTEX
  8
-21
  6
DASHDOT
 62
     7
  5
1FE
 10
965349.458
 20
7254316.497
 30
0.0
  0
VERTEX
  8
-21
  6
DASHDOT
 62
     7
  5
1FF
 10
965364.455
 20
7254316.185
 30
0.0
  0
VERTEX
  8
-21
  6
DASHDOT
 62
     7
  5
200
 10
965363.205
 20
7254256.198
 30
0.0
  0
VERTEX
  8
-21
  6
DASHDOT
 62
     7
  5
201
 10
965348.208
 20
7254256.51
 30
0.0
  0
SEQEND
  8
-21
  6
DASHDOT
 62
     7
  5
202
  0
POLYLINE
  8
-21
  6
DASHDOT
 62
     7
  5
203
 66
     1
 10
0.0
 20
0.0
 30
0.0
  0
VERTEX
  8
-21
  6
DASHDOT
 62
     7
  5
204
 10
965355.55
 20
7254248.855
 30
0.0
  0
VERTEX
  8
-21
  6
DASHDOT
 62
     7
  5
205
 10
965355.862
 20
7254263.852
 30
0.0
  0
VERTEX
  8
-21
  6
DASHDOT
 62
     7
  5
206
 10
965415.848
 20
7254262.602
 30
0.0
  0
VERTEX
  8
-21
  6
DASHDOT
 62
     7
  5
207
 10
965415.537
 20
7254247.605
 30
0.0
  0
VERTEX
  8
-21
  6
DASHDOT
 62
     7
  5
208
 10
965355.55
 20
7254248.855
 30
0.0
  0
SEQEND
  8
-21
  6
DASHDOT
 62
     7
  5
209
  0
POLYLINE
  8
-21
  6
DASHDOT
 62
     7
  5
20A
 66
     1
 10
0.0
 20
0.0
 30
0.0
  0
VERTEX
  8
-21
  6
DASHDOT
 62
     7
  5
20B
 10
965354.654
 20
7253242.659
 30
0.0
  0
VERTEX
  8
-21
  6
DASHDOT
 62
     7
  5
20C
 10
965339.657
 20
7253242.972
 30
0.0
  0
VERTEX
  8
-21
  6
DASHDOT
 62
     7
  5
20D
 10
965360.617
 20
7254248.924
 30
0.0
  0
VERTEX
  8
-21
  6
DASHDOT
 62
     7
  5
20E
 10
965330.124
 20
7254249.56
 30
0.0
  0
VERTEX
  8
-21
  6
DASHDOT
 62
     7
  5
20F
 10
965330.437
 20
7254264.556
 30
0.0
  0
VERTEX
  8
-21
  6
DASHDOT
 62
     7
  5
210
 10
965375.926
 20
7254263.609
 30
0.0
  0
VERTEX
  8
-21
  6
DASHDOT
 62
     7
  5
211
 10
965354.654
 20
7253242.659
 30
0.0
  0
SEQEND
  8
-21
  6
DASHDOT
 62
     7
  5
212
  0
TEXT
  8
-22
  6
CONTINUOUS
 62
     3
  5
213
 10
964272.567
 20
7254291.518
 30
0.0
 40
6.0
  1
15'OVERHEAD POWER LINE EASEMENT
 50
358.0966
  7
txt
 72
     4
 11
964360.34424
 21
7254291.602571
 31
0.0
210
0.0
220
0.0
230
1.0
  0
TEXT
  8
-13
  6
CONTINUOUS
 62
    14
  5
214
 10
964303.208
 20
7254277.486
 30
0.0
 40
8.0
  1
V1048 P483
 50
358.0966
  7
txt
 72
     4
 11
964341.3039
 21
7254280.222174
 31
0.0
210
0.0
220
0.0
230
1.0
  0
TEXT
  8
-22
  6
CONTINUOUS
 62
     3
  5
215
 10
964329.544
 20
7254263.861
 30
0.0
 40
6.0
  1
2005.35'
 50
358.0966
  7
txt
 72
     4
 11
964350.324227
 21
7254266.172071
 31
0.0
210
0.0
220
0.0
230
1.0
  0
TEXT
  8
-13
  6
CONTINUOUS
 62
    14
  5
216
 10
965363.197
 20
7253818.294
 30
0.0
 40
8.0
  1
V1048 P361 T1
 50
88.0966
  7
txt
 72
     4
 11
965360.70555
 21
7253863.753835
 31
0.0
210
0.0
220
0.0
230
1.0
  0
TEXT
  8
-22
  6
CONTINUOUS
 62
     3
  5
217
 10
965341.038
 20
7253563.516
 30
0.0
 40
6.0
  1
15'ELECTRICAL POWER TRANSMISSION LINE EASEMENT
 50
88.0966
  7
txt
 72
     4
 11
965342.318578
 21
7253692.371563
 31
0.0
210
0.0
220
0.0
230
1.0
  0
TEXT
  8
-13
  6
CONTINUOUS
 62
    14
  5
218
 10
967664.406
 20
7252084.494
 30
0.0
 40
8.0
  1
V4309 P218
 50
358.0966
  7
txt
 72
     4
 11
967701.934214
 21
7252087.24904
 31
0.0
210
0.0
220
0.0
230
1.0
  0
TEXT
  8
-22
  6
CONTINUOUS
 62
     3
  5
219
 10
967738.235
 20
7252052.172
 30
0.0
 40
6.0
  1
5'GWE
 50
88.0966
  7
txt
 72
     4
 11
967735.6713
 21
7252065.350423
 31
0.0
210
0.0
220
0.0
230
1.0
  0
POLYLINE
  8
-21
  6
DASHDOT
 62
     7
  5
21A
 66
     1
 10
0.0
 20
0.0
 30
0.0
  0
VERTEX
  8
-21
  6
DASHDOT
 62
     7
  5
21B
 10
967745.127
 20
7252056.846
 30
0.0
  0
VERTEX
  8
-21
  6
DASHDOT
 62
     7
  5
21C
 10
967745.742
 20
7252088.34
 30
0.0
  0
VERTEX
  8
-21
  6
DASHDOT
 62
     7
  5
21D
 10
967740.742
 20
7252088.437
 30
0.0
  0
VERTEX
  8
-21
  6
DASHDOT
 62
     7
  5
21E
 10
967740.158
 20
7252058.444
 30
0.0
  0
VERTEX
  8
-21
  6
DASHDOT
 62
     7
  5
21F
 10
967745.127
 20
7252056.846
 30
0.0
  0
SEQEND
  8
-21
  6
DASHDOT
 62
     7
  5
220
  0
POLYLINE
  8
-21
  6
DASHDOT
 62
     7
  5
221
 66
     1
 10
0.0
 20
0.0
 30
0.0
  0
VERTEX
  8
-21
  6
DASHDOT
 62
     7
  5
222
 10
967741.848
 20
7252054.709
 30
0.0
  0
VERTEX
  8
-21
  6
DASHDOT
 62
     7
  5
223
 10
967763.331
 20
7253152.179
 30
0.0
  0
VERTEX
  8
-21
  6
DASHDOT
 62
     7
  5
224
 10
967783.328
 20
7253151.789
 30
0.0
  0
VERTEX
  8
-21
  6
DASHDOT
 62
     7
  5
225
 10
967761.844
 20
7252054.319
 30
0.0
  0
VERTEX
  8
-21
  6
DASHDOT
 62
     7
  5
226
 10
967741.848
 20
7252054.709
 30
0.0
  0
SEQEND
  8
-21
  6
DASHDOT
 62
     7
  5
227
  0
TEXT
  8
-22
  6
CONTINUOUS
 62
     3
  5
228
 10
967750.312
 20
7252693.619
 30
0.0
 40
6.0
  1
20'WASTEWATER PIPELINE EASEMENT
 50
88.0966
  7
txt
 72
     4
 11
967750.243937
 21
7252781.892966
 31
0.0
210
0.0
220
0.0
230
1.0
  0
TEXT
  8
-13
  6
CONTINUOUS
 62
    14
  5
229
 10
967767.342
 20
7252706.322
 30
0.0
 40
8.0
  1
V1509 P169 T2
 50
88.0966
  7
txt
 72
     4
 11
967764.913293
 21
7252753.669793
 31
0.0
210
0.0
220
0.0
230
1.0
  0
POLYLINE
  8
-21
  6
DASHDOT
 62
     7
  5
22A
 66
     1
 10
0.0
 20
0.0
 30
0.0
 70
     1
  0
VERTEX
  8
-21
  6
DASHDOT
 62
     7
  5
22B
 10
967763.331
 20
7253152.179
 30
0.0
  0
VERTEX
  8
-21
  6
DASHDOT
 62
     7
  5
22C
 10
967784.225
 20
7254219.492
 30
0.0
  0
VERTEX
  8
-21
  6
DASHDOT
 62
     7
  5
22D
 10
967792.27
 20
7254658.164
 30
0.0
  0
VERTEX
  8
-21
  6
DASHDOT
 62
     7
  5
22E
 10
967812.267
 20
7254657.798
 30
0.0
  0
VERTEX
  8
-21
  6
DASHDOT
 62
     7
  5
22F
 10
967804.222
 20
7254219.113
 30
0.0
  0
VERTEX
  8
-21
  6
DASHDOT
 62
     7
  5
230
 10
967783.328
 20
7253151.788
 30
0.0
  0
VERTEX
  8
-21
  6
DASHDOT
 62
     7
  5
231
 10
967763.331
 20
7253152.179
 30
0.0
  0
SEQEND
  8
-21
  6
DASHDOT
 62
     7
  5
232
  0
TEXT
  8
-13
  6
CONTINUOUS
 62
    14
  5
233
 10
967789.28
 20
7253679.199
 30
0.0
 40
8.0
  1
V1509 P169 T1
 50
88.0966
  7
txt
 72
     4
 11
967786.804228
 21
7253725.130574
 31
0.0
210
0.0
220
0.0
230
1.0
  0
TEXT
  8
-22
  6
CONTINUOUS
 62
     3
  5
234
 10
967769.847
 20
7253680.434
 30
0.0
 40
6.0
  1
20'WASTEWATER PIPELINE EASEMENT
 50
88.0966
  7
txt
 72
     4
 11
967769.778937
 21
7253768.707966
 31
0.0
210
0.0
220
0.0
230
1.0
  0
LINE
  8
-6
  6
CONTINUOUS
 62
     7
  5
235
 10
966209.963
 20
7256880.314
 30
0.0
 11
967039.824
 21
7255592.679
 31
0.0
  0
LINE
  8
-6
  6
CONTINUOUS
 62
     7
  5
236
 10
966571.48
 20
7256868.992
 30
0.0
 11
969042.746
 21
7253714.628
 31
0.0
  0
LINE
  8
-27
  6
CONTINUOUS
 62
    32
  5
238
 10
966446.515
 20
7256872.478
 30
0.0
 11
967303.63
 21
7255781.013
 31
0.0
  0
LINE
  8
-6
  6
CONTINUOUS
 62
     7
  5
239
 10
966313.542
 20
7256877.07
 30
0.0
 11
967203.644
 21
7255737.79
 31
0.0
  0
LINE
  8
-6
  6
CONTINUOUS
 62
     7
  5
23A
 10
967697.016
 20
7255108.041
 30
0.0
 11
969037.173
 21
7253397.444
 31
0.0
  0
LINE
  8
-6
  6
CONTINUOUS
 62
     7
  5
23B
 10
967447.815
 20
7255045.609
 30
0.0
 11
969033.587
 21
7253193.383
 31
0.0
  0
ARC
  8
-6
  6
CONTINUOUS
 62
     7
  5
23C
 10
971304.558071
 20
7258347.534623
 30
0.0
 40
5077.123782
 50
212.860919
 51
220.568275
210
0.0
220
0.0
230
1.0
  0
TEXT
  8
-11
  6
CONTINUOUS
 62
     7
  5
23D
 10
967433.203
 20
7255492.083
 30
0.0
 40
8.0
  1
800'
 50
308.034833
  7
ROMANS
210
0.0
220
0.0
230
1.0
  0
TEXT
  8
-11
  6
CONTINUOUS
 62
     7
  5
23E
 10
967170.654
 20
7255696.218
 30
0.0
 40
8.0
  1
150'
 50
38.034858
  7
ROMANS
210
0.0
220
0.0
230
1.0
  0
TEXT
  8
-11
  6
CONTINUOUS
 62
     7
  5
23F
 10
967656.489
 20
7255083.513
 30
0.0
 40
8.0
  1
150'
 50
38.034858
  7
ROMANS
210
0.0
220
0.0
230
1.0
  0
TEXT
  8
-11
  6
CONTINUOUS
 62
     7
  5
240
 10
967254.042
 20
7255764.032
 30
0.0
 40
8.0
  1
50'
 50
38.034858
  7
ROMANS
210
0.0
220
0.0
230
1.0
  0
TEXT
  8
-11
  6
CONTINUOUS
 62
     7
  5
241
 10
967734.486
 20
7255154.787
 30
0.0
 40
8.0
  1
50'
 50
38.034858
  7
ROMANS
210
0.0
220
0.0
230
1.0
  0
LINE
  8
-6
  6
CONTINUOUS
 62
     7
  5
242
 10
969042.746
 20
7253714.628
 30
0.0
 11
969041.353
 21
7253635.333
 31
0.0
  0
LINE
  8
-6
  6
CONTINUOUS
 62
     7
  5
243
 10
969037.173
 20
7253397.444
 30
0.0
 11
969038.566
 21
7253476.739
 31
0.0
  0
TEXT
  8
-22
  6
CONTINUOUS
 62
     3
  5
244
 10
968793.063
 20
7253646.782
 30
0.0
 40
6.0
  1
RESOLUTION 3983 DATED 10/06/1992
 50
38.26
  7
txt
 72
     4
 11
968861.852119
 21
7253704.851078
 31
0.0
210
0.0
220
0.0
230
1.0
  0
LINE
  8
-21
  6
DASHDOT
 62
     7
  5
245
 10
968793.168
 20
7253630.378
 30
0.0
 11
968996.796
 21
7253789.907
 31
0.0
  0
TEXT
  8
-22
  6
CONTINUOUS
 62
     3
  5
246
 10
968796.819
 20
7253638.005
 30
0.0
 40
6.0
  1
SEWER LINE CROSSING PERMIT
 50
38.26
  7
txt
 72
     4
 11
968853.330593
 21
7253686.391782
 31
0.0
210
0.0
220
0.0
230
1.0
  0
POLYLINE
  8
-6
  6
CONTINUOUS
 62
     7
  5
247
 66
     1
 10
0.0
 20
0.0
 30
0.0
  0
VERTEX
  8
-6
  6
CONTINUOUS
 62
     7
  5
248
 10
963831.689
 20
7253350.167
 30
0.0
  0
VERTEX
  8
-6
  6
CONTINUOUS
 62
     7
  5
249
 10
963851.495
 20
7254300.742
 30
0.0
  0
VERTEX
  8
-6
  6
CONTINUOUS
 62
     7
  5
24A
 10
963786.849
 20
7254302.088
 30
0.0
  0
SEQEND
  8
-6
  6
CONTINUOUS
 62
     7
  5
24B
  0
LINE
  8
-6
  6
CONTINUOUS
 62
     7
  5
24C
 10
963767.009
 20
7253415.753
 30
0.0
 11
963832.603
 21
7253394.058
 31
0.0
  0
TEXT
  8
-11
  6
CONTINUOUS
 62
     7
  5
24D
 10
963826.984
 20
7253356.248
 30
0.0
 40
8.0
  1
36.62'
 50
88.0966
  7
txt
 72
     4
 11
963823.626383
 21
7253375.644223
 31
0.0
210
0.0
220
0.0
230
1.0
  0
TEXT
  8
-11
  6
CONTINUOUS
 62
     7
  5
24E
 10
963838.825
 20
7253857.965
 30
0.0
 40
8.0
  1
906.88'
 50
88.0966
  7
txt
 72
     4
 11
963835.599178
 21
7253881.327034
 31
0.0
210
0.0
220
0.0
230
1.0
  0
TEXT
  8
-11
  6
CONTINUOUS
 62
     7
  5
24F
 10
963852.809
 20
7253859.669
 30
0.0
 40
8.0
  1
943.5'
 50
88.0966
  7
txt
 72
     4
 11
963849.463971
 21
7253879.444014
 31
0.0
210
0.0
220
0.0
230
1.0
  0
TEXT
  8
-11
  6
CONTINUOUS
 62
     7
  5
250
 10
963803.657
 20
7254291.055
 30
0.0
 40
8.0
  1
64.66'
 50
358.0966
  7
txt
 72
     4
 11
963823.053223
 21
7254294.412617
 31
0.0
210
0.0
220
0.0
230
1.0
  0
LINE
  8
-21
  6
DASHDOT
 62
     7
  5
251
 10
963786.79
 20
7254299.473
 30
0.0
 11
965373.536
 21
7254266.411
 31
0.0
  0
POLYLINE
  8
-21
  6
DASHDOT
 62
     7
  5
252
 66
     1
 10
0.0
 20
0.0
 30
0.0
  0
VERTEX
  8
-21
  6
DASHDOT
 62
     7
  5
253
 10
965373.536
 20
7254266.411
 30
0.0
  0
VERTEX
  8
-21
  6
DASHDOT
 62
     7
  5
254
 10
965373.223
 20
7254251.414
 30
0.0
  0
VERTEX
  8
-21
  6
DASHDOT
 62
     7
  5
255
 10
963786.455
 20
7254284.477
 30
0.0
  0
SEQEND
  8
-21
  6
DASHDOT
 62
     7
  5
256
  0
LINE
  8
-6
  6
CONTINUOUS
 62
     7
  5
257
 10
968471.452
 20
7252377.652
 30
0.0
 11
968460.078
 21
7251820.815
 31
0.0
  0
LINE
  8
-6
  6
CONTINUOUS
 62
     7
  5
258
 10
968572.885
 20
7252242.295
 30
0.0
 11
968676.134
 21
7252208.178
 31
0.0
  0
POLYLINE
  8
-21
  6
DASHDOT
 62
     7
  5
259
 66
     1
 10
0.0
 20
0.0
 30
0.0
 70
     1
  0
VERTEX
  8
-21
  6
DASHDOT
 62
     7
  5
25A
 10
968562.889
 20
7252242.627
 30
0.0
  0
VERTEX
  8
-21
  6
DASHDOT
 62
     7
  5
25B
 10
968572.885
 20
7252242.295
 30
0.0
  0
VERTEX
  8
-21
  6
DASHDOT
 62
     7
  5
25C
 10
968564.325
 20
7251823.232
 30
0.0
  0
VERTEX
  8
-21
  6
DASHDOT
 62
     7
  5
25D
 10
968554.391
 20
7251826.514
 30
0.0
  0
SEQEND
  8
-21
  6
DASHDOT
 62
     7
  5
25E
  0
TEXT
  8
-11
  6
CONTINUOUS
 62
     7
  5
25F
 10
968555.995
 20
7252364.97
 30
0.0
 40
8.0
  1
208.1'
 50
358.0966
  7
txt
 72
     4
 11
968574.321814
 21
7252368.363156
 31
0.0
210
0.0
220
0.0
230
1.0
  0
TEXT
  8
-11
  6
CONTINUOUS
 62
     7
  5
260
 10
968475.758
 20
7252108.452
 30
0.0
 40
8.0
  1
520.33'
 50
88.0966
  7
txt
 72
     4
 11
968472.5448
 21
7252132.193824
 31
0.0
210
0.0
220
0.0
230
1.0
  0
TEXT
  8
-11
  6
CONTINUOUS
 62
     7
  5
261
 10
968608.218
 20
7252233.359
 30
0.0
 40
8.0
  1
108.74'
 50
342.0966
  7
txt
 72
     4
 11
968630.785796
 21
7252230.271874
 31
0.0
210
0.0
220
0.0
230
1.0
  0
TEXT
  8
-11
  6
CONTINUOUS
 62
     7
  5
262
 10
968505.951
 20
7251845.59
 30
0.0
 40
8.0
  1
109'
 50
342.0966
  7
txt
 72
     4
 11
968518.598615
 21
7251845.707655
 31
0.0
210
0.0
220
0.0
230
1.0
  0
TEXT
  8
-22
  6
CONTINUOUS
 62
     3
  5
263
 10
968559.101
 20
7252173.298
 30
0.0
 40
6.0
  1
10'UUE-LPL
 50
88.0966
  7
txt
 72
     4
 11
968556.929563
 21
7252198.279907
 31
0.0
210
0.0
220
0.0
230
1.0
  0
TEXT
  8
-10
  6
CONTINUOUS
 62
   134
  5
265
 10
968517.727
 20
7252090.026
 30
0.0
 40
13.999
  1
2
 50
358.0966
  7
txt
 72
     4
 11
968522.640917
 21
7252096.866561
 31
0.0
210
0.0
220
0.0
230
1.0
  0
TEXT
  8
-10
  6
CONTINUOUS
 62
   134
  5
266
 10
968192.93
 20
7252974.478
 30
0.0
 40
13.999
  1
UNSUBDIVIDED
 50
358.0966
  7
txt
 72
     4
 11
968270.16799
 21
7252978.915028
 31
0.0
210
0.0
220
0.0
230
1.0
  0
TEXT
  8
-10
  6
CONTINUOUS
 62
   134
  5
267
 10
968627.157
 20
7252016.303
 30
0.0
 40
13.999
  1
UNSUBDIVIDED
 50
88.0966
  7
txt
 72
     4
 11
968622.719972
 21
7252093.54099
 31
0.0
210
0.0
220
0.0
230
1.0
  0
TEXT
  8
-10
  6
CONTINUOUS
 62
   134
  5
268
 10
968607.474
 20
7251866.142
 30
0.0
 40
13.999
  1
1
 50
358.0966
  7
ROMANS
 72
     4
 11
968610.038214
 21
7251873.060648
 31
0.0
210
0.0
220
0.0
230
1.0
  0
TEXT
  8
-10
  6
CONTINUOUS
 62
   134
  5
269
 10
968824.657
 20
7252091.103
 30
0.0
 40
13.999
  1
1
 50
358.0966
  7
ROMANS
 72
     4
 11
968827.221214
 21
7252098.021648
 31
0.0
210
0.0
220
0.0
230
1.0
  0
TEXT
  8
-11
  6
CONTINUOUS
 62
     7
  5
26A
 10
968889.514
 20
7251775.544
 30
0.0
 40
8.0
  1
R=50'
 50
313.0966
  7
txt
 72
     4
 11
968903.969108
 21
7251765.949638
 31
0.0
210
0.0
220
0.0
230
1.0
  0
TEXT
  8
-11
  6
CONTINUOUS
 62
     7
  5
26B
 10
968936.443
 20
7251718.222
 30
0.0
 40
8.0
  1
80.45'
 50
43.0966
  7
txt
 72
     4
 11
968948.175396
 21
7251734.677606
 31
0.0
210
0.0
220
0.0
230
1.0
  0
TEXT
  8
-10
  6
CONTINUOUS
 62
   134
  5
26C
 10
964849.529
 20
7252525.282
 30
0.0
 40
13.999
  1
1
 50
357.386878
  7
ROMANS
210
0.0
220
0.0
230
1.0
  0
TEXT
  8
-10
  6
CONTINUOUS
 62
   134
  5
26D
 10
965226.484
 20
7252382.626
 30
0.0
 40
13.999
  1
4A
 50
357.386878
  7
ROMANS
210
0.0
220
0.0
230
1.0
  0
TEXT
  8
-10
  6
CONTINUOUS
 62
   134
  5
26E
 10
966242.57
 20
7252215.977
 30
0.0
 40
13.999
  1
1
 50
357.386878
  7
ROMANS
210
0.0
220
0.0
230
1.0
  0
TEXT
  8
-10
  6
CONTINUOUS
 62
   134
  5
26F
 10
967466.064
 20
7255381.652
 30
0.0
 40
13.999
  1
1
 50
358.26
  7
ROMANS
210
0.0
220
0.0
230
1.0
  0
LINE
  8
-27
  6
CONTINUOUS
 62
    32
  5
270
 10
969039.142
 20
7253552.149
 30
0.0
 11
967303.63
 21
7255781.013
 31
0.0
  0
LINE
  8
-27
  6
CONTINUOUS
 62
    32
  5
271
 10
969039.142
 20
7253581.253
 30
0.0
 11
967099.295
 21
7256077.584
 31
0.0
  0
LINE
  8
-27
  6
CONTINUOUS
 62
    32
  5
272
 10
968902.748
 20
7253779.522
 30
0.0
 11
969039.142
 21
7253603.08
 31
0.0
  0
ARC
  8
-27
  6
CONTINUOUS
 62
    32
  5
273
 10
970580.608564
 20
7255539.154294
 30
0.0
 40
2424.04488
 50
221.576911
 51
223.88915
210
0.0
220
0.0
230
1.0
  0
ARC
  8
-27
  6
CONTINUOUS
 62
    32
  5
274
 10
967751.538736
 20
7252843.834794
 30
0.0
 40
1483.507101
 50
39.103742
 51
43.162008
210
0.0
220
0.0
230
1.0
  0
ARC
  8
-27
  6
CONTINUOUS
 62
    32
  5
275
 10
967786.166012
 20
7256255.772906
 30
0.0
 40
655.130386
 50
218.430597
 51
226.223867
210
0.0
220
0.0
230
1.0
  0
ARC
  8
-27
  6
CONTINUOUS
 62
    32
  5
276
 10
966410.652678
 20
7254869.489677
 30
0.0
 40
1297.919813
 50
41.650747
 51
44.718472
210
0.0
220
0.0
230
1.0
  0
LINE
  8
-27
  6
CONTINUOUS
 62
    32
  5
277
 10
967380.471
 20
7255732.072
 30
0.0
 11
967629.254
 21
7255413.921
 31
0.0
  0
ARC
  8
-27
  6
CONTINUOUS
 62
    32
  5
278
 10
967584.458482
 20
7256901.372256
 30
0.0
 40
911.627473
 50
219.002708
 51
226.350653
210
0.0
220
0.0
230
1.0
  0
ARC
  8
-27
  6
CONTINUOUS
 62
    32
  5
279
 10
965357.784974
 20
7254694.346165
 30
0.0
 40
2224.006312
 50
38.459239
 51
44.088464
210
0.0
220
0.0
230
1.0
  0
LINE
  8
-6
  6
CONTINUOUS
 62
     7
  5
27A
 10
963984.234
 20
7256903.443
 30
0.0
 11
964575.614
 21
7256892.807
 31
0.0
  0
LINE
  8
-6
  6
CONTINUOUS
 62
     7
  5
27B
 10
966501.451
 20
7256871.185
 30
0.0
 11
966571.48
 21
7256868.992
 31
0.0
  0
TEXT
  8
-28
  6
CONTINUOUS
 62
    32
  5
27D
 10
966564.478
 20
7256659.43
 30
0.0
 40
24.0
  1
PANHANDLE AND SANTA FE RAILROAD
 50
308.034983
  7
ROMANC
210
0.0
220
0.0
230
1.0
  0
TEXT
  8
-10
  6
CONTINUOUS
 62
   134
  5
27E
 10
963897.315
 20
7253205.316
 30
0.0
 40
13.999
  1
2
 50
358.0966
  7
ROMANS
210
0.0
220
0.0
230
1.0
  0
POLYLINE
  8
-58
  6
DIVIDE
 62
   216
  5
280
 66
     1
 10
0.0
 20
0.0
 30
0.0
  0
VERTEX
  8
-58
  6
DIVIDE
 62
   216
  5
281
 10
969097.723
 20
7256843.381
 30
0.0
  0
VERTEX
  8
-58
  6
DIVIDE
 62
   216
  5
282
 10
968257.111
 20
7256868.917
 30
0.0
  0
VERTEX
  8
-58
  6
DIVIDE
 62
   216
  5
283
 10
968187.265
 20
7254569.705
 30
0.0
  0
SEQEND
  8
-58
  6
DIVIDE
 62
   216
  5
284
  0
LINE
  8
-58
  6
DIVIDE
 62
   216
  5
285
 10
969055.589
 20
7253456.335
 30
0.0
 11
968187.265
 21
7254569.705
 31
0.0
  0
TEXT
  8
-22
  6
CONTINUOUS
 62
     3
  5
286
 10
967747.879
 20
7251632.903
 30
0.0
 40
6.0
  1
95'
 50
88.0966
  7
txt
 72
     4
 11
967745.116013
 21
7251640.084734
 31
0.0
210
0.0
220
0.0
230
1.0
  0
ENDSEC
  0
EOF
